ISO-10303-21;
HEADER;
FILE_DESCRIPTION(('STEP AP214'),'1');
FILE_NAME(' ','  ',('TraceParts'),('TraceParts S.A.'),'XStep 1.0',' ',' ');
FILE_SCHEMA(('automotive_design'));
ENDSEC;
DATA;
#1=MECHANICAL_DESIGN_GEOMETRIC_PRESENTATION_REPRESENTATION(' ',(#10,#11,#12,#13,#14,#15,#16,#17,#18,#19,#20,#21,#22,#23,#24,#25,#26,#27,#28,#29,#30,#31,#32,#33,#34,#35),#6);
#2=PRODUCT_DEFINITION_CONTEXT('',#36,'design');
#3=APPLICATION_PROTOCOL_DEFINITION('INTERNATIONAL STANDARD','automotive_design',1994,#36);
#4=PRODUCT_CATEGORY_RELATIONSHIP('NONE','NONE',#37,#38);
#5=SHAPE_DEFINITION_REPRESENTATION(#39,#40);
#6= (GEOMETRIC_REPRESENTATION_CONTEXT(3)GLOBAL_UNCERTAINTY_ASSIGNED_CONTEXT((#43))GLOBAL_UNIT_ASSIGNED_CONTEXT((#45,#46,#47))REPRESENTATION_CONTEXT('NONE','WORKSPACE'));
#10=STYLED_ITEM('',(#49),#50);
#11=STYLED_ITEM('',(#51),#52);
#12=STYLED_ITEM('',(#53),#54);
#13=STYLED_ITEM('',(#55),#56);
#14=STYLED_ITEM('',(#57),#58);
#15=STYLED_ITEM('',(#59),#60);
#16=STYLED_ITEM('',(#61),#62);
#17=STYLED_ITEM('',(#63),#64);
#18=STYLED_ITEM('',(#65),#66);
#19=STYLED_ITEM('',(#67),#68);
#20=STYLED_ITEM('',(#69),#70);
#21=STYLED_ITEM('',(#71),#72);
#22=STYLED_ITEM('',(#73),#74);
#23=STYLED_ITEM('',(#75),#76);
#24=STYLED_ITEM('',(#77),#78);
#25=STYLED_ITEM('',(#79),#80);
#26=STYLED_ITEM('',(#81),#82);
#27=STYLED_ITEM('',(#83),#84);
#28=STYLED_ITEM('',(#85),#86);
#29=STYLED_ITEM('',(#87),#88);
#30=STYLED_ITEM('',(#89),#90);
#31=STYLED_ITEM('',(#91),#92);
#32=STYLED_ITEM('',(#93),#94);
#33=STYLED_ITEM('',(#95),#96);
#34=STYLED_ITEM('',(#97),#98);
#35=STYLED_ITEM('',(#99),#100);
#36=APPLICATION_CONTEXT(' ');
#37=PRODUCT_CATEGORY('part','NONE');
#38=PRODUCT_RELATED_PRODUCT_CATEGORY('detail',' ',(#101));
#39=PRODUCT_DEFINITION_SHAPE('NONE','NONE',#102);
#40=ADVANCED_BREP_SHAPE_REPRESENTATION('1',(#103,#104),#6);
#43=UNCERTAINTY_MEASURE_WITH_UNIT(LENGTH_MEASURE(1.0E-006),#45,'','');
#45= (CONVERSION_BASED_UNIT('MILLIMETRE',#107)LENGTH_UNIT()NAMED_UNIT(#110));
#46= (NAMED_UNIT(#112)PLANE_ANGLE_UNIT()SI_UNIT($,.RADIAN.));
#47= (NAMED_UNIT(#112)SOLID_ANGLE_UNIT()SI_UNIT($,.STERADIAN.));
#49=PRESENTATION_STYLE_ASSIGNMENT((#118));
#50=EDGE_CURVE('',#74,#94,#119,.T.);
#51=PRESENTATION_STYLE_ASSIGNMENT((#120));
#52=ADVANCED_FACE('',(#121),#122,.T.);
#53=PRESENTATION_STYLE_ASSIGNMENT((#123));
#54=EDGE_CURVE('',#60,#88,#124,.T.);
#55=PRESENTATION_STYLE_ASSIGNMENT((#125));
#56=EDGE_CURVE('',#74,#82,#126,.T.);
#57=PRESENTATION_STYLE_ASSIGNMENT((#127));
#58=EDGE_CURVE('',#68,#88,#128,.T.);
#59=PRESENTATION_STYLE_ASSIGNMENT((#129));
#60=VERTEX_POINT('',#130);
#61=PRESENTATION_STYLE_ASSIGNMENT((#131));
#62=EDGE_CURVE('',#82,#74,#132,.T.);
#63=PRESENTATION_STYLE_ASSIGNMENT((#133));
#64=ADVANCED_FACE('',(#134),#135,.F.);
#65=PRESENTATION_STYLE_ASSIGNMENT((#136));
#66=EDGE_CURVE('',#82,#80,#137,.T.);
#67=PRESENTATION_STYLE_ASSIGNMENT((#138));
#68=VERTEX_POINT('',#139);
#69=PRESENTATION_STYLE_ASSIGNMENT((#140));
#70=ADVANCED_FACE('',(#141,#142),#143,.F.);
#71=PRESENTATION_STYLE_ASSIGNMENT((#144));
#72=VERTEX_POINT('',#145);
#73=PRESENTATION_STYLE_ASSIGNMENT((#146));
#74=VERTEX_POINT('',#147);
#75=PRESENTATION_STYLE_ASSIGNMENT((#148));
#76=ADVANCED_FACE('',(#149),#150,.T.);
#77=PRESENTATION_STYLE_ASSIGNMENT((#151));
#78=EDGE_CURVE('',#72,#68,#152,.T.);
#79=PRESENTATION_STYLE_ASSIGNMENT((#153));
#80=VERTEX_POINT('',#154);
#81=PRESENTATION_STYLE_ASSIGNMENT((#155));
#82=VERTEX_POINT('',#156);
#83=PRESENTATION_STYLE_ASSIGNMENT((#157));
#84=ADVANCED_FACE('',(#158,#159),#160,.T.);
#85=PRESENTATION_STYLE_ASSIGNMENT((#161));
#86=EDGE_CURVE('',#60,#72,#162,.T.);
#87=PRESENTATION_STYLE_ASSIGNMENT((#163));
#88=VERTEX_POINT('',#164);
#89=PRESENTATION_STYLE_ASSIGNMENT((#165));
#90=EDGE_CURVE('',#72,#60,#166,.T.);
#91=PRESENTATION_STYLE_ASSIGNMENT((#167));
#92=ADVANCED_FACE('',(#168),#169,.F.);
#93=PRESENTATION_STYLE_ASSIGNMENT((#170));
#94=VERTEX_POINT('',#171);
#95=PRESENTATION_STYLE_ASSIGNMENT((#172));
#96=EDGE_CURVE('',#80,#94,#173,.T.);
#97=PRESENTATION_STYLE_ASSIGNMENT((#174));
#98=EDGE_CURVE('',#88,#68,#175,.T.);
#99=PRESENTATION_STYLE_ASSIGNMENT((#176));
#100=EDGE_CURVE('',#94,#80,#177,.T.);
#101=PRODUCT('1','1','PART-1-DESC',(#178));
#102=PRODUCT_DEFINITION('NONE','NONE',#179,#2);
#103=MANIFOLD_SOLID_BREP('1',#180);
#104=AXIS2_PLACEMENT_3D('',#181,#182,#183);
#107=LENGTH_MEASURE_WITH_UNIT(LENGTH_MEASURE(1.0),#184);
#110=DIMENSIONAL_EXPONENTS(1.0,0.0,0.0,0.0,0.0,0.0,0.0);
#112=DIMENSIONAL_EXPONENTS(0.0,0.0,0.0,0.0,0.0,0.0,0.0);
#118=CURVE_STYLE('',#185,POSITIVE_LENGTH_MEASURE(1.0E-006),#186);
#119=LINE('',#187,#188);
#120=SURFACE_STYLE_USAGE(.BOTH.,#189);
#121=FACE_OUTER_BOUND('',#190,.T.);
#122=CYLINDRICAL_SURFACE('',#191,12.0);
#123=CURVE_STYLE('',#192,POSITIVE_LENGTH_MEASURE(1.0E-006),#193);
#124=LINE('',#194,#195);
#125=CURVE_STYLE('',#196,POSITIVE_LENGTH_MEASURE(1.0E-006),#197);
#126=CIRCLE('',#198,4.25);
#127=CURVE_STYLE('',#199,POSITIVE_LENGTH_MEASURE(1.0E-006),#200);
#128=CIRCLE('',#201,12.0);
#129=POINT_STYLE(' ',#202,POSITIVE_LENGTH_MEASURE(1.0E-006),#203);
#130=CARTESIAN_POINT('',(12.0,0.0,0.0));
#131=CURVE_STYLE('',#204,POSITIVE_LENGTH_MEASURE(1.0E-006),#205);
#132=CIRCLE('',#206,4.25);
#133=SURFACE_STYLE_USAGE(.BOTH.,#207);
#134=FACE_OUTER_BOUND('',#208,.T.);
#135=CYLINDRICAL_SURFACE('',#209,4.25);
#136=CURVE_STYLE('',#210,POSITIVE_LENGTH_MEASURE(1.0E-006),#211);
#137=LINE('',#212,#213);
#138=POINT_STYLE(' ',#214,POSITIVE_LENGTH_MEASURE(1.0E-006),#215);
#139=CARTESIAN_POINT('',(-12.0,1.46952762458685E-015,5.0));
#140=SURFACE_STYLE_USAGE(.BOTH.,#216);
#141=FACE_OUTER_BOUND('',#217,.T.);
#142=FACE_BOUND('',#218,.T.);
#143=PLANE('',#219);
#144=POINT_STYLE(' ',#220,POSITIVE_LENGTH_MEASURE(1.0E-006),#221);
#145=CARTESIAN_POINT('',(-12.0,1.46952762458685E-015,0.0));
#146=POINT_STYLE(' ',#222,POSITIVE_LENGTH_MEASURE(1.0E-006),#223);
#147=CARTESIAN_POINT('',(-4.25,5.2045770037451E-016,0.0));
#148=SURFACE_STYLE_USAGE(.BOTH.,#224);
#149=FACE_OUTER_BOUND('',#225,.T.);
#150=CYLINDRICAL_SURFACE('',#226,12.0);
#151=CURVE_STYLE('',#227,POSITIVE_LENGTH_MEASURE(1.0E-006),#228);
#152=LINE('',#229,#230);
#153=POINT_STYLE(' ',#231,POSITIVE_LENGTH_MEASURE(1.0E-006),#232);
#154=CARTESIAN_POINT('',(4.25,0.0,5.0));
#155=POINT_STYLE(' ',#233,POSITIVE_LENGTH_MEASURE(1.0E-006),#234);
#156=CARTESIAN_POINT('',(4.25,0.0,0.0));
#157=SURFACE_STYLE_USAGE(.BOTH.,#235);
#158=FACE_OUTER_BOUND('',#236,.T.);
#159=FACE_BOUND('',#237,.T.);
#160=PLANE('',#238);
#161=CURVE_STYLE('',#239,POSITIVE_LENGTH_MEASURE(1.0E-006),#240);
#162=CIRCLE('',#241,12.0);
#163=POINT_STYLE(' ',#242,POSITIVE_LENGTH_MEASURE(1.0E-006),#243);
#164=CARTESIAN_POINT('',(12.0,0.0,5.0));
#165=CURVE_STYLE('',#244,POSITIVE_LENGTH_MEASURE(1.0E-006),#245);
#166=CIRCLE('',#246,12.0);
#167=SURFACE_STYLE_USAGE(.BOTH.,#247);
#168=FACE_OUTER_BOUND('',#248,.T.);
#169=CYLINDRICAL_SURFACE('',#249,4.25);
#170=POINT_STYLE(' ',#250,POSITIVE_LENGTH_MEASURE(1.0E-006),#251);
#171=CARTESIAN_POINT('',(-4.25,5.2045770037451E-016,5.0));
#172=CURVE_STYLE('',#252,POSITIVE_LENGTH_MEASURE(1.0E-006),#253);
#173=CIRCLE('',#254,4.25);
#174=CURVE_STYLE('',#255,POSITIVE_LENGTH_MEASURE(1.0E-006),#256);
#175=CIRCLE('',#257,12.0);
#176=CURVE_STYLE('',#258,POSITIVE_LENGTH_MEASURE(1.0E-006),#259);
#177=CIRCLE('',#260,4.25);
#178=PRODUCT_CONTEXT('',#36,'mechanical');
#179=PRODUCT_DEFINITION_FORMATION_WITH_SPECIFIED_SOURCE(' ','NONE',#101,.NOT_KNOWN.);
#180=CLOSED_SHELL('',(#52,#84,#70,#76,#92,#64));
#181=CARTESIAN_POINT('',(0.0,0.0,0.0));
#182=DIRECTION('',(0.0,0.0,1.0));
#183=DIRECTION('',(1.0,0.0,0.0));
#184= (NAMED_UNIT(#110)LENGTH_UNIT()SI_UNIT(.MILLI.,.METRE.));
#185=DRAUGHTING_PRE_DEFINED_CURVE_FONT('continuous');
#186=COLOUR_RGB('',0.505882382392883,0.505882382392883,0.584313750267029);
#187=CARTESIAN_POINT('',(-4.25,5.2045770037451E-016,0.0));
#188=VECTOR('',#262,1000.0);
#189=SURFACE_SIDE_STYLE('',(#263));
#190=EDGE_LOOP('',(#264,#265,#266,#267));
#191=AXIS2_PLACEMENT_3D('',#268,#269,#270);
#192=DRAUGHTING_PRE_DEFINED_CURVE_FONT('continuous');
#193=COLOUR_RGB('',0.505882382392883,0.505882382392883,0.584313750267029);
#194=CARTESIAN_POINT('',(12.0,0.0,0.0));
#195=VECTOR('',#271,1000.0);
#196=DRAUGHTING_PRE_DEFINED_CURVE_FONT('continuous');
#197=COLOUR_RGB('',0.505882382392883,0.505882382392883,0.584313750267029);
#198=AXIS2_PLACEMENT_3D('',#272,#273,#274);
#199=DRAUGHTING_PRE_DEFINED_CURVE_FONT('continuous');
#200=COLOUR_RGB('',0.505882382392883,0.505882382392883,0.584313750267029);
#201=AXIS2_PLACEMENT_3D('',#275,#276,#277);
#202=PRE_DEFINED_MARKER('');
#203=COLOUR_RGB('',0.505882382392883,0.505882382392883,0.584313750267029);
#204=DRAUGHTING_PRE_DEFINED_CURVE_FONT('continuous');
#205=COLOUR_RGB('',0.505882382392883,0.505882382392883,0.584313750267029);
#206=AXIS2_PLACEMENT_3D('',#278,#279,#280);
#207=SURFACE_SIDE_STYLE('',(#281));
#208=EDGE_LOOP('',(#282,#283,#284,#285));
#209=AXIS2_PLACEMENT_3D('',#286,#287,#288);
#210=DRAUGHTING_PRE_DEFINED_CURVE_FONT('continuous');
#211=COLOUR_RGB('',0.505882382392883,0.505882382392883,0.584313750267029);
#212=CARTESIAN_POINT('',(4.25,0.0,0.0));
#213=VECTOR('',#289,1000.0);
#214=PRE_DEFINED_MARKER('');
#215=COLOUR_RGB('',0.505882382392883,0.505882382392883,0.584313750267029);
#216=SURFACE_SIDE_STYLE('',(#290));
#217=EDGE_LOOP('',(#291,#292));
#218=EDGE_LOOP('',(#293,#294));
#219=AXIS2_PLACEMENT_3D('',#295,#296,#297);
#220=PRE_DEFINED_MARKER('');
#221=COLOUR_RGB('',0.505882382392883,0.505882382392883,0.584313750267029);
#222=PRE_DEFINED_MARKER('');
#223=COLOUR_RGB('',0.505882382392883,0.505882382392883,0.584313750267029);
#224=SURFACE_SIDE_STYLE('',(#298));
#225=EDGE_LOOP('',(#299,#300,#301,#302));
#226=AXIS2_PLACEMENT_3D('',#303,#304,#305);
#227=DRAUGHTING_PRE_DEFINED_CURVE_FONT('continuous');
#228=COLOUR_RGB('',0.505882382392883,0.505882382392883,0.584313750267029);
#229=CARTESIAN_POINT('',(-12.0,1.46952762458685E-015,0.0));
#230=VECTOR('',#306,1000.0);
#231=PRE_DEFINED_MARKER('');
#232=COLOUR_RGB('',0.505882382392883,0.505882382392883,0.584313750267029);
#233=PRE_DEFINED_MARKER('');
#234=COLOUR_RGB('',0.505882382392883,0.505882382392883,0.584313750267029);
#235=SURFACE_SIDE_STYLE('',(#307));
#236=EDGE_LOOP('',(#308,#309));
#237=EDGE_LOOP('',(#310,#311));
#238=AXIS2_PLACEMENT_3D('',#312,#313,#314);
#239=DRAUGHTING_PRE_DEFINED_CURVE_FONT('continuous');
#240=COLOUR_RGB('',0.505882382392883,0.505882382392883,0.584313750267029);
#241=AXIS2_PLACEMENT_3D('',#315,#316,#317);
#242=PRE_DEFINED_MARKER('');
#243=COLOUR_RGB('',0.505882382392883,0.505882382392883,0.584313750267029);
#244=DRAUGHTING_PRE_DEFINED_CURVE_FONT('continuous');
#245=COLOUR_RGB('',0.505882382392883,0.505882382392883,0.584313750267029);
#246=AXIS2_PLACEMENT_3D('',#318,#319,#320);
#247=SURFACE_SIDE_STYLE('',(#321));
#248=EDGE_LOOP('',(#322,#323,#324,#325));
#249=AXIS2_PLACEMENT_3D('',#326,#327,#328);
#250=PRE_DEFINED_MARKER('');
#251=COLOUR_RGB('',0.505882382392883,0.505882382392883,0.584313750267029);
#252=DRAUGHTING_PRE_DEFINED_CURVE_FONT('continuous');
#253=COLOUR_RGB('',0.505882382392883,0.505882382392883,0.584313750267029);
#254=AXIS2_PLACEMENT_3D('',#329,#330,#331);
#255=DRAUGHTING_PRE_DEFINED_CURVE_FONT('continuous');
#256=COLOUR_RGB('',0.505882382392883,0.505882382392883,0.584313750267029);
#257=AXIS2_PLACEMENT_3D('',#332,#333,#334);
#258=DRAUGHTING_PRE_DEFINED_CURVE_FONT('continuous');
#259=COLOUR_RGB('',0.505882382392883,0.505882382392883,0.584313750267029);
#260=AXIS2_PLACEMENT_3D('',#335,#336,#337);
#262=DIRECTION('',(0.0,0.0,1.0));
#263=SURFACE_STYLE_FILL_AREA(#338);
#264=ORIENTED_EDGE('',*,*,#86,.T.);
#265=ORIENTED_EDGE('',*,*,#78,.T.);
#266=ORIENTED_EDGE('',*,*,#98,.F.);
#267=ORIENTED_EDGE('',*,*,#54,.F.);
#268=CARTESIAN_POINT('',(0.0,0.0,0.0));
#269=DIRECTION('',(-0.0,-0.0,-1.0));
#270=DIRECTION('',(1.0,0.0,0.0));
#271=DIRECTION('',(0.0,0.0,1.0));
#272=CARTESIAN_POINT('',(0.0,0.0,0.0));
#273=DIRECTION('',(0.0,0.0,1.0));
#274=DIRECTION('',(1.0,0.0,0.0));
#275=CARTESIAN_POINT('',(0.0,0.0,5.0));
#276=DIRECTION('',(0.0,0.0,1.0));
#277=DIRECTION('',(1.0,0.0,0.0));
#278=CARTESIAN_POINT('',(0.0,0.0,0.0));
#279=DIRECTION('',(0.0,0.0,1.0));
#280=DIRECTION('',(1.0,0.0,0.0));
#281=SURFACE_STYLE_FILL_AREA(#339);
#282=ORIENTED_EDGE('',*,*,#56,.F.);
#283=ORIENTED_EDGE('',*,*,#50,.T.);
#284=ORIENTED_EDGE('',*,*,#96,.F.);
#285=ORIENTED_EDGE('',*,*,#66,.F.);
#286=CARTESIAN_POINT('',(0.0,0.0,0.0));
#287=DIRECTION('',(-0.0,-0.0,-1.0));
#288=DIRECTION('',(1.0,0.0,0.0));
#289=DIRECTION('',(0.0,0.0,1.0));
#290=SURFACE_STYLE_FILL_AREA(#340);
#291=ORIENTED_EDGE('',*,*,#86,.F.);
#292=ORIENTED_EDGE('',*,*,#90,.F.);
#293=ORIENTED_EDGE('',*,*,#62,.T.);
#294=ORIENTED_EDGE('',*,*,#56,.T.);
#295=CARTESIAN_POINT('',(0.0,0.0,0.0));
#296=DIRECTION('',(0.0,0.0,1.0));
#297=DIRECTION('',(1.0,0.0,0.0));
#298=SURFACE_STYLE_FILL_AREA(#341);
#299=ORIENTED_EDGE('',*,*,#78,.F.);
#300=ORIENTED_EDGE('',*,*,#90,.T.);
#301=ORIENTED_EDGE('',*,*,#54,.T.);
#302=ORIENTED_EDGE('',*,*,#58,.F.);
#303=CARTESIAN_POINT('',(0.0,0.0,0.0));
#304=DIRECTION('',(-0.0,-0.0,-1.0));
#305=DIRECTION('',(1.0,0.0,0.0));
#306=DIRECTION('',(0.0,0.0,1.0));
#307=SURFACE_STYLE_FILL_AREA(#342);
#308=ORIENTED_EDGE('',*,*,#98,.T.);
#309=ORIENTED_EDGE('',*,*,#58,.T.);
#310=ORIENTED_EDGE('',*,*,#96,.T.);
#311=ORIENTED_EDGE('',*,*,#100,.T.);
#312=CARTESIAN_POINT('',(0.0,0.0,5.0));
#313=DIRECTION('',(0.0,0.0,1.0));
#314=DIRECTION('',(1.0,0.0,0.0));
#315=CARTESIAN_POINT('',(0.0,0.0,0.0));
#316=DIRECTION('',(0.0,0.0,1.0));
#317=DIRECTION('',(1.0,0.0,0.0));
#318=CARTESIAN_POINT('',(0.0,0.0,0.0));
#319=DIRECTION('',(0.0,0.0,1.0));
#320=DIRECTION('',(1.0,0.0,0.0));
#321=SURFACE_STYLE_FILL_AREA(#343);
#322=ORIENTED_EDGE('',*,*,#50,.F.);
#323=ORIENTED_EDGE('',*,*,#62,.F.);
#324=ORIENTED_EDGE('',*,*,#66,.T.);
#325=ORIENTED_EDGE('',*,*,#100,.F.);
#326=CARTESIAN_POINT('',(0.0,0.0,0.0));
#327=DIRECTION('',(-0.0,-0.0,-1.0));
#328=DIRECTION('',(1.0,0.0,0.0));
#329=CARTESIAN_POINT('',(0.0,0.0,5.0));
#330=DIRECTION('',(0.0,0.0,-1.0));
#331=DIRECTION('',(1.0,0.0,0.0));
#332=CARTESIAN_POINT('',(0.0,0.0,5.0));
#333=DIRECTION('',(0.0,0.0,1.0));
#334=DIRECTION('',(1.0,0.0,0.0));
#335=CARTESIAN_POINT('',(0.0,0.0,5.0));
#336=DIRECTION('',(0.0,0.0,-1.0));
#337=DIRECTION('',(1.0,0.0,0.0));
#338=FILL_AREA_STYLE('',(#344));
#339=FILL_AREA_STYLE('',(#345));
#340=FILL_AREA_STYLE('',(#346));
#341=FILL_AREA_STYLE('',(#347));
#342=FILL_AREA_STYLE('',(#348));
#343=FILL_AREA_STYLE('',(#349));
#344=FILL_AREA_STYLE_COLOUR('',#350);
#345=FILL_AREA_STYLE_COLOUR('',#351);
#346=FILL_AREA_STYLE_COLOUR('',#352);
#347=FILL_AREA_STYLE_COLOUR('',#353);
#348=FILL_AREA_STYLE_COLOUR('',#354);
#349=FILL_AREA_STYLE_COLOUR('',#355);
#350=COLOUR_RGB('',0.505882382392883,0.505882382392883,0.584313750267029);
#351=COLOUR_RGB('',0.505882382392883,0.505882382392883,0.584313750267029);
#352=COLOUR_RGB('',0.505882382392883,0.505882382392883,0.584313750267029);
#353=COLOUR_RGB('',0.505882382392883,0.505882382392883,0.584313750267029);
#354=COLOUR_RGB('',0.505882382392883,0.505882382392883,0.584313750267029);
#355=COLOUR_RGB('',0.505882382392883,0.505882382392883,0.584313750267029);
ENDSEC;
END-ISO-10303-21;
