ISO-10303-21;
HEADER;
FILE_DESCRIPTION(('STEP AP214'),'1');
FILE_NAME(' ','  ',('TraceParts'),('TraceParts S.A.'),'XStep 1.0',' ',' ');
FILE_SCHEMA(('automotive_design'));
ENDSEC;
DATA;
#1=MECHANICAL_DESIGN_GEOMETRIC_PRESENTATION_REPRESENTATION(' ',(#10,#11,#12,#13,#14,#15,#16,#17,#18,#19,#20,#21,#22,#23,#24,#25,#26,#27,#28,#29,#30,#31,#32,#33,#34,#35),#6);
#2=PRODUCT_DEFINITION_CONTEXT('',#36,'design');
#3=APPLICATION_PROTOCOL_DEFINITION('INTERNATIONAL STANDARD','automotive_design',1994,#36);
#4=PRODUCT_CATEGORY_RELATIONSHIP('NONE','NONE',#37,#38);
#5=SHAPE_DEFINITION_REPRESENTATION(#39,#40);
#6= (GEOMETRIC_REPRESENTATION_CONTEXT(3)GLOBAL_UNCERTAINTY_ASSIGNED_CONTEXT((#43))GLOBAL_UNIT_ASSIGNED_CONTEXT((#45,#46,#47))REPRESENTATION_CONTEXT('NONE','WORKSPACE'));
#10=STYLED_ITEM('',(#49),#50);
#11=STYLED_ITEM('',(#51),#52);
#12=STYLED_ITEM('',(#53),#54);
#13=STYLED_ITEM('',(#55),#56);
#14=STYLED_ITEM('',(#57),#58);
#15=STYLED_ITEM('',(#59),#60);
#16=STYLED_ITEM('',(#61),#62);
#17=STYLED_ITEM('',(#63),#64);
#18=STYLED_ITEM('',(#65),#66);
#19=STYLED_ITEM('',(#67),#68);
#20=STYLED_ITEM('',(#69),#70);
#21=STYLED_ITEM('',(#71),#72);
#22=STYLED_ITEM('',(#73),#74);
#23=STYLED_ITEM('',(#75),#76);
#24=STYLED_ITEM('',(#77),#78);
#25=STYLED_ITEM('',(#79),#80);
#26=STYLED_ITEM('',(#81),#82);
#27=STYLED_ITEM('',(#83),#84);
#28=STYLED_ITEM('',(#85),#86);
#29=STYLED_ITEM('',(#87),#88);
#30=STYLED_ITEM('',(#89),#90);
#31=STYLED_ITEM('',(#91),#92);
#32=STYLED_ITEM('',(#93),#94);
#33=STYLED_ITEM('',(#95),#96);
#34=STYLED_ITEM('',(#97),#98);
#35=STYLED_ITEM('',(#99),#100);
#36=APPLICATION_CONTEXT(' ');
#37=PRODUCT_CATEGORY('part','NONE');
#38=PRODUCT_RELATED_PRODUCT_CATEGORY('detail',' ',(#101));
#39=PRODUCT_DEFINITION_SHAPE('NONE','NONE',#102);
#40=ADVANCED_BREP_SHAPE_REPRESENTATION('1',(#103,#104),#6);
#43=UNCERTAINTY_MEASURE_WITH_UNIT(LENGTH_MEASURE(1.0E-006),#45,'','');
#45= (CONVERSION_BASED_UNIT('MILLIMETRE',#107)LENGTH_UNIT()NAMED_UNIT(#110));
#46= (NAMED_UNIT(#112)PLANE_ANGLE_UNIT()SI_UNIT($,.RADIAN.));
#47= (NAMED_UNIT(#112)SOLID_ANGLE_UNIT()SI_UNIT($,.STERADIAN.));
#49=PRESENTATION_STYLE_ASSIGNMENT((#118));
#50=VERTEX_POINT('',#119);
#51=PRESENTATION_STYLE_ASSIGNMENT((#120));
#52=EDGE_CURVE('',#50,#90,#121,.T.);
#53=PRESENTATION_STYLE_ASSIGNMENT((#122));
#54=EDGE_CURVE('',#62,#58,#123,.T.);
#55=PRESENTATION_STYLE_ASSIGNMENT((#124));
#56=EDGE_CURVE('',#86,#68,#125,.T.);
#57=PRESENTATION_STYLE_ASSIGNMENT((#126));
#58=VERTEX_POINT('',#127);
#59=PRESENTATION_STYLE_ASSIGNMENT((#128));
#60=ADVANCED_FACE('',(#129),#130,.F.);
#61=PRESENTATION_STYLE_ASSIGNMENT((#131));
#62=VERTEX_POINT('',#132);
#63=PRESENTATION_STYLE_ASSIGNMENT((#133));
#64=EDGE_CURVE('',#88,#94,#134,.T.);
#65=PRESENTATION_STYLE_ASSIGNMENT((#135));
#66=ADVANCED_FACE('',(#136),#137,.T.);
#67=PRESENTATION_STYLE_ASSIGNMENT((#138));
#68=VERTEX_POINT('',#139);
#69=PRESENTATION_STYLE_ASSIGNMENT((#140));
#70=EDGE_CURVE('',#94,#62,#141,.T.);
#71=PRESENTATION_STYLE_ASSIGNMENT((#142));
#72=EDGE_CURVE('',#88,#58,#143,.T.);
#73=PRESENTATION_STYLE_ASSIGNMENT((#144));
#74=EDGE_CURVE('',#94,#88,#145,.T.);
#75=PRESENTATION_STYLE_ASSIGNMENT((#146));
#76=ADVANCED_FACE('',(#147,#148),#149,.T.);
#77=PRESENTATION_STYLE_ASSIGNMENT((#150));
#78=EDGE_CURVE('',#86,#90,#151,.T.);
#79=PRESENTATION_STYLE_ASSIGNMENT((#152));
#80=EDGE_CURVE('',#68,#86,#153,.T.);
#81=PRESENTATION_STYLE_ASSIGNMENT((#154));
#82=ADVANCED_FACE('',(#155),#156,.F.);
#83=PRESENTATION_STYLE_ASSIGNMENT((#157));
#84=EDGE_CURVE('',#90,#50,#158,.T.);
#85=PRESENTATION_STYLE_ASSIGNMENT((#159));
#86=VERTEX_POINT('',#160);
#87=PRESENTATION_STYLE_ASSIGNMENT((#161));
#88=VERTEX_POINT('',#162);
#89=PRESENTATION_STYLE_ASSIGNMENT((#163));
#90=VERTEX_POINT('',#164);
#91=PRESENTATION_STYLE_ASSIGNMENT((#165));
#92=EDGE_CURVE('',#58,#62,#166,.T.);
#93=PRESENTATION_STYLE_ASSIGNMENT((#167));
#94=VERTEX_POINT('',#168);
#95=PRESENTATION_STYLE_ASSIGNMENT((#169));
#96=ADVANCED_FACE('',(#170),#171,.T.);
#97=PRESENTATION_STYLE_ASSIGNMENT((#172));
#98=EDGE_CURVE('',#68,#50,#173,.T.);
#99=PRESENTATION_STYLE_ASSIGNMENT((#174));
#100=ADVANCED_FACE('',(#175,#176),#177,.F.);
#101=PRODUCT('1','1','PART-1-DESC',(#178));
#102=PRODUCT_DEFINITION('NONE','NONE',#179,#2);
#103=MANIFOLD_SOLID_BREP('1',#180);
#104=AXIS2_PLACEMENT_3D('',#181,#182,#183);
#107=LENGTH_MEASURE_WITH_UNIT(LENGTH_MEASURE(1.0),#184);
#110=DIMENSIONAL_EXPONENTS(1.0,0.0,0.0,0.0,0.0,0.0,0.0);
#112=DIMENSIONAL_EXPONENTS(0.0,0.0,0.0,0.0,0.0,0.0,0.0);
#118=POINT_STYLE(' ',#185,POSITIVE_LENGTH_MEASURE(1.0E-006),#186);
#119=CARTESIAN_POINT('',(4.25,0.0,5.0));
#120=CURVE_STYLE('',#187,POSITIVE_LENGTH_MEASURE(1.0E-006),#188);
#121=CIRCLE('',#189,4.25);
#122=CURVE_STYLE('',#190,POSITIVE_LENGTH_MEASURE(1.0E-006),#191);
#123=CIRCLE('',#192,19.75);
#124=CURVE_STYLE('',#193,POSITIVE_LENGTH_MEASURE(1.0E-006),#194);
#125=CIRCLE('',#195,4.25);
#126=POINT_STYLE(' ',#196,POSITIVE_LENGTH_MEASURE(1.0E-006),#197);
#127=CARTESIAN_POINT('',(-19.75,2.4185975487992E-015,5.0));
#128=SURFACE_STYLE_USAGE(.BOTH.,#198);
#129=FACE_OUTER_BOUND('',#199,.T.);
#130=CYLINDRICAL_SURFACE('',#200,4.25);
#131=POINT_STYLE(' ',#201,POSITIVE_LENGTH_MEASURE(1.0E-006),#202);
#132=CARTESIAN_POINT('',(19.75,0.0,5.0));
#133=CURVE_STYLE('',#203,POSITIVE_LENGTH_MEASURE(1.0E-006),#204);
#134=CIRCLE('',#205,19.75);
#135=SURFACE_STYLE_USAGE(.BOTH.,#206);
#136=FACE_OUTER_BOUND('',#207,.T.);
#137=CYLINDRICAL_SURFACE('',#208,19.75);
#138=POINT_STYLE(' ',#209,POSITIVE_LENGTH_MEASURE(1.0E-006),#210);
#139=CARTESIAN_POINT('',(4.25,0.0,0.0));
#140=CURVE_STYLE('',#211,POSITIVE_LENGTH_MEASURE(1.0E-006),#212);
#141=LINE('',#213,#214);
#142=CURVE_STYLE('',#215,POSITIVE_LENGTH_MEASURE(1.0E-006),#216);
#143=LINE('',#217,#218);
#144=CURVE_STYLE('',#219,POSITIVE_LENGTH_MEASURE(1.0E-006),#220);
#145=CIRCLE('',#221,19.75);
#146=SURFACE_STYLE_USAGE(.BOTH.,#222);
#147=FACE_OUTER_BOUND('',#223,.T.);
#148=FACE_BOUND('',#224,.T.);
#149=PLANE('',#225);
#150=CURVE_STYLE('',#226,POSITIVE_LENGTH_MEASURE(1.0E-006),#227);
#151=LINE('',#228,#229);
#152=CURVE_STYLE('',#230,POSITIVE_LENGTH_MEASURE(1.0E-006),#231);
#153=CIRCLE('',#232,4.25);
#154=SURFACE_STYLE_USAGE(.BOTH.,#233);
#155=FACE_OUTER_BOUND('',#234,.T.);
#156=CYLINDRICAL_SURFACE('',#235,4.25);
#157=CURVE_STYLE('',#236,POSITIVE_LENGTH_MEASURE(1.0E-006),#237);
#158=CIRCLE('',#238,4.25);
#159=POINT_STYLE(' ',#239,POSITIVE_LENGTH_MEASURE(1.0E-006),#240);
#160=CARTESIAN_POINT('',(-4.25,5.2045770037451E-016,0.0));
#161=POINT_STYLE(' ',#241,POSITIVE_LENGTH_MEASURE(1.0E-006),#242);
#162=CARTESIAN_POINT('',(-19.75,2.4185975487992E-015,0.0));
#163=POINT_STYLE(' ',#243,POSITIVE_LENGTH_MEASURE(1.0E-006),#244);
#164=CARTESIAN_POINT('',(-4.25,5.2045770037451E-016,5.0));
#165=CURVE_STYLE('',#245,POSITIVE_LENGTH_MEASURE(1.0E-006),#246);
#166=CIRCLE('',#247,19.75);
#167=POINT_STYLE(' ',#248,POSITIVE_LENGTH_MEASURE(1.0E-006),#249);
#168=CARTESIAN_POINT('',(19.75,0.0,0.0));
#169=SURFACE_STYLE_USAGE(.BOTH.,#250);
#170=FACE_OUTER_BOUND('',#251,.T.);
#171=CYLINDRICAL_SURFACE('',#252,19.75);
#172=CURVE_STYLE('',#253,POSITIVE_LENGTH_MEASURE(1.0E-006),#254);
#173=LINE('',#255,#256);
#174=SURFACE_STYLE_USAGE(.BOTH.,#257);
#175=FACE_OUTER_BOUND('',#258,.T.);
#176=FACE_BOUND('',#259,.T.);
#177=PLANE('',#260);
#178=PRODUCT_CONTEXT('',#36,'mechanical');
#179=PRODUCT_DEFINITION_FORMATION_WITH_SPECIFIED_SOURCE(' ','NONE',#101,.NOT_KNOWN.);
#180=CLOSED_SHELL('',(#76,#82,#66,#96,#60,#100));
#181=CARTESIAN_POINT('',(0.0,0.0,0.0));
#182=DIRECTION('',(0.0,0.0,1.0));
#183=DIRECTION('',(1.0,0.0,0.0));
#184= (NAMED_UNIT(#110)LENGTH_UNIT()SI_UNIT(.MILLI.,.METRE.));
#185=PRE_DEFINED_MARKER('');
#186=COLOUR_RGB('',0.505882382392883,0.505882382392883,0.584313750267029);
#187=DRAUGHTING_PRE_DEFINED_CURVE_FONT('continuous');
#188=COLOUR_RGB('',0.505882382392883,0.505882382392883,0.584313750267029);
#189=AXIS2_PLACEMENT_3D('',#262,#263,#264);
#190=DRAUGHTING_PRE_DEFINED_CURVE_FONT('continuous');
#191=COLOUR_RGB('',0.505882382392883,0.505882382392883,0.584313750267029);
#192=AXIS2_PLACEMENT_3D('',#265,#266,#267);
#193=DRAUGHTING_PRE_DEFINED_CURVE_FONT('continuous');
#194=COLOUR_RGB('',0.505882382392883,0.505882382392883,0.584313750267029);
#195=AXIS2_PLACEMENT_3D('',#268,#269,#270);
#196=PRE_DEFINED_MARKER('');
#197=COLOUR_RGB('',0.505882382392883,0.505882382392883,0.584313750267029);
#198=SURFACE_SIDE_STYLE('',(#271));
#199=EDGE_LOOP('',(#272,#273,#274,#275));
#200=AXIS2_PLACEMENT_3D('',#276,#277,#278);
#201=PRE_DEFINED_MARKER('');
#202=COLOUR_RGB('',0.505882382392883,0.505882382392883,0.584313750267029);
#203=DRAUGHTING_PRE_DEFINED_CURVE_FONT('continuous');
#204=COLOUR_RGB('',0.505882382392883,0.505882382392883,0.584313750267029);
#205=AXIS2_PLACEMENT_3D('',#279,#280,#281);
#206=SURFACE_SIDE_STYLE('',(#282));
#207=EDGE_LOOP('',(#283,#284,#285,#286));
#208=AXIS2_PLACEMENT_3D('',#287,#288,#289);
#209=PRE_DEFINED_MARKER('');
#210=COLOUR_RGB('',0.505882382392883,0.505882382392883,0.584313750267029);
#211=DRAUGHTING_PRE_DEFINED_CURVE_FONT('continuous');
#212=COLOUR_RGB('',0.505882382392883,0.505882382392883,0.584313750267029);
#213=CARTESIAN_POINT('',(19.75,0.0,0.0));
#214=VECTOR('',#290,1000.0);
#215=DRAUGHTING_PRE_DEFINED_CURVE_FONT('continuous');
#216=COLOUR_RGB('',0.505882382392883,0.505882382392883,0.584313750267029);
#217=CARTESIAN_POINT('',(-19.75,2.4185975487992E-015,0.0));
#218=VECTOR('',#291,1000.0);
#219=DRAUGHTING_PRE_DEFINED_CURVE_FONT('continuous');
#220=COLOUR_RGB('',0.505882382392883,0.505882382392883,0.584313750267029);
#221=AXIS2_PLACEMENT_3D('',#292,#293,#294);
#222=SURFACE_SIDE_STYLE('',(#295));
#223=EDGE_LOOP('',(#296,#297));
#224=EDGE_LOOP('',(#298,#299));
#225=AXIS2_PLACEMENT_3D('',#300,#301,#302);
#226=DRAUGHTING_PRE_DEFINED_CURVE_FONT('continuous');
#227=COLOUR_RGB('',0.505882382392883,0.505882382392883,0.584313750267029);
#228=CARTESIAN_POINT('',(-4.25,5.2045770037451E-016,0.0));
#229=VECTOR('',#303,1000.0);
#230=DRAUGHTING_PRE_DEFINED_CURVE_FONT('continuous');
#231=COLOUR_RGB('',0.505882382392883,0.505882382392883,0.584313750267029);
#232=AXIS2_PLACEMENT_3D('',#304,#305,#306);
#233=SURFACE_SIDE_STYLE('',(#307));
#234=EDGE_LOOP('',(#308,#309,#310,#311));
#235=AXIS2_PLACEMENT_3D('',#312,#313,#314);
#236=DRAUGHTING_PRE_DEFINED_CURVE_FONT('continuous');
#237=COLOUR_RGB('',0.505882382392883,0.505882382392883,0.584313750267029);
#238=AXIS2_PLACEMENT_3D('',#315,#316,#317);
#239=PRE_DEFINED_MARKER('');
#240=COLOUR_RGB('',0.505882382392883,0.505882382392883,0.584313750267029);
#241=PRE_DEFINED_MARKER('');
#242=COLOUR_RGB('',0.505882382392883,0.505882382392883,0.584313750267029);
#243=PRE_DEFINED_MARKER('');
#244=COLOUR_RGB('',0.505882382392883,0.505882382392883,0.584313750267029);
#245=DRAUGHTING_PRE_DEFINED_CURVE_FONT('continuous');
#246=COLOUR_RGB('',0.505882382392883,0.505882382392883,0.584313750267029);
#247=AXIS2_PLACEMENT_3D('',#318,#319,#320);
#248=PRE_DEFINED_MARKER('');
#249=COLOUR_RGB('',0.505882382392883,0.505882382392883,0.584313750267029);
#250=SURFACE_SIDE_STYLE('',(#321));
#251=EDGE_LOOP('',(#322,#323,#324,#325));
#252=AXIS2_PLACEMENT_3D('',#326,#327,#328);
#253=DRAUGHTING_PRE_DEFINED_CURVE_FONT('continuous');
#254=COLOUR_RGB('',0.505882382392883,0.505882382392883,0.584313750267029);
#255=CARTESIAN_POINT('',(4.25,0.0,0.0));
#256=VECTOR('',#329,1000.0);
#257=SURFACE_SIDE_STYLE('',(#330));
#258=EDGE_LOOP('',(#331,#332));
#259=EDGE_LOOP('',(#333,#334));
#260=AXIS2_PLACEMENT_3D('',#335,#336,#337);
#262=CARTESIAN_POINT('',(0.0,0.0,5.0));
#263=DIRECTION('',(0.0,0.0,-1.0));
#264=DIRECTION('',(1.0,0.0,0.0));
#265=CARTESIAN_POINT('',(0.0,0.0,5.0));
#266=DIRECTION('',(0.0,0.0,-1.0));
#267=DIRECTION('',(1.0,0.0,0.0));
#268=CARTESIAN_POINT('',(0.0,0.0,0.0));
#269=DIRECTION('',(0.0,0.0,-1.0));
#270=DIRECTION('',(1.0,0.0,0.0));
#271=SURFACE_STYLE_FILL_AREA(#338);
#272=ORIENTED_EDGE('',*,*,#80,.T.);
#273=ORIENTED_EDGE('',*,*,#78,.T.);
#274=ORIENTED_EDGE('',*,*,#52,.F.);
#275=ORIENTED_EDGE('',*,*,#98,.F.);
#276=CARTESIAN_POINT('',(0.0,0.0,0.0));
#277=DIRECTION('',(-0.0,-0.0,-1.0));
#278=DIRECTION('',(1.0,0.0,0.0));
#279=CARTESIAN_POINT('',(0.0,0.0,0.0));
#280=DIRECTION('',(0.0,0.0,1.0));
#281=DIRECTION('',(1.0,0.0,0.0));
#282=SURFACE_STYLE_FILL_AREA(#339);
#283=ORIENTED_EDGE('',*,*,#74,.T.);
#284=ORIENTED_EDGE('',*,*,#72,.T.);
#285=ORIENTED_EDGE('',*,*,#92,.T.);
#286=ORIENTED_EDGE('',*,*,#70,.F.);
#287=CARTESIAN_POINT('',(0.0,0.0,0.0));
#288=DIRECTION('',(-0.0,-0.0,-1.0));
#289=DIRECTION('',(1.0,0.0,0.0));
#290=DIRECTION('',(0.0,0.0,1.0));
#291=DIRECTION('',(0.0,0.0,1.0));
#292=CARTESIAN_POINT('',(0.0,0.0,0.0));
#293=DIRECTION('',(0.0,0.0,1.0));
#294=DIRECTION('',(1.0,0.0,0.0));
#295=SURFACE_STYLE_FILL_AREA(#340);
#296=ORIENTED_EDGE('',*,*,#54,.F.);
#297=ORIENTED_EDGE('',*,*,#92,.F.);
#298=ORIENTED_EDGE('',*,*,#52,.T.);
#299=ORIENTED_EDGE('',*,*,#84,.T.);
#300=CARTESIAN_POINT('',(0.0,0.0,5.0));
#301=DIRECTION('',(0.0,0.0,1.0));
#302=DIRECTION('',(1.0,0.0,0.0));
#303=DIRECTION('',(0.0,0.0,1.0));
#304=CARTESIAN_POINT('',(0.0,0.0,0.0));
#305=DIRECTION('',(0.0,0.0,-1.0));
#306=DIRECTION('',(1.0,0.0,0.0));
#307=SURFACE_STYLE_FILL_AREA(#341);
#308=ORIENTED_EDGE('',*,*,#78,.F.);
#309=ORIENTED_EDGE('',*,*,#56,.T.);
#310=ORIENTED_EDGE('',*,*,#98,.T.);
#311=ORIENTED_EDGE('',*,*,#84,.F.);
#312=CARTESIAN_POINT('',(0.0,0.0,0.0));
#313=DIRECTION('',(-0.0,-0.0,-1.0));
#314=DIRECTION('',(1.0,0.0,0.0));
#315=CARTESIAN_POINT('',(0.0,0.0,5.0));
#316=DIRECTION('',(0.0,0.0,-1.0));
#317=DIRECTION('',(1.0,0.0,0.0));
#318=CARTESIAN_POINT('',(0.0,0.0,5.0));
#319=DIRECTION('',(0.0,0.0,-1.0));
#320=DIRECTION('',(1.0,0.0,0.0));
#321=SURFACE_STYLE_FILL_AREA(#342);
#322=ORIENTED_EDGE('',*,*,#72,.F.);
#323=ORIENTED_EDGE('',*,*,#64,.T.);
#324=ORIENTED_EDGE('',*,*,#70,.T.);
#325=ORIENTED_EDGE('',*,*,#54,.T.);
#326=CARTESIAN_POINT('',(0.0,0.0,0.0));
#327=DIRECTION('',(-0.0,-0.0,-1.0));
#328=DIRECTION('',(1.0,0.0,0.0));
#329=DIRECTION('',(0.0,0.0,1.0));
#330=SURFACE_STYLE_FILL_AREA(#343);
#331=ORIENTED_EDGE('',*,*,#74,.F.);
#332=ORIENTED_EDGE('',*,*,#64,.F.);
#333=ORIENTED_EDGE('',*,*,#80,.F.);
#334=ORIENTED_EDGE('',*,*,#56,.F.);
#335=CARTESIAN_POINT('',(0.0,0.0,0.0));
#336=DIRECTION('',(0.0,0.0,1.0));
#337=DIRECTION('',(1.0,0.0,0.0));
#338=FILL_AREA_STYLE('',(#344));
#339=FILL_AREA_STYLE('',(#345));
#340=FILL_AREA_STYLE('',(#346));
#341=FILL_AREA_STYLE('',(#347));
#342=FILL_AREA_STYLE('',(#348));
#343=FILL_AREA_STYLE('',(#349));
#344=FILL_AREA_STYLE_COLOUR('',#350);
#345=FILL_AREA_STYLE_COLOUR('',#351);
#346=FILL_AREA_STYLE_COLOUR('',#352);
#347=FILL_AREA_STYLE_COLOUR('',#353);
#348=FILL_AREA_STYLE_COLOUR('',#354);
#349=FILL_AREA_STYLE_COLOUR('',#355);
#350=COLOUR_RGB('',0.505882382392883,0.505882382392883,0.584313750267029);
#351=COLOUR_RGB('',0.505882382392883,0.505882382392883,0.584313750267029);
#352=COLOUR_RGB('',0.505882382392883,0.505882382392883,0.584313750267029);
#353=COLOUR_RGB('',0.505882382392883,0.505882382392883,0.584313750267029);
#354=COLOUR_RGB('',0.505882382392883,0.505882382392883,0.584313750267029);
#355=COLOUR_RGB('',0.505882382392883,0.505882382392883,0.584313750267029);
ENDSEC;
END-ISO-10303-21;
