ISO-10303-21;
HEADER;
FILE_DESCRIPTION(('STEP AP214'),'1');
FILE_NAME(' ','  ',('TraceParts'),('TraceParts S.A.'),'XStep 1.0',' ',' ');
FILE_SCHEMA(('automotive_design'));
ENDSEC;
DATA;
#1=MECHANICAL_DESIGN_GEOMETRIC_PRESENTATION_REPRESENTATION(' ',(#10,#11,#12,#13,#14,#15,#16,#17,#18,#19,#20,#21,#22,#23,#24,#25,#26,#27,#28,#29,#30,#31,#32,#33,#34,#35,#36),#6);
#2=PRODUCT_DEFINITION_CONTEXT('',#37,'design');
#3=APPLICATION_PROTOCOL_DEFINITION('INTERNATIONAL STANDARD','automotive_design',1994,#37);
#4=PRODUCT_CATEGORY_RELATIONSHIP('NONE','NONE',#38,#39);
#5=SHAPE_DEFINITION_REPRESENTATION(#40,#41);
#6= (GEOMETRIC_REPRESENTATION_CONTEXT(3)GLOBAL_UNCERTAINTY_ASSIGNED_CONTEXT((#44))GLOBAL_UNIT_ASSIGNED_CONTEXT((#46,#47,#48))REPRESENTATION_CONTEXT('NONE','WORKSPACE'));
#10=STYLED_ITEM('',(#50),#51);
#11=STYLED_ITEM('',(#52),#53);
#12=STYLED_ITEM('',(#54),#55);
#13=STYLED_ITEM('',(#56),#57);
#14=STYLED_ITEM('',(#58),#59);
#15=STYLED_ITEM('',(#60),#61);
#16=STYLED_ITEM('',(#62),#63);
#17=STYLED_ITEM('',(#64),#65);
#18=STYLED_ITEM('',(#66),#67);
#19=STYLED_ITEM('',(#68),#69);
#20=STYLED_ITEM('',(#70),#71);
#21=STYLED_ITEM('',(#72),#73);
#22=STYLED_ITEM('',(#74),#75);
#23=STYLED_ITEM('',(#76),#77);
#24=STYLED_ITEM('',(#78),#79);
#25=STYLED_ITEM('',(#80),#81);
#26=STYLED_ITEM('',(#82),#83);
#27=STYLED_ITEM('',(#84),#85);
#28=STYLED_ITEM('',(#86),#87);
#29=STYLED_ITEM('',(#88),#89);
#30=STYLED_ITEM('',(#90),#91);
#31=STYLED_ITEM('',(#92),#93);
#32=STYLED_ITEM('',(#94),#95);
#33=STYLED_ITEM('',(#96),#97);
#34=STYLED_ITEM('',(#98),#99);
#35=STYLED_ITEM('',(#100),#101);
#36=STYLED_ITEM('',(#102),#103);
#37=APPLICATION_CONTEXT(' ');
#38=PRODUCT_CATEGORY('part','NONE');
#39=PRODUCT_RELATED_PRODUCT_CATEGORY('detail',' ',(#104));
#40=PRODUCT_DEFINITION_SHAPE('NONE','NONE',#105);
#41=ADVANCED_BREP_SHAPE_REPRESENTATION('1',(#53,#106),#6);
#44=UNCERTAINTY_MEASURE_WITH_UNIT(LENGTH_MEASURE(1.0E-006),#46,'','');
#46= (CONVERSION_BASED_UNIT('MILLIMETRE',#109)LENGTH_UNIT()NAMED_UNIT(#112));
#47= (NAMED_UNIT(#114)PLANE_ANGLE_UNIT()SI_UNIT($,.RADIAN.));
#48= (NAMED_UNIT(#114)SOLID_ANGLE_UNIT()SI_UNIT($,.STERADIAN.));
#50=PRESENTATION_STYLE_ASSIGNMENT((#120));
#51=EDGE_CURVE('',#77,#99,#121,.T.);
#52=PRESENTATION_STYLE_ASSIGNMENT((#122));
#53=MANIFOLD_SOLID_BREP('1',#123);
#54=PRESENTATION_STYLE_ASSIGNMENT((#124));
#55=ADVANCED_FACE('',(#125),#126,.F.);
#56=PRESENTATION_STYLE_ASSIGNMENT((#127));
#57=EDGE_CURVE('',#99,#77,#128,.T.);
#58=PRESENTATION_STYLE_ASSIGNMENT((#129));
#59=EDGE_CURVE('',#75,#89,#130,.T.);
#60=PRESENTATION_STYLE_ASSIGNMENT((#131));
#61=ADVANCED_FACE('',(#132,#133),#134,.F.);
#62=PRESENTATION_STYLE_ASSIGNMENT((#135));
#63=EDGE_CURVE('',#71,#93,#136,.T.);
#64=PRESENTATION_STYLE_ASSIGNMENT((#137));
#65=ADVANCED_FACE('',(#138),#139,.T.);
#66=PRESENTATION_STYLE_ASSIGNMENT((#140));
#67=ADVANCED_FACE('',(#141),#142,.T.);
#68=PRESENTATION_STYLE_ASSIGNMENT((#143));
#69=ADVANCED_FACE('',(#144,#145),#146,.T.);
#70=PRESENTATION_STYLE_ASSIGNMENT((#147));
#71=VERTEX_POINT('',#148);
#72=PRESENTATION_STYLE_ASSIGNMENT((#149));
#73=EDGE_CURVE('',#77,#93,#150,.T.);
#74=PRESENTATION_STYLE_ASSIGNMENT((#151));
#75=VERTEX_POINT('',#152);
#76=PRESENTATION_STYLE_ASSIGNMENT((#153));
#77=VERTEX_POINT('',#154);
#78=PRESENTATION_STYLE_ASSIGNMENT((#155));
#79=EDGE_CURVE('',#93,#71,#156,.T.);
#80=PRESENTATION_STYLE_ASSIGNMENT((#157));
#81=EDGE_CURVE('',#95,#75,#158,.T.);
#82=PRESENTATION_STYLE_ASSIGNMENT((#159));
#83=EDGE_CURVE('',#89,#87,#160,.T.);
#84=PRESENTATION_STYLE_ASSIGNMENT((#161));
#85=EDGE_CURVE('',#87,#89,#162,.T.);
#86=PRESENTATION_STYLE_ASSIGNMENT((#163));
#87=VERTEX_POINT('',#164);
#88=PRESENTATION_STYLE_ASSIGNMENT((#165));
#89=VERTEX_POINT('',#166);
#90=PRESENTATION_STYLE_ASSIGNMENT((#167));
#91=EDGE_CURVE('',#87,#95,#168,.T.);
#92=PRESENTATION_STYLE_ASSIGNMENT((#169));
#93=VERTEX_POINT('',#170);
#94=PRESENTATION_STYLE_ASSIGNMENT((#171));
#95=VERTEX_POINT('',#172);
#96=PRESENTATION_STYLE_ASSIGNMENT((#173));
#97=EDGE_CURVE('',#71,#99,#174,.T.);
#98=PRESENTATION_STYLE_ASSIGNMENT((#175));
#99=VERTEX_POINT('',#176);
#100=PRESENTATION_STYLE_ASSIGNMENT((#177));
#101=ADVANCED_FACE('',(#178),#179,.F.);
#102=PRESENTATION_STYLE_ASSIGNMENT((#180));
#103=EDGE_CURVE('',#75,#95,#181,.T.);
#104=PRODUCT('1','1','PART-1-DESC',(#182));
#105=PRODUCT_DEFINITION('NONE','NONE',#183,#2);
#106=AXIS2_PLACEMENT_3D('',#184,#185,#186);
#109=LENGTH_MEASURE_WITH_UNIT(LENGTH_MEASURE(1.0),#187);
#112=DIMENSIONAL_EXPONENTS(1.0,0.0,0.0,0.0,0.0,0.0,0.0);
#114=DIMENSIONAL_EXPONENTS(0.0,0.0,0.0,0.0,0.0,0.0,0.0);
#120=CURVE_STYLE('',#188,POSITIVE_LENGTH_MEASURE(1.0E-006),#189);
#121=CIRCLE('',#190,6.5);
#122=SURFACE_STYLE_USAGE(.BOTH.,#191);
#123=CLOSED_SHELL('',(#65,#101,#55,#67,#61,#69));
#124=SURFACE_STYLE_USAGE(.BOTH.,#192);
#125=FACE_OUTER_BOUND('',#193,.T.);
#126=CYLINDRICAL_SURFACE('',#194,6.5);
#127=CURVE_STYLE('',#195,POSITIVE_LENGTH_MEASURE(1.0E-006),#196);
#128=CIRCLE('',#197,6.5);
#129=CURVE_STYLE('',#198,POSITIVE_LENGTH_MEASURE(1.0E-006),#199);
#130=LINE('',#200,#201);
#131=SURFACE_STYLE_USAGE(.BOTH.,#202);
#132=FACE_BOUND('',#203,.T.);
#133=FACE_OUTER_BOUND('',#204,.T.);
#134=PLANE('',#205);
#135=CURVE_STYLE('',#206,POSITIVE_LENGTH_MEASURE(1.0E-006),#207);
#136=CIRCLE('',#208,6.5);
#137=SURFACE_STYLE_USAGE(.BOTH.,#209);
#138=FACE_OUTER_BOUND('',#210,.T.);
#139=CYLINDRICAL_SURFACE('',#211,29.75);
#140=SURFACE_STYLE_USAGE(.BOTH.,#212);
#141=FACE_OUTER_BOUND('',#213,.T.);
#142=CYLINDRICAL_SURFACE('',#214,29.75);
#143=SURFACE_STYLE_USAGE(.BOTH.,#215);
#144=FACE_BOUND('',#216,.T.);
#145=FACE_OUTER_BOUND('',#217,.T.);
#146=PLANE('',#218);
#147=POINT_STYLE(' ',#219,POSITIVE_LENGTH_MEASURE(1.0E-006),#220);
#148=CARTESIAN_POINT('',(6.5,-7.95994129984545E-016,3.0));
#149=CURVE_STYLE('',#221,POSITIVE_LENGTH_MEASURE(1.0E-006),#222);
#150=LINE('',#223,#224);
#151=POINT_STYLE(' ',#225,POSITIVE_LENGTH_MEASURE(1.0E-006),#226);
#152=CARTESIAN_POINT('',(29.75,0.0,0.0));
#153=POINT_STYLE(' ',#227,POSITIVE_LENGTH_MEASURE(1.0E-006),#228);
#154=CARTESIAN_POINT('',(-6.5,7.95994129984545E-016,0.0));
#155=CURVE_STYLE('',#229,POSITIVE_LENGTH_MEASURE(1.0E-006),#230);
#156=CIRCLE('',#231,6.5);
#157=CURVE_STYLE('',#232,POSITIVE_LENGTH_MEASURE(1.0E-006),#233);
#158=CIRCLE('',#234,29.75);
#159=CURVE_STYLE('',#235,POSITIVE_LENGTH_MEASURE(1.0E-006),#236);
#160=CIRCLE('',#237,29.75);
#161=CURVE_STYLE('',#238,POSITIVE_LENGTH_MEASURE(1.0E-006),#239);
#162=CIRCLE('',#240,29.75);
#163=POINT_STYLE(' ',#241,POSITIVE_LENGTH_MEASURE(1.0E-006),#242);
#164=CARTESIAN_POINT('',(-29.75,0.0,3.0));
#165=POINT_STYLE(' ',#243,POSITIVE_LENGTH_MEASURE(1.0E-006),#244);
#166=CARTESIAN_POINT('',(29.75,-3.64320390262157E-015,3.0));
#167=CURVE_STYLE('',#245,POSITIVE_LENGTH_MEASURE(1.0E-006),#246);
#168=LINE('',#247,#248);
#169=POINT_STYLE(' ',#249,POSITIVE_LENGTH_MEASURE(1.0E-006),#250);
#170=CARTESIAN_POINT('',(-6.5,0.0,3.0));
#171=POINT_STYLE(' ',#251,POSITIVE_LENGTH_MEASURE(1.0E-006),#252);
#172=CARTESIAN_POINT('',(-29.75,3.64320390262157E-015,0.0));
#173=CURVE_STYLE('',#253,POSITIVE_LENGTH_MEASURE(1.0E-006),#254);
#174=LINE('',#255,#256);
#175=POINT_STYLE(' ',#257,POSITIVE_LENGTH_MEASURE(1.0E-006),#258);
#176=CARTESIAN_POINT('',(6.5,0.0,0.0));
#177=SURFACE_STYLE_USAGE(.BOTH.,#259);
#178=FACE_OUTER_BOUND('',#260,.T.);
#179=CYLINDRICAL_SURFACE('',#261,6.5);
#180=CURVE_STYLE('',#262,POSITIVE_LENGTH_MEASURE(1.0E-006),#263);
#181=CIRCLE('',#264,29.75);
#182=PRODUCT_CONTEXT('',#37,'mechanical');
#183=PRODUCT_DEFINITION_FORMATION_WITH_SPECIFIED_SOURCE(' ','NONE',#104,.NOT_KNOWN.);
#184=CARTESIAN_POINT('',(0.0,0.0,0.0));
#185=DIRECTION('',(0.0,0.0,1.0));
#186=DIRECTION('',(1.0,0.0,0.0));
#187= (NAMED_UNIT(#112)LENGTH_UNIT()SI_UNIT(.MILLI.,.METRE.));
#188=DRAUGHTING_PRE_DEFINED_CURVE_FONT('continuous');
#189=COLOUR_RGB('',0.509803950786591,0.509803950786591,0.588235318660736);
#190=AXIS2_PLACEMENT_3D('',#266,#267,#268);
#191=SURFACE_SIDE_STYLE('',(#269));
#192=SURFACE_SIDE_STYLE('',(#270));
#193=EDGE_LOOP('',(#271,#272,#273,#274));
#194=AXIS2_PLACEMENT_3D('',#275,#276,#277);
#195=DRAUGHTING_PRE_DEFINED_CURVE_FONT('continuous');
#196=COLOUR_RGB('',0.509803950786591,0.509803950786591,0.588235318660736);
#197=AXIS2_PLACEMENT_3D('',#278,#279,#280);
#198=DRAUGHTING_PRE_DEFINED_CURVE_FONT('continuous');
#199=COLOUR_RGB('',0.509803950786591,0.509803950786591,0.588235318660736);
#200=CARTESIAN_POINT('',(29.75,-3.64320390262157E-015,0.0));
#201=VECTOR('',#281,1.0);
#202=SURFACE_SIDE_STYLE('',(#282));
#203=EDGE_LOOP('',(#283,#284));
#204=EDGE_LOOP('',(#285,#286));
#205=AXIS2_PLACEMENT_3D('',#287,#288,#289);
#206=DRAUGHTING_PRE_DEFINED_CURVE_FONT('continuous');
#207=COLOUR_RGB('',0.509803950786591,0.509803950786591,0.588235318660736);
#208=AXIS2_PLACEMENT_3D('',#290,#291,#292);
#209=SURFACE_SIDE_STYLE('',(#293));
#210=EDGE_LOOP('',(#294,#295,#296,#297));
#211=AXIS2_PLACEMENT_3D('',#298,#299,#300);
#212=SURFACE_SIDE_STYLE('',(#301));
#213=EDGE_LOOP('',(#302,#303,#304,#305));
#214=AXIS2_PLACEMENT_3D('',#306,#307,#308);
#215=SURFACE_SIDE_STYLE('',(#309));
#216=EDGE_LOOP('',(#310,#311));
#217=EDGE_LOOP('',(#312,#313));
#218=AXIS2_PLACEMENT_3D('',#314,#315,#316);
#219=PRE_DEFINED_MARKER('');
#220=COLOUR_RGB('',0.509803950786591,0.509803950786591,0.588235318660736);
#221=DRAUGHTING_PRE_DEFINED_CURVE_FONT('continuous');
#222=COLOUR_RGB('',0.509803950786591,0.509803950786591,0.588235318660736);
#223=CARTESIAN_POINT('',(-6.5,7.95994129984545E-016,0.0));
#224=VECTOR('',#317,1.0);
#225=PRE_DEFINED_MARKER('');
#226=COLOUR_RGB('',0.509803950786591,0.509803950786591,0.588235318660736);
#227=PRE_DEFINED_MARKER('');
#228=COLOUR_RGB('',0.509803950786591,0.509803950786591,0.588235318660736);
#229=DRAUGHTING_PRE_DEFINED_CURVE_FONT('continuous');
#230=COLOUR_RGB('',0.509803950786591,0.509803950786591,0.588235318660736);
#231=AXIS2_PLACEMENT_3D('',#318,#319,#320);
#232=DRAUGHTING_PRE_DEFINED_CURVE_FONT('continuous');
#233=COLOUR_RGB('',0.509803950786591,0.509803950786591,0.588235318660736);
#234=AXIS2_PLACEMENT_3D('',#321,#322,#323);
#235=DRAUGHTING_PRE_DEFINED_CURVE_FONT('continuous');
#236=COLOUR_RGB('',0.509803950786591,0.509803950786591,0.588235318660736);
#237=AXIS2_PLACEMENT_3D('',#324,#325,#326);
#238=DRAUGHTING_PRE_DEFINED_CURVE_FONT('continuous');
#239=COLOUR_RGB('',0.509803950786591,0.509803950786591,0.588235318660736);
#240=AXIS2_PLACEMENT_3D('',#327,#328,#329);
#241=PRE_DEFINED_MARKER('');
#242=COLOUR_RGB('',0.509803950786591,0.509803950786591,0.588235318660736);
#243=PRE_DEFINED_MARKER('');
#244=COLOUR_RGB('',0.509803950786591,0.509803950786591,0.588235318660736);
#245=DRAUGHTING_PRE_DEFINED_CURVE_FONT('continuous');
#246=COLOUR_RGB('',0.509803950786591,0.509803950786591,0.588235318660736);
#247=CARTESIAN_POINT('',(-29.75,3.64320390262157E-015,0.0));
#248=VECTOR('',#330,1.0);
#249=PRE_DEFINED_MARKER('');
#250=COLOUR_RGB('',0.509803950786591,0.509803950786591,0.588235318660736);
#251=PRE_DEFINED_MARKER('');
#252=COLOUR_RGB('',0.509803950786591,0.509803950786591,0.588235318660736);
#253=DRAUGHTING_PRE_DEFINED_CURVE_FONT('continuous');
#254=COLOUR_RGB('',0.509803950786591,0.509803950786591,0.588235318660736);
#255=CARTESIAN_POINT('',(6.5,-7.95994129984545E-016,0.0));
#256=VECTOR('',#331,1.0);
#257=PRE_DEFINED_MARKER('');
#258=COLOUR_RGB('',0.509803950786591,0.509803950786591,0.588235318660736);
#259=SURFACE_SIDE_STYLE('',(#332));
#260=EDGE_LOOP('',(#333,#334,#335,#336));
#261=AXIS2_PLACEMENT_3D('',#337,#338,#339);
#262=DRAUGHTING_PRE_DEFINED_CURVE_FONT('continuous');
#263=COLOUR_RGB('',0.509803950786591,0.509803950786591,0.588235318660736);
#264=AXIS2_PLACEMENT_3D('',#340,#341,#342);
#266=CARTESIAN_POINT('',(0.0,0.0,0.0));
#267=DIRECTION('',(0.0,0.0,1.0));
#268=DIRECTION('',(1.0,0.0,0.0));
#269=SURFACE_STYLE_FILL_AREA(#343);
#270=SURFACE_STYLE_FILL_AREA(#344);
#271=ORIENTED_EDGE('',*,*,#97,.T.);
#272=ORIENTED_EDGE('',*,*,#51,.F.);
#273=ORIENTED_EDGE('',*,*,#73,.T.);
#274=ORIENTED_EDGE('',*,*,#63,.F.);
#275=CARTESIAN_POINT('',(0.0,0.0,0.0));
#276=DIRECTION('',(-0.0,-0.0,-1.0));
#277=DIRECTION('',(1.0,0.0,0.0));
#278=CARTESIAN_POINT('',(0.0,0.0,0.0));
#279=DIRECTION('',(0.0,0.0,1.0));
#280=DIRECTION('',(1.0,0.0,0.0));
#281=DIRECTION('',(0.0,0.0,1.0));
#282=SURFACE_STYLE_FILL_AREA(#345);
#283=ORIENTED_EDGE('',*,*,#57,.T.);
#284=ORIENTED_EDGE('',*,*,#51,.T.);
#285=ORIENTED_EDGE('',*,*,#103,.F.);
#286=ORIENTED_EDGE('',*,*,#81,.F.);
#287=CARTESIAN_POINT('',(0.0,0.0,0.0));
#288=DIRECTION('',(0.0,0.0,1.0));
#289=DIRECTION('',(1.0,0.0,0.0));
#290=CARTESIAN_POINT('',(0.0,0.0,3.0));
#291=DIRECTION('',(0.0,0.0,-1.0));
#292=DIRECTION('',(1.0,0.0,0.0));
#293=SURFACE_STYLE_FILL_AREA(#346);
#294=ORIENTED_EDGE('',*,*,#59,.F.);
#295=ORIENTED_EDGE('',*,*,#103,.T.);
#296=ORIENTED_EDGE('',*,*,#91,.F.);
#297=ORIENTED_EDGE('',*,*,#85,.T.);
#298=CARTESIAN_POINT('',(0.0,0.0,0.0));
#299=DIRECTION('',(-0.0,-0.0,-1.0));
#300=DIRECTION('',(1.0,0.0,0.0));
#301=SURFACE_STYLE_FILL_AREA(#347);
#302=ORIENTED_EDGE('',*,*,#59,.T.);
#303=ORIENTED_EDGE('',*,*,#83,.T.);
#304=ORIENTED_EDGE('',*,*,#91,.T.);
#305=ORIENTED_EDGE('',*,*,#81,.T.);
#306=CARTESIAN_POINT('',(0.0,0.0,0.0));
#307=DIRECTION('',(-0.0,-0.0,-1.0));
#308=DIRECTION('',(1.0,0.0,0.0));
#309=SURFACE_STYLE_FILL_AREA(#348);
#310=ORIENTED_EDGE('',*,*,#79,.T.);
#311=ORIENTED_EDGE('',*,*,#63,.T.);
#312=ORIENTED_EDGE('',*,*,#85,.F.);
#313=ORIENTED_EDGE('',*,*,#83,.F.);
#314=CARTESIAN_POINT('',(0.0,0.0,3.0));
#315=DIRECTION('',(0.0,0.0,1.0));
#316=DIRECTION('',(1.0,0.0,0.0));
#317=DIRECTION('',(-0.0,0.0,1.0));
#318=CARTESIAN_POINT('',(0.0,0.0,3.0));
#319=DIRECTION('',(0.0,0.0,-1.0));
#320=DIRECTION('',(1.0,0.0,0.0));
#321=CARTESIAN_POINT('',(0.0,0.0,0.0));
#322=DIRECTION('',(0.0,0.0,1.0));
#323=DIRECTION('',(1.0,0.0,0.0));
#324=CARTESIAN_POINT('',(0.0,0.0,3.0));
#325=DIRECTION('',(0.0,0.0,-1.0));
#326=DIRECTION('',(-1.0,0.0,0.0));
#327=CARTESIAN_POINT('',(0.0,0.0,3.0));
#328=DIRECTION('',(0.0,0.0,-1.0));
#329=DIRECTION('',(-1.0,0.0,0.0));
#330=DIRECTION('',(-0.0,-0.0,-1.0));
#331=DIRECTION('',(-0.0,0.0,-1.0));
#332=SURFACE_STYLE_FILL_AREA(#349);
#333=ORIENTED_EDGE('',*,*,#97,.F.);
#334=ORIENTED_EDGE('',*,*,#79,.F.);
#335=ORIENTED_EDGE('',*,*,#73,.F.);
#336=ORIENTED_EDGE('',*,*,#57,.F.);
#337=CARTESIAN_POINT('',(0.0,0.0,0.0));
#338=DIRECTION('',(-0.0,-0.0,-1.0));
#339=DIRECTION('',(1.0,0.0,0.0));
#340=CARTESIAN_POINT('',(0.0,0.0,0.0));
#341=DIRECTION('',(0.0,0.0,1.0));
#342=DIRECTION('',(1.0,0.0,0.0));
#343=FILL_AREA_STYLE('',(#350));
#344=FILL_AREA_STYLE('',(#351));
#345=FILL_AREA_STYLE('',(#352));
#346=FILL_AREA_STYLE('',(#353));
#347=FILL_AREA_STYLE('',(#354));
#348=FILL_AREA_STYLE('',(#355));
#349=FILL_AREA_STYLE('',(#356));
#350=FILL_AREA_STYLE_COLOUR('',#357);
#351=FILL_AREA_STYLE_COLOUR('',#358);
#352=FILL_AREA_STYLE_COLOUR('',#359);
#353=FILL_AREA_STYLE_COLOUR('',#360);
#354=FILL_AREA_STYLE_COLOUR('',#361);
#355=FILL_AREA_STYLE_COLOUR('',#362);
#356=FILL_AREA_STYLE_COLOUR('',#363);
#357=COLOUR_RGB('',0.509803950786591,0.509803950786591,0.588235318660736);
#358=COLOUR_RGB('',0.509803950786591,0.509803950786591,0.588235318660736);
#359=COLOUR_RGB('',0.509803950786591,0.509803950786591,0.588235318660736);
#360=COLOUR_RGB('',0.509803950786591,0.509803950786591,0.588235318660736);
#361=COLOUR_RGB('',0.509803950786591,0.509803950786591,0.588235318660736);
#362=COLOUR_RGB('',0.509803950786591,0.509803950786591,0.588235318660736);
#363=COLOUR_RGB('',0.509803950786591,0.509803950786591,0.588235318660736);
ENDSEC;
END-ISO-10303-21;
