ISO-10303-21;
HEADER;
FILE_DESCRIPTION(('STEP AP214'),'1');
FILE_NAME(' ','  ',('TraceParts'),('TraceParts S.A.'),'XStep 1.0',' ',' ');
FILE_SCHEMA(('automotive_design'));
ENDSEC;
DATA;
#1=MECHANICAL_DESIGN_GEOMETRIC_PRESENTATION_REPRESENTATION(' ',(#10,#11,#12,#13,#14,#15,#16,#17,#18,#19,#20,#21,#22,#23,#24,#25,#26,#27,#28,#29,#30,#31,#32,#33,#34,#35,#36),#6);
#2=PRODUCT_DEFINITION_CONTEXT('',#37,'design');
#3=APPLICATION_PROTOCOL_DEFINITION('INTERNATIONAL STANDARD','automotive_design',1994,#37);
#4=PRODUCT_CATEGORY_RELATIONSHIP('NONE','NONE',#38,#39);
#5=SHAPE_DEFINITION_REPRESENTATION(#40,#41);
#6= (GEOMETRIC_REPRESENTATION_CONTEXT(3)GLOBAL_UNCERTAINTY_ASSIGNED_CONTEXT((#44))GLOBAL_UNIT_ASSIGNED_CONTEXT((#46,#47,#48))REPRESENTATION_CONTEXT('NONE','WORKSPACE'));
#10=STYLED_ITEM('',(#50),#51);
#11=STYLED_ITEM('',(#52),#53);
#12=STYLED_ITEM('',(#54),#55);
#13=STYLED_ITEM('',(#56),#57);
#14=STYLED_ITEM('',(#58),#59);
#15=STYLED_ITEM('',(#60),#61);
#16=STYLED_ITEM('',(#62),#63);
#17=STYLED_ITEM('',(#64),#65);
#18=STYLED_ITEM('',(#66),#67);
#19=STYLED_ITEM('',(#68),#69);
#20=STYLED_ITEM('',(#70),#71);
#21=STYLED_ITEM('',(#72),#73);
#22=STYLED_ITEM('',(#74),#75);
#23=STYLED_ITEM('',(#76),#77);
#24=STYLED_ITEM('',(#78),#79);
#25=STYLED_ITEM('',(#80),#81);
#26=STYLED_ITEM('',(#82),#83);
#27=STYLED_ITEM('',(#84),#85);
#28=STYLED_ITEM('',(#86),#87);
#29=STYLED_ITEM('',(#88),#89);
#30=STYLED_ITEM('',(#90),#91);
#31=STYLED_ITEM('',(#92),#93);
#32=STYLED_ITEM('',(#94),#95);
#33=STYLED_ITEM('',(#96),#97);
#34=STYLED_ITEM('',(#98),#99);
#35=STYLED_ITEM('',(#100),#101);
#36=STYLED_ITEM('',(#102),#103);
#37=APPLICATION_CONTEXT(' ');
#38=PRODUCT_CATEGORY('part','NONE');
#39=PRODUCT_RELATED_PRODUCT_CATEGORY('detail',' ',(#104));
#40=PRODUCT_DEFINITION_SHAPE('NONE','NONE',#105);
#41=ADVANCED_BREP_SHAPE_REPRESENTATION('1',(#51,#106),#6);
#44=UNCERTAINTY_MEASURE_WITH_UNIT(LENGTH_MEASURE(1.0E-006),#46,'','');
#46= (CONVERSION_BASED_UNIT('MILLIMETRE',#109)LENGTH_UNIT()NAMED_UNIT(#112));
#47= (NAMED_UNIT(#114)PLANE_ANGLE_UNIT()SI_UNIT($,.RADIAN.));
#48= (NAMED_UNIT(#114)SOLID_ANGLE_UNIT()SI_UNIT($,.STERADIAN.));
#50=PRESENTATION_STYLE_ASSIGNMENT((#120));
#51=MANIFOLD_SOLID_BREP('1',#121);
#52=PRESENTATION_STYLE_ASSIGNMENT((#122));
#53=ADVANCED_FACE('',(#123,#124),#125,.F.);
#54=PRESENTATION_STYLE_ASSIGNMENT((#126));
#55=VERTEX_POINT('',#127);
#56=PRESENTATION_STYLE_ASSIGNMENT((#128));
#57=ADVANCED_FACE('',(#129),#130,.F.);
#58=PRESENTATION_STYLE_ASSIGNMENT((#131));
#59=VERTEX_POINT('',#132);
#60=PRESENTATION_STYLE_ASSIGNMENT((#133));
#61=EDGE_CURVE('',#91,#89,#134,.T.);
#62=PRESENTATION_STYLE_ASSIGNMENT((#135));
#63=EDGE_CURVE('',#83,#99,#136,.T.);
#64=PRESENTATION_STYLE_ASSIGNMENT((#137));
#65=EDGE_CURVE('',#99,#83,#138,.T.);
#66=PRESENTATION_STYLE_ASSIGNMENT((#139));
#67=ADVANCED_FACE('',(#140,#141),#142,.T.);
#68=PRESENTATION_STYLE_ASSIGNMENT((#143));
#69=EDGE_CURVE('',#55,#101,#144,.T.);
#70=PRESENTATION_STYLE_ASSIGNMENT((#145));
#71=ADVANCED_FACE('',(#146),#147,.T.);
#72=PRESENTATION_STYLE_ASSIGNMENT((#148));
#73=EDGE_CURVE('',#103,#59,#149,.T.);
#74=PRESENTATION_STYLE_ASSIGNMENT((#150));
#75=EDGE_CURVE('',#55,#59,#151,.T.);
#76=PRESENTATION_STYLE_ASSIGNMENT((#152));
#77=EDGE_CURVE('',#89,#91,#153,.T.);
#78=PRESENTATION_STYLE_ASSIGNMENT((#154));
#79=EDGE_CURVE('',#83,#91,#155,.T.);
#80=PRESENTATION_STYLE_ASSIGNMENT((#156));
#81=ADVANCED_FACE('',(#157),#158,.F.);
#82=PRESENTATION_STYLE_ASSIGNMENT((#159));
#83=VERTEX_POINT('',#160);
#84=PRESENTATION_STYLE_ASSIGNMENT((#161));
#85=EDGE_CURVE('',#59,#103,#162,.T.);
#86=PRESENTATION_STYLE_ASSIGNMENT((#163));
#87=EDGE_CURVE('',#89,#99,#164,.T.);
#88=PRESENTATION_STYLE_ASSIGNMENT((#165));
#89=VERTEX_POINT('',#166);
#90=PRESENTATION_STYLE_ASSIGNMENT((#167));
#91=VERTEX_POINT('',#168);
#92=PRESENTATION_STYLE_ASSIGNMENT((#169));
#93=EDGE_CURVE('',#101,#55,#170,.T.);
#94=PRESENTATION_STYLE_ASSIGNMENT((#171));
#95=EDGE_CURVE('',#103,#101,#172,.T.);
#96=PRESENTATION_STYLE_ASSIGNMENT((#173));
#97=ADVANCED_FACE('',(#174),#175,.T.);
#98=PRESENTATION_STYLE_ASSIGNMENT((#176));
#99=VERTEX_POINT('',#177);
#100=PRESENTATION_STYLE_ASSIGNMENT((#178));
#101=VERTEX_POINT('',#179);
#102=PRESENTATION_STYLE_ASSIGNMENT((#180));
#103=VERTEX_POINT('',#181);
#104=PRODUCT('1','1','PART-1-DESC',(#182));
#105=PRODUCT_DEFINITION('NONE','NONE',#183,#2);
#106=AXIS2_PLACEMENT_3D('',#184,#185,#186);
#109=LENGTH_MEASURE_WITH_UNIT(LENGTH_MEASURE(1.0),#187);
#112=DIMENSIONAL_EXPONENTS(1.0,0.0,0.0,0.0,0.0,0.0,0.0);
#114=DIMENSIONAL_EXPONENTS(0.0,0.0,0.0,0.0,0.0,0.0,0.0);
#120=SURFACE_STYLE_USAGE(.BOTH.,#188);
#121=CLOSED_SHELL('',(#97,#81,#57,#71,#53,#67));
#122=SURFACE_STYLE_USAGE(.BOTH.,#189);
#123=FACE_BOUND('',#190,.T.);
#124=FACE_OUTER_BOUND('',#191,.T.);
#125=PLANE('',#192);
#126=POINT_STYLE(' ',#193,POSITIVE_LENGTH_MEASURE(1.0E-006),#194);
#127=CARTESIAN_POINT('',(6.5,-7.95994129984545E-016,4.0));
#128=SURFACE_STYLE_USAGE(.BOTH.,#195);
#129=FACE_OUTER_BOUND('',#196,.T.);
#130=CYLINDRICAL_SURFACE('',#197,6.5);
#131=POINT_STYLE(' ',#198,POSITIVE_LENGTH_MEASURE(1.0E-006),#199);
#132=CARTESIAN_POINT('',(6.5,0.0,0.0));
#133=CURVE_STYLE('',#200,POSITIVE_LENGTH_MEASURE(1.0E-006),#201);
#134=CIRCLE('',#202,19.75);
#135=CURVE_STYLE('',#203,POSITIVE_LENGTH_MEASURE(1.0E-006),#204);
#136=CIRCLE('',#205,19.75);
#137=CURVE_STYLE('',#206,POSITIVE_LENGTH_MEASURE(1.0E-006),#207);
#138=CIRCLE('',#208,19.75);
#139=SURFACE_STYLE_USAGE(.BOTH.,#209);
#140=FACE_BOUND('',#210,.T.);
#141=FACE_OUTER_BOUND('',#211,.T.);
#142=PLANE('',#212);
#143=CURVE_STYLE('',#213,POSITIVE_LENGTH_MEASURE(1.0E-006),#214);
#144=CIRCLE('',#215,6.5);
#145=SURFACE_STYLE_USAGE(.BOTH.,#216);
#146=FACE_OUTER_BOUND('',#217,.T.);
#147=CYLINDRICAL_SURFACE('',#218,19.75);
#148=CURVE_STYLE('',#219,POSITIVE_LENGTH_MEASURE(1.0E-006),#220);
#149=CIRCLE('',#221,6.5);
#150=CURVE_STYLE('',#222,POSITIVE_LENGTH_MEASURE(1.0E-006),#223);
#151=LINE('',#224,#225);
#152=CURVE_STYLE('',#226,POSITIVE_LENGTH_MEASURE(1.0E-006),#227);
#153=CIRCLE('',#228,19.75);
#154=CURVE_STYLE('',#229,POSITIVE_LENGTH_MEASURE(1.0E-006),#230);
#155=LINE('',#231,#232);
#156=SURFACE_STYLE_USAGE(.BOTH.,#233);
#157=FACE_OUTER_BOUND('',#234,.T.);
#158=CYLINDRICAL_SURFACE('',#235,6.5);
#159=POINT_STYLE(' ',#236,POSITIVE_LENGTH_MEASURE(1.0E-006),#237);
#160=CARTESIAN_POINT('',(-19.75,0.0,4.0));
#161=CURVE_STYLE('',#238,POSITIVE_LENGTH_MEASURE(1.0E-006),#239);
#162=CIRCLE('',#240,6.5);
#163=CURVE_STYLE('',#241,POSITIVE_LENGTH_MEASURE(1.0E-006),#242);
#164=LINE('',#243,#244);
#165=POINT_STYLE(' ',#245,POSITIVE_LENGTH_MEASURE(1.0E-006),#246);
#166=CARTESIAN_POINT('',(19.75,0.0,0.0));
#167=POINT_STYLE(' ',#247,POSITIVE_LENGTH_MEASURE(1.0E-006),#248);
#168=CARTESIAN_POINT('',(-19.75,2.4185975487992E-015,0.0));
#169=CURVE_STYLE('',#249,POSITIVE_LENGTH_MEASURE(1.0E-006),#250);
#170=CIRCLE('',#251,6.5);
#171=CURVE_STYLE('',#252,POSITIVE_LENGTH_MEASURE(1.0E-006),#253);
#172=LINE('',#254,#255);
#173=SURFACE_STYLE_USAGE(.BOTH.,#256);
#174=FACE_OUTER_BOUND('',#257,.T.);
#175=CYLINDRICAL_SURFACE('',#258,19.75);
#176=POINT_STYLE(' ',#259,POSITIVE_LENGTH_MEASURE(1.0E-006),#260);
#177=CARTESIAN_POINT('',(19.75,-2.4185975487992E-015,4.0));
#178=POINT_STYLE(' ',#261,POSITIVE_LENGTH_MEASURE(1.0E-006),#262);
#179=CARTESIAN_POINT('',(-6.5,0.0,4.0));
#180=POINT_STYLE(' ',#263,POSITIVE_LENGTH_MEASURE(1.0E-006),#264);
#181=CARTESIAN_POINT('',(-6.5,7.95994129984545E-016,0.0));
#182=PRODUCT_CONTEXT('',#37,'mechanical');
#183=PRODUCT_DEFINITION_FORMATION_WITH_SPECIFIED_SOURCE(' ','NONE',#104,.NOT_KNOWN.);
#184=CARTESIAN_POINT('',(0.0,0.0,0.0));
#185=DIRECTION('',(0.0,0.0,1.0));
#186=DIRECTION('',(1.0,0.0,0.0));
#187= (NAMED_UNIT(#112)LENGTH_UNIT()SI_UNIT(.MILLI.,.METRE.));
#188=SURFACE_SIDE_STYLE('',(#266));
#189=SURFACE_SIDE_STYLE('',(#267));
#190=EDGE_LOOP('',(#268,#269));
#191=EDGE_LOOP('',(#270,#271));
#192=AXIS2_PLACEMENT_3D('',#272,#273,#274);
#193=PRE_DEFINED_MARKER('');
#194=COLOUR_RGB('',0.509803950786591,0.509803950786591,0.588235318660736);
#195=SURFACE_SIDE_STYLE('',(#275));
#196=EDGE_LOOP('',(#276,#277,#278,#279));
#197=AXIS2_PLACEMENT_3D('',#280,#281,#282);
#198=PRE_DEFINED_MARKER('');
#199=COLOUR_RGB('',0.509803950786591,0.509803950786591,0.588235318660736);
#200=DRAUGHTING_PRE_DEFINED_CURVE_FONT('continuous');
#201=COLOUR_RGB('',0.509803950786591,0.509803950786591,0.588235318660736);
#202=AXIS2_PLACEMENT_3D('',#283,#284,#285);
#203=DRAUGHTING_PRE_DEFINED_CURVE_FONT('continuous');
#204=COLOUR_RGB('',0.509803950786591,0.509803950786591,0.588235318660736);
#205=AXIS2_PLACEMENT_3D('',#286,#287,#288);
#206=DRAUGHTING_PRE_DEFINED_CURVE_FONT('continuous');
#207=COLOUR_RGB('',0.509803950786591,0.509803950786591,0.588235318660736);
#208=AXIS2_PLACEMENT_3D('',#289,#290,#291);
#209=SURFACE_SIDE_STYLE('',(#292));
#210=EDGE_LOOP('',(#293,#294));
#211=EDGE_LOOP('',(#295,#296));
#212=AXIS2_PLACEMENT_3D('',#297,#298,#299);
#213=DRAUGHTING_PRE_DEFINED_CURVE_FONT('continuous');
#214=COLOUR_RGB('',0.509803950786591,0.509803950786591,0.588235318660736);
#215=AXIS2_PLACEMENT_3D('',#300,#301,#302);
#216=SURFACE_SIDE_STYLE('',(#303));
#217=EDGE_LOOP('',(#304,#305,#306,#307));
#218=AXIS2_PLACEMENT_3D('',#308,#309,#310);
#219=DRAUGHTING_PRE_DEFINED_CURVE_FONT('continuous');
#220=COLOUR_RGB('',0.509803950786591,0.509803950786591,0.588235318660736);
#221=AXIS2_PLACEMENT_3D('',#311,#312,#313);
#222=DRAUGHTING_PRE_DEFINED_CURVE_FONT('continuous');
#223=COLOUR_RGB('',0.509803950786591,0.509803950786591,0.588235318660736);
#224=CARTESIAN_POINT('',(6.5,-7.95994129984545E-016,0.0));
#225=VECTOR('',#314,1.0);
#226=DRAUGHTING_PRE_DEFINED_CURVE_FONT('continuous');
#227=COLOUR_RGB('',0.509803950786591,0.509803950786591,0.588235318660736);
#228=AXIS2_PLACEMENT_3D('',#315,#316,#317);
#229=DRAUGHTING_PRE_DEFINED_CURVE_FONT('continuous');
#230=COLOUR_RGB('',0.509803950786591,0.509803950786591,0.588235318660736);
#231=CARTESIAN_POINT('',(-19.75,2.4185975487992E-015,0.0));
#232=VECTOR('',#318,1.0);
#233=SURFACE_SIDE_STYLE('',(#319));
#234=EDGE_LOOP('',(#320,#321,#322,#323));
#235=AXIS2_PLACEMENT_3D('',#324,#325,#326);
#236=PRE_DEFINED_MARKER('');
#237=COLOUR_RGB('',0.509803950786591,0.509803950786591,0.588235318660736);
#238=DRAUGHTING_PRE_DEFINED_CURVE_FONT('continuous');
#239=COLOUR_RGB('',0.509803950786591,0.509803950786591,0.588235318660736);
#240=AXIS2_PLACEMENT_3D('',#327,#328,#329);
#241=DRAUGHTING_PRE_DEFINED_CURVE_FONT('continuous');
#242=COLOUR_RGB('',0.509803950786591,0.509803950786591,0.588235318660736);
#243=CARTESIAN_POINT('',(19.75,-2.4185975487992E-015,0.0));
#244=VECTOR('',#330,1.0);
#245=PRE_DEFINED_MARKER('');
#246=COLOUR_RGB('',0.509803950786591,0.509803950786591,0.588235318660736);
#247=PRE_DEFINED_MARKER('');
#248=COLOUR_RGB('',0.509803950786591,0.509803950786591,0.588235318660736);
#249=DRAUGHTING_PRE_DEFINED_CURVE_FONT('continuous');
#250=COLOUR_RGB('',0.509803950786591,0.509803950786591,0.588235318660736);
#251=AXIS2_PLACEMENT_3D('',#331,#332,#333);
#252=DRAUGHTING_PRE_DEFINED_CURVE_FONT('continuous');
#253=COLOUR_RGB('',0.509803950786591,0.509803950786591,0.588235318660736);
#254=CARTESIAN_POINT('',(-6.5,7.95994129984545E-016,0.0));
#255=VECTOR('',#334,1.0);
#256=SURFACE_SIDE_STYLE('',(#335));
#257=EDGE_LOOP('',(#336,#337,#338,#339));
#258=AXIS2_PLACEMENT_3D('',#340,#341,#342);
#259=PRE_DEFINED_MARKER('');
#260=COLOUR_RGB('',0.509803950786591,0.509803950786591,0.588235318660736);
#261=PRE_DEFINED_MARKER('');
#262=COLOUR_RGB('',0.509803950786591,0.509803950786591,0.588235318660736);
#263=PRE_DEFINED_MARKER('');
#264=COLOUR_RGB('',0.509803950786591,0.509803950786591,0.588235318660736);
#266=SURFACE_STYLE_FILL_AREA(#343);
#267=SURFACE_STYLE_FILL_AREA(#344);
#268=ORIENTED_EDGE('',*,*,#85,.T.);
#269=ORIENTED_EDGE('',*,*,#73,.T.);
#270=ORIENTED_EDGE('',*,*,#77,.F.);
#271=ORIENTED_EDGE('',*,*,#61,.F.);
#272=CARTESIAN_POINT('',(0.0,0.0,0.0));
#273=DIRECTION('',(0.0,0.0,1.0));
#274=DIRECTION('',(1.0,0.0,0.0));
#275=SURFACE_STYLE_FILL_AREA(#345);
#276=ORIENTED_EDGE('',*,*,#75,.T.);
#277=ORIENTED_EDGE('',*,*,#73,.F.);
#278=ORIENTED_EDGE('',*,*,#95,.T.);
#279=ORIENTED_EDGE('',*,*,#69,.F.);
#280=CARTESIAN_POINT('',(0.0,0.0,0.0));
#281=DIRECTION('',(-0.0,-0.0,-1.0));
#282=DIRECTION('',(1.0,0.0,0.0));
#283=CARTESIAN_POINT('',(0.0,0.0,0.0));
#284=DIRECTION('',(0.0,0.0,1.0));
#285=DIRECTION('',(1.0,0.0,0.0));
#286=CARTESIAN_POINT('',(0.0,0.0,4.0));
#287=DIRECTION('',(0.0,0.0,-1.0));
#288=DIRECTION('',(-1.0,0.0,0.0));
#289=CARTESIAN_POINT('',(0.0,0.0,4.0));
#290=DIRECTION('',(0.0,0.0,-1.0));
#291=DIRECTION('',(-1.0,0.0,0.0));
#292=SURFACE_STYLE_FILL_AREA(#346);
#293=ORIENTED_EDGE('',*,*,#93,.T.);
#294=ORIENTED_EDGE('',*,*,#69,.T.);
#295=ORIENTED_EDGE('',*,*,#63,.F.);
#296=ORIENTED_EDGE('',*,*,#65,.F.);
#297=CARTESIAN_POINT('',(0.0,0.0,4.0));
#298=DIRECTION('',(0.0,0.0,1.0));
#299=DIRECTION('',(1.0,0.0,0.0));
#300=CARTESIAN_POINT('',(0.0,0.0,4.0));
#301=DIRECTION('',(0.0,0.0,-1.0));
#302=DIRECTION('',(1.0,0.0,0.0));
#303=SURFACE_STYLE_FILL_AREA(#347);
#304=ORIENTED_EDGE('',*,*,#87,.T.);
#305=ORIENTED_EDGE('',*,*,#65,.T.);
#306=ORIENTED_EDGE('',*,*,#79,.T.);
#307=ORIENTED_EDGE('',*,*,#61,.T.);
#308=CARTESIAN_POINT('',(0.0,0.0,0.0));
#309=DIRECTION('',(-0.0,-0.0,-1.0));
#310=DIRECTION('',(1.0,0.0,0.0));
#311=CARTESIAN_POINT('',(0.0,0.0,0.0));
#312=DIRECTION('',(0.0,0.0,1.0));
#313=DIRECTION('',(1.0,0.0,0.0));
#314=DIRECTION('',(-0.0,0.0,-1.0));
#315=CARTESIAN_POINT('',(0.0,0.0,0.0));
#316=DIRECTION('',(0.0,0.0,1.0));
#317=DIRECTION('',(1.0,0.0,0.0));
#318=DIRECTION('',(-0.0,-0.0,-1.0));
#319=SURFACE_STYLE_FILL_AREA(#348);
#320=ORIENTED_EDGE('',*,*,#75,.F.);
#321=ORIENTED_EDGE('',*,*,#93,.F.);
#322=ORIENTED_EDGE('',*,*,#95,.F.);
#323=ORIENTED_EDGE('',*,*,#85,.F.);
#324=CARTESIAN_POINT('',(0.0,0.0,0.0));
#325=DIRECTION('',(-0.0,-0.0,-1.0));
#326=DIRECTION('',(1.0,0.0,0.0));
#327=CARTESIAN_POINT('',(0.0,0.0,0.0));
#328=DIRECTION('',(0.0,0.0,1.0));
#329=DIRECTION('',(1.0,0.0,0.0));
#330=DIRECTION('',(0.0,0.0,1.0));
#331=CARTESIAN_POINT('',(0.0,0.0,4.0));
#332=DIRECTION('',(0.0,0.0,-1.0));
#333=DIRECTION('',(1.0,0.0,0.0));
#334=DIRECTION('',(-0.0,0.0,1.0));
#335=SURFACE_STYLE_FILL_AREA(#349);
#336=ORIENTED_EDGE('',*,*,#87,.F.);
#337=ORIENTED_EDGE('',*,*,#77,.T.);
#338=ORIENTED_EDGE('',*,*,#79,.F.);
#339=ORIENTED_EDGE('',*,*,#63,.T.);
#340=CARTESIAN_POINT('',(0.0,0.0,0.0));
#341=DIRECTION('',(-0.0,-0.0,-1.0));
#342=DIRECTION('',(1.0,0.0,0.0));
#343=FILL_AREA_STYLE('',(#350));
#344=FILL_AREA_STYLE('',(#351));
#345=FILL_AREA_STYLE('',(#352));
#346=FILL_AREA_STYLE('',(#353));
#347=FILL_AREA_STYLE('',(#354));
#348=FILL_AREA_STYLE('',(#355));
#349=FILL_AREA_STYLE('',(#356));
#350=FILL_AREA_STYLE_COLOUR('',#357);
#351=FILL_AREA_STYLE_COLOUR('',#358);
#352=FILL_AREA_STYLE_COLOUR('',#359);
#353=FILL_AREA_STYLE_COLOUR('',#360);
#354=FILL_AREA_STYLE_COLOUR('',#361);
#355=FILL_AREA_STYLE_COLOUR('',#362);
#356=FILL_AREA_STYLE_COLOUR('',#363);
#357=COLOUR_RGB('',0.509803950786591,0.509803950786591,0.588235318660736);
#358=COLOUR_RGB('',0.509803950786591,0.509803950786591,0.588235318660736);
#359=COLOUR_RGB('',0.509803950786591,0.509803950786591,0.588235318660736);
#360=COLOUR_RGB('',0.509803950786591,0.509803950786591,0.588235318660736);
#361=COLOUR_RGB('',0.509803950786591,0.509803950786591,0.588235318660736);
#362=COLOUR_RGB('',0.509803950786591,0.509803950786591,0.588235318660736);
#363=COLOUR_RGB('',0.509803950786591,0.509803950786591,0.588235318660736);
ENDSEC;
END-ISO-10303-21;
