ISO-10303-21;
HEADER;
FILE_DESCRIPTION(('STEP AP214'),'1');
FILE_NAME(' ','  ',('TraceParts'),('TraceParts S.A.'),'XStep 1.0',' ',' ');
FILE_SCHEMA(('automotive_design'));
ENDSEC;
DATA;
#1=MECHANICAL_DESIGN_GEOMETRIC_PRESENTATION_REPRESENTATION(' ',(#10,#11,#12,#13,#14,#15,#16,#17,#18,#19,#20,#21,#22,#23,#24,#25,#26,#27,#28,#29,#30,#31,#32,#33,#34,#35,#36),#6);
#2=PRODUCT_DEFINITION_CONTEXT('',#37,'design');
#3=APPLICATION_PROTOCOL_DEFINITION('INTERNATIONAL STANDARD','automotive_design',1994,#37);
#4=PRODUCT_CATEGORY_RELATIONSHIP('NONE','NONE',#38,#39);
#5=SHAPE_DEFINITION_REPRESENTATION(#40,#41);
#6= (GEOMETRIC_REPRESENTATION_CONTEXT(3)GLOBAL_UNCERTAINTY_ASSIGNED_CONTEXT((#44))GLOBAL_UNIT_ASSIGNED_CONTEXT((#46,#47,#48))REPRESENTATION_CONTEXT('NONE','WORKSPACE'));
#10=STYLED_ITEM('',(#50),#51);
#11=STYLED_ITEM('',(#52),#53);
#12=STYLED_ITEM('',(#54),#55);
#13=STYLED_ITEM('',(#56),#57);
#14=STYLED_ITEM('',(#58),#59);
#15=STYLED_ITEM('',(#60),#61);
#16=STYLED_ITEM('',(#62),#63);
#17=STYLED_ITEM('',(#64),#65);
#18=STYLED_ITEM('',(#66),#67);
#19=STYLED_ITEM('',(#68),#69);
#20=STYLED_ITEM('',(#70),#71);
#21=STYLED_ITEM('',(#72),#73);
#22=STYLED_ITEM('',(#74),#75);
#23=STYLED_ITEM('',(#76),#77);
#24=STYLED_ITEM('',(#78),#79);
#25=STYLED_ITEM('',(#80),#81);
#26=STYLED_ITEM('',(#82),#83);
#27=STYLED_ITEM('',(#84),#85);
#28=STYLED_ITEM('',(#86),#87);
#29=STYLED_ITEM('',(#88),#89);
#30=STYLED_ITEM('',(#90),#91);
#31=STYLED_ITEM('',(#92),#93);
#32=STYLED_ITEM('',(#94),#95);
#33=STYLED_ITEM('',(#96),#97);
#34=STYLED_ITEM('',(#98),#99);
#35=STYLED_ITEM('',(#100),#101);
#36=STYLED_ITEM('',(#102),#103);
#37=APPLICATION_CONTEXT(' ');
#38=PRODUCT_CATEGORY('part','NONE');
#39=PRODUCT_RELATED_PRODUCT_CATEGORY('detail',' ',(#104));
#40=PRODUCT_DEFINITION_SHAPE('NONE','NONE',#105);
#41=ADVANCED_BREP_SHAPE_REPRESENTATION('1',(#57,#106),#6);
#44=UNCERTAINTY_MEASURE_WITH_UNIT(LENGTH_MEASURE(1.0E-006),#46,'','');
#46= (CONVERSION_BASED_UNIT('MILLIMETRE',#109)LENGTH_UNIT()NAMED_UNIT(#112));
#47= (NAMED_UNIT(#114)PLANE_ANGLE_UNIT()SI_UNIT($,.RADIAN.));
#48= (NAMED_UNIT(#114)SOLID_ANGLE_UNIT()SI_UNIT($,.STERADIAN.));
#50=PRESENTATION_STYLE_ASSIGNMENT((#120));
#51=VERTEX_POINT('',#121);
#52=PRESENTATION_STYLE_ASSIGNMENT((#122));
#53=EDGE_CURVE('',#87,#93,#123,.T.);
#54=PRESENTATION_STYLE_ASSIGNMENT((#124));
#55=EDGE_CURVE('',#83,#87,#125,.T.);
#56=PRESENTATION_STYLE_ASSIGNMENT((#126));
#57=MANIFOLD_SOLID_BREP('1',#127);
#58=PRESENTATION_STYLE_ASSIGNMENT((#128));
#59=ADVANCED_FACE('',(#129),#130,.T.);
#60=PRESENTATION_STYLE_ASSIGNMENT((#131));
#61=EDGE_CURVE('',#95,#73,#132,.T.);
#62=PRESENTATION_STYLE_ASSIGNMENT((#133));
#63=EDGE_CURVE('',#93,#51,#134,.T.);
#64=PRESENTATION_STYLE_ASSIGNMENT((#135));
#65=VERTEX_POINT('',#136);
#66=PRESENTATION_STYLE_ASSIGNMENT((#137));
#67=EDGE_CURVE('',#73,#65,#138,.T.);
#68=PRESENTATION_STYLE_ASSIGNMENT((#139));
#69=EDGE_CURVE('',#87,#83,#140,.T.);
#70=PRESENTATION_STYLE_ASSIGNMENT((#141));
#71=EDGE_CURVE('',#73,#95,#142,.T.);
#72=PRESENTATION_STYLE_ASSIGNMENT((#143));
#73=VERTEX_POINT('',#144);
#74=PRESENTATION_STYLE_ASSIGNMENT((#145));
#75=EDGE_CURVE('',#51,#83,#146,.T.);
#76=PRESENTATION_STYLE_ASSIGNMENT((#147));
#77=EDGE_CURVE('',#101,#65,#148,.T.);
#78=PRESENTATION_STYLE_ASSIGNMENT((#149));
#79=ADVANCED_FACE('',(#150),#151,.T.);
#80=PRESENTATION_STYLE_ASSIGNMENT((#152));
#81=ADVANCED_FACE('',(#153,#154),#155,.T.);
#82=PRESENTATION_STYLE_ASSIGNMENT((#156));
#83=VERTEX_POINT('',#157);
#84=PRESENTATION_STYLE_ASSIGNMENT((#158));
#85=EDGE_CURVE('',#65,#101,#159,.T.);
#86=PRESENTATION_STYLE_ASSIGNMENT((#160));
#87=VERTEX_POINT('',#161);
#88=PRESENTATION_STYLE_ASSIGNMENT((#162));
#89=EDGE_CURVE('',#51,#93,#163,.T.);
#90=PRESENTATION_STYLE_ASSIGNMENT((#164));
#91=ADVANCED_FACE('',(#165,#166),#167,.F.);
#92=PRESENTATION_STYLE_ASSIGNMENT((#168));
#93=VERTEX_POINT('',#169);
#94=PRESENTATION_STYLE_ASSIGNMENT((#170));
#95=VERTEX_POINT('',#171);
#96=PRESENTATION_STYLE_ASSIGNMENT((#172));
#97=EDGE_CURVE('',#101,#95,#173,.T.);
#98=PRESENTATION_STYLE_ASSIGNMENT((#174));
#99=ADVANCED_FACE('',(#175),#176,.F.);
#100=PRESENTATION_STYLE_ASSIGNMENT((#177));
#101=VERTEX_POINT('',#178);
#102=PRESENTATION_STYLE_ASSIGNMENT((#179));
#103=ADVANCED_FACE('',(#180),#181,.F.);
#104=PRODUCT('1','1','PART-1-DESC',(#182));
#105=PRODUCT_DEFINITION('NONE','NONE',#183,#2);
#106=AXIS2_PLACEMENT_3D('',#184,#185,#186);
#109=LENGTH_MEASURE_WITH_UNIT(LENGTH_MEASURE(1.0),#187);
#112=DIMENSIONAL_EXPONENTS(1.0,0.0,0.0,0.0,0.0,0.0,0.0);
#114=DIMENSIONAL_EXPONENTS(0.0,0.0,0.0,0.0,0.0,0.0,0.0);
#120=POINT_STYLE(' ',#188,POSITIVE_LENGTH_MEASURE(1.0E-006),#189);
#121=CARTESIAN_POINT('',(-29.75,0.0,5.0));
#122=CURVE_STYLE('',#190,POSITIVE_LENGTH_MEASURE(1.0E-006),#191);
#123=LINE('',#192,#193);
#124=CURVE_STYLE('',#194,POSITIVE_LENGTH_MEASURE(1.0E-006),#195);
#125=CIRCLE('',#196,29.75);
#126=SURFACE_STYLE_USAGE(.BOTH.,#197);
#127=CLOSED_SHELL('',(#59,#103,#99,#79,#91,#81));
#128=SURFACE_STYLE_USAGE(.BOTH.,#198);
#129=FACE_OUTER_BOUND('',#199,.T.);
#130=CYLINDRICAL_SURFACE('',#200,29.75);
#131=CURVE_STYLE('',#201,POSITIVE_LENGTH_MEASURE(1.0E-006),#202);
#132=CIRCLE('',#203,6.5);
#133=CURVE_STYLE('',#204,POSITIVE_LENGTH_MEASURE(1.0E-006),#205);
#134=CIRCLE('',#206,29.75);
#135=POINT_STYLE(' ',#207,POSITIVE_LENGTH_MEASURE(1.0E-006),#208);
#136=CARTESIAN_POINT('',(6.5,0.0,0.0));
#137=CURVE_STYLE('',#209,POSITIVE_LENGTH_MEASURE(1.0E-006),#210);
#138=LINE('',#211,#212);
#139=CURVE_STYLE('',#213,POSITIVE_LENGTH_MEASURE(1.0E-006),#214);
#140=CIRCLE('',#215,29.75);
#141=CURVE_STYLE('',#216,POSITIVE_LENGTH_MEASURE(1.0E-006),#217);
#142=CIRCLE('',#218,6.5);
#143=POINT_STYLE(' ',#219,POSITIVE_LENGTH_MEASURE(1.0E-006),#220);
#144=CARTESIAN_POINT('',(6.5,-7.95994129984545E-016,5.0));
#145=CURVE_STYLE('',#221,POSITIVE_LENGTH_MEASURE(1.0E-006),#222);
#146=LINE('',#223,#224);
#147=CURVE_STYLE('',#225,POSITIVE_LENGTH_MEASURE(1.0E-006),#226);
#148=CIRCLE('',#227,6.5);
#149=SURFACE_STYLE_USAGE(.BOTH.,#228);
#150=FACE_OUTER_BOUND('',#229,.T.);
#151=CYLINDRICAL_SURFACE('',#230,29.75);
#152=SURFACE_STYLE_USAGE(.BOTH.,#231);
#153=FACE_BOUND('',#232,.T.);
#154=FACE_OUTER_BOUND('',#233,.T.);
#155=PLANE('',#234);
#156=POINT_STYLE(' ',#235,POSITIVE_LENGTH_MEASURE(1.0E-006),#236);
#157=CARTESIAN_POINT('',(-29.75,3.64320390262157E-015,0.0));
#158=CURVE_STYLE('',#237,POSITIVE_LENGTH_MEASURE(1.0E-006),#238);
#159=CIRCLE('',#239,6.5);
#160=POINT_STYLE(' ',#240,POSITIVE_LENGTH_MEASURE(1.0E-006),#241);
#161=CARTESIAN_POINT('',(29.75,0.0,0.0));
#162=CURVE_STYLE('',#242,POSITIVE_LENGTH_MEASURE(1.0E-006),#243);
#163=CIRCLE('',#244,29.75);
#164=SURFACE_STYLE_USAGE(.BOTH.,#245);
#165=FACE_BOUND('',#246,.T.);
#166=FACE_OUTER_BOUND('',#247,.T.);
#167=PLANE('',#248);
#168=POINT_STYLE(' ',#249,POSITIVE_LENGTH_MEASURE(1.0E-006),#250);
#169=CARTESIAN_POINT('',(29.75,-3.64320390262157E-015,5.0));
#170=POINT_STYLE(' ',#251,POSITIVE_LENGTH_MEASURE(1.0E-006),#252);
#171=CARTESIAN_POINT('',(-6.5,0.0,5.0));
#172=CURVE_STYLE('',#253,POSITIVE_LENGTH_MEASURE(1.0E-006),#254);
#173=LINE('',#255,#256);
#174=SURFACE_STYLE_USAGE(.BOTH.,#257);
#175=FACE_OUTER_BOUND('',#258,.T.);
#176=CYLINDRICAL_SURFACE('',#259,6.5);
#177=POINT_STYLE(' ',#260,POSITIVE_LENGTH_MEASURE(1.0E-006),#261);
#178=CARTESIAN_POINT('',(-6.5,7.95994129984545E-016,0.0));
#179=SURFACE_STYLE_USAGE(.BOTH.,#262);
#180=FACE_OUTER_BOUND('',#263,.T.);
#181=CYLINDRICAL_SURFACE('',#264,6.5);
#182=PRODUCT_CONTEXT('',#37,'mechanical');
#183=PRODUCT_DEFINITION_FORMATION_WITH_SPECIFIED_SOURCE(' ','NONE',#104,.NOT_KNOWN.);
#184=CARTESIAN_POINT('',(0.0,0.0,0.0));
#185=DIRECTION('',(0.0,0.0,1.0));
#186=DIRECTION('',(1.0,0.0,0.0));
#187= (NAMED_UNIT(#112)LENGTH_UNIT()SI_UNIT(.MILLI.,.METRE.));
#188=PRE_DEFINED_MARKER('');
#189=COLOUR_RGB('',0.509803950786591,0.509803950786591,0.588235318660736);
#190=DRAUGHTING_PRE_DEFINED_CURVE_FONT('continuous');
#191=COLOUR_RGB('',0.509803950786591,0.509803950786591,0.588235318660736);
#192=CARTESIAN_POINT('',(29.75,-3.64320390262157E-015,0.0));
#193=VECTOR('',#266,1.0);
#194=DRAUGHTING_PRE_DEFINED_CURVE_FONT('continuous');
#195=COLOUR_RGB('',0.509803950786591,0.509803950786591,0.588235318660736);
#196=AXIS2_PLACEMENT_3D('',#267,#268,#269);
#197=SURFACE_SIDE_STYLE('',(#270));
#198=SURFACE_SIDE_STYLE('',(#271));
#199=EDGE_LOOP('',(#272,#273,#274,#275));
#200=AXIS2_PLACEMENT_3D('',#276,#277,#278);
#201=DRAUGHTING_PRE_DEFINED_CURVE_FONT('continuous');
#202=COLOUR_RGB('',0.509803950786591,0.509803950786591,0.588235318660736);
#203=AXIS2_PLACEMENT_3D('',#279,#280,#281);
#204=DRAUGHTING_PRE_DEFINED_CURVE_FONT('continuous');
#205=COLOUR_RGB('',0.509803950786591,0.509803950786591,0.588235318660736);
#206=AXIS2_PLACEMENT_3D('',#282,#283,#284);
#207=PRE_DEFINED_MARKER('');
#208=COLOUR_RGB('',0.509803950786591,0.509803950786591,0.588235318660736);
#209=DRAUGHTING_PRE_DEFINED_CURVE_FONT('continuous');
#210=COLOUR_RGB('',0.509803950786591,0.509803950786591,0.588235318660736);
#211=CARTESIAN_POINT('',(6.5,-7.95994129984545E-016,0.0));
#212=VECTOR('',#285,1.0);
#213=DRAUGHTING_PRE_DEFINED_CURVE_FONT('continuous');
#214=COLOUR_RGB('',0.509803950786591,0.509803950786591,0.588235318660736);
#215=AXIS2_PLACEMENT_3D('',#286,#287,#288);
#216=DRAUGHTING_PRE_DEFINED_CURVE_FONT('continuous');
#217=COLOUR_RGB('',0.509803950786591,0.509803950786591,0.588235318660736);
#218=AXIS2_PLACEMENT_3D('',#289,#290,#291);
#219=PRE_DEFINED_MARKER('');
#220=COLOUR_RGB('',0.509803950786591,0.509803950786591,0.588235318660736);
#221=DRAUGHTING_PRE_DEFINED_CURVE_FONT('continuous');
#222=COLOUR_RGB('',0.509803950786591,0.509803950786591,0.588235318660736);
#223=CARTESIAN_POINT('',(-29.75,3.64320390262157E-015,0.0));
#224=VECTOR('',#292,1.0);
#225=DRAUGHTING_PRE_DEFINED_CURVE_FONT('continuous');
#226=COLOUR_RGB('',0.509803950786591,0.509803950786591,0.588235318660736);
#227=AXIS2_PLACEMENT_3D('',#293,#294,#295);
#228=SURFACE_SIDE_STYLE('',(#296));
#229=EDGE_LOOP('',(#297,#298,#299,#300));
#230=AXIS2_PLACEMENT_3D('',#301,#302,#303);
#231=SURFACE_SIDE_STYLE('',(#304));
#232=EDGE_LOOP('',(#305,#306));
#233=EDGE_LOOP('',(#307,#308));
#234=AXIS2_PLACEMENT_3D('',#309,#310,#311);
#235=PRE_DEFINED_MARKER('');
#236=COLOUR_RGB('',0.509803950786591,0.509803950786591,0.588235318660736);
#237=DRAUGHTING_PRE_DEFINED_CURVE_FONT('continuous');
#238=COLOUR_RGB('',0.509803950786591,0.509803950786591,0.588235318660736);
#239=AXIS2_PLACEMENT_3D('',#312,#313,#314);
#240=PRE_DEFINED_MARKER('');
#241=COLOUR_RGB('',0.509803950786591,0.509803950786591,0.588235318660736);
#242=DRAUGHTING_PRE_DEFINED_CURVE_FONT('continuous');
#243=COLOUR_RGB('',0.509803950786591,0.509803950786591,0.588235318660736);
#244=AXIS2_PLACEMENT_3D('',#315,#316,#317);
#245=SURFACE_SIDE_STYLE('',(#318));
#246=EDGE_LOOP('',(#319,#320));
#247=EDGE_LOOP('',(#321,#322));
#248=AXIS2_PLACEMENT_3D('',#323,#324,#325);
#249=PRE_DEFINED_MARKER('');
#250=COLOUR_RGB('',0.509803950786591,0.509803950786591,0.588235318660736);
#251=PRE_DEFINED_MARKER('');
#252=COLOUR_RGB('',0.509803950786591,0.509803950786591,0.588235318660736);
#253=DRAUGHTING_PRE_DEFINED_CURVE_FONT('continuous');
#254=COLOUR_RGB('',0.509803950786591,0.509803950786591,0.588235318660736);
#255=CARTESIAN_POINT('',(-6.5,7.95994129984545E-016,0.0));
#256=VECTOR('',#326,1.0);
#257=SURFACE_SIDE_STYLE('',(#327));
#258=EDGE_LOOP('',(#328,#329,#330,#331));
#259=AXIS2_PLACEMENT_3D('',#332,#333,#334);
#260=PRE_DEFINED_MARKER('');
#261=COLOUR_RGB('',0.509803950786591,0.509803950786591,0.588235318660736);
#262=SURFACE_SIDE_STYLE('',(#335));
#263=EDGE_LOOP('',(#336,#337,#338,#339));
#264=AXIS2_PLACEMENT_3D('',#340,#341,#342);
#266=DIRECTION('',(0.0,0.0,1.0));
#267=CARTESIAN_POINT('',(0.0,0.0,0.0));
#268=DIRECTION('',(0.0,0.0,1.0));
#269=DIRECTION('',(1.0,0.0,0.0));
#270=SURFACE_STYLE_FILL_AREA(#343);
#271=SURFACE_STYLE_FILL_AREA(#344);
#272=ORIENTED_EDGE('',*,*,#53,.F.);
#273=ORIENTED_EDGE('',*,*,#69,.T.);
#274=ORIENTED_EDGE('',*,*,#75,.F.);
#275=ORIENTED_EDGE('',*,*,#89,.T.);
#276=CARTESIAN_POINT('',(0.0,0.0,0.0));
#277=DIRECTION('',(-0.0,-0.0,-1.0));
#278=DIRECTION('',(1.0,0.0,0.0));
#279=CARTESIAN_POINT('',(0.0,0.0,5.0));
#280=DIRECTION('',(0.0,0.0,-1.0));
#281=DIRECTION('',(1.0,0.0,0.0));
#282=CARTESIAN_POINT('',(0.0,0.0,5.0));
#283=DIRECTION('',(0.0,0.0,-1.0));
#284=DIRECTION('',(-1.0,0.0,0.0));
#285=DIRECTION('',(-0.0,0.0,-1.0));
#286=CARTESIAN_POINT('',(0.0,0.0,0.0));
#287=DIRECTION('',(0.0,0.0,1.0));
#288=DIRECTION('',(1.0,0.0,0.0));
#289=CARTESIAN_POINT('',(0.0,0.0,5.0));
#290=DIRECTION('',(0.0,0.0,-1.0));
#291=DIRECTION('',(1.0,0.0,0.0));
#292=DIRECTION('',(-0.0,-0.0,-1.0));
#293=CARTESIAN_POINT('',(0.0,0.0,0.0));
#294=DIRECTION('',(0.0,0.0,1.0));
#295=DIRECTION('',(1.0,0.0,0.0));
#296=SURFACE_STYLE_FILL_AREA(#345);
#297=ORIENTED_EDGE('',*,*,#53,.T.);
#298=ORIENTED_EDGE('',*,*,#63,.T.);
#299=ORIENTED_EDGE('',*,*,#75,.T.);
#300=ORIENTED_EDGE('',*,*,#55,.T.);
#301=CARTESIAN_POINT('',(0.0,0.0,0.0));
#302=DIRECTION('',(-0.0,-0.0,-1.0));
#303=DIRECTION('',(1.0,0.0,0.0));
#304=SURFACE_STYLE_FILL_AREA(#346);
#305=ORIENTED_EDGE('',*,*,#61,.T.);
#306=ORIENTED_EDGE('',*,*,#71,.T.);
#307=ORIENTED_EDGE('',*,*,#89,.F.);
#308=ORIENTED_EDGE('',*,*,#63,.F.);
#309=CARTESIAN_POINT('',(0.0,0.0,5.0));
#310=DIRECTION('',(0.0,0.0,1.0));
#311=DIRECTION('',(1.0,0.0,0.0));
#312=CARTESIAN_POINT('',(0.0,0.0,0.0));
#313=DIRECTION('',(0.0,0.0,1.0));
#314=DIRECTION('',(1.0,0.0,0.0));
#315=CARTESIAN_POINT('',(0.0,0.0,5.0));
#316=DIRECTION('',(0.0,0.0,-1.0));
#317=DIRECTION('',(-1.0,0.0,0.0));
#318=SURFACE_STYLE_FILL_AREA(#347);
#319=ORIENTED_EDGE('',*,*,#85,.T.);
#320=ORIENTED_EDGE('',*,*,#77,.T.);
#321=ORIENTED_EDGE('',*,*,#69,.F.);
#322=ORIENTED_EDGE('',*,*,#55,.F.);
#323=CARTESIAN_POINT('',(0.0,0.0,0.0));
#324=DIRECTION('',(0.0,0.0,1.0));
#325=DIRECTION('',(1.0,0.0,0.0));
#326=DIRECTION('',(-0.0,0.0,1.0));
#327=SURFACE_STYLE_FILL_AREA(#348);
#328=ORIENTED_EDGE('',*,*,#67,.T.);
#329=ORIENTED_EDGE('',*,*,#77,.F.);
#330=ORIENTED_EDGE('',*,*,#97,.T.);
#331=ORIENTED_EDGE('',*,*,#71,.F.);
#332=CARTESIAN_POINT('',(0.0,0.0,0.0));
#333=DIRECTION('',(-0.0,-0.0,-1.0));
#334=DIRECTION('',(1.0,0.0,0.0));
#335=SURFACE_STYLE_FILL_AREA(#349);
#336=ORIENTED_EDGE('',*,*,#67,.F.);
#337=ORIENTED_EDGE('',*,*,#61,.F.);
#338=ORIENTED_EDGE('',*,*,#97,.F.);
#339=ORIENTED_EDGE('',*,*,#85,.F.);
#340=CARTESIAN_POINT('',(0.0,0.0,0.0));
#341=DIRECTION('',(-0.0,-0.0,-1.0));
#342=DIRECTION('',(1.0,0.0,0.0));
#343=FILL_AREA_STYLE('',(#350));
#344=FILL_AREA_STYLE('',(#351));
#345=FILL_AREA_STYLE('',(#352));
#346=FILL_AREA_STYLE('',(#353));
#347=FILL_AREA_STYLE('',(#354));
#348=FILL_AREA_STYLE('',(#355));
#349=FILL_AREA_STYLE('',(#356));
#350=FILL_AREA_STYLE_COLOUR('',#357);
#351=FILL_AREA_STYLE_COLOUR('',#358);
#352=FILL_AREA_STYLE_COLOUR('',#359);
#353=FILL_AREA_STYLE_COLOUR('',#360);
#354=FILL_AREA_STYLE_COLOUR('',#361);
#355=FILL_AREA_STYLE_COLOUR('',#362);
#356=FILL_AREA_STYLE_COLOUR('',#363);
#357=COLOUR_RGB('',0.509803950786591,0.509803950786591,0.588235318660736);
#358=COLOUR_RGB('',0.509803950786591,0.509803950786591,0.588235318660736);
#359=COLOUR_RGB('',0.509803950786591,0.509803950786591,0.588235318660736);
#360=COLOUR_RGB('',0.509803950786591,0.509803950786591,0.588235318660736);
#361=COLOUR_RGB('',0.509803950786591,0.509803950786591,0.588235318660736);
#362=COLOUR_RGB('',0.509803950786591,0.509803950786591,0.588235318660736);
#363=COLOUR_RGB('',0.509803950786591,0.509803950786591,0.588235318660736);
ENDSEC;
END-ISO-10303-21;
