ISO-10303-21;
HEADER;
FILE_DESCRIPTION(('STEP AP214'),'1');
FILE_NAME(' ','  ',('TraceParts'),('TraceParts S.A.'),'XStep 1.0',' ',' ');
FILE_SCHEMA(('automotive_design'));
ENDSEC;
DATA;
#1=MECHANICAL_DESIGN_GEOMETRIC_PRESENTATION_REPRESENTATION(' ',(#10,#11,#12,#13,#14,#15,#16,#17,#18,#19,#20,#21,#22,#23,#24,#25,#26,#27,#28,#29,#30,#31,#32,#33,#34,#35,#36),#6);
#2=PRODUCT_DEFINITION_CONTEXT('',#37,'design');
#3=APPLICATION_PROTOCOL_DEFINITION('INTERNATIONAL STANDARD','automotive_design',1994,#37);
#4=PRODUCT_CATEGORY_RELATIONSHIP('NONE','NONE',#38,#39);
#5=SHAPE_DEFINITION_REPRESENTATION(#40,#41);
#6= (GEOMETRIC_REPRESENTATION_CONTEXT(3)GLOBAL_UNCERTAINTY_ASSIGNED_CONTEXT((#44))GLOBAL_UNIT_ASSIGNED_CONTEXT((#46,#47,#48))REPRESENTATION_CONTEXT('NONE','WORKSPACE'));
#10=STYLED_ITEM('',(#50),#51);
#11=STYLED_ITEM('',(#52),#53);
#12=STYLED_ITEM('',(#54),#55);
#13=STYLED_ITEM('',(#56),#57);
#14=STYLED_ITEM('',(#58),#59);
#15=STYLED_ITEM('',(#60),#61);
#16=STYLED_ITEM('',(#62),#63);
#17=STYLED_ITEM('',(#64),#65);
#18=STYLED_ITEM('',(#66),#67);
#19=STYLED_ITEM('',(#68),#69);
#20=STYLED_ITEM('',(#70),#71);
#21=STYLED_ITEM('',(#72),#73);
#22=STYLED_ITEM('',(#74),#75);
#23=STYLED_ITEM('',(#76),#77);
#24=STYLED_ITEM('',(#78),#79);
#25=STYLED_ITEM('',(#80),#81);
#26=STYLED_ITEM('',(#82),#83);
#27=STYLED_ITEM('',(#84),#85);
#28=STYLED_ITEM('',(#86),#87);
#29=STYLED_ITEM('',(#88),#89);
#30=STYLED_ITEM('',(#90),#91);
#31=STYLED_ITEM('',(#92),#93);
#32=STYLED_ITEM('',(#94),#95);
#33=STYLED_ITEM('',(#96),#97);
#34=STYLED_ITEM('',(#98),#99);
#35=STYLED_ITEM('',(#100),#101);
#36=STYLED_ITEM('',(#102),#103);
#37=APPLICATION_CONTEXT(' ');
#38=PRODUCT_CATEGORY('part','NONE');
#39=PRODUCT_RELATED_PRODUCT_CATEGORY('detail',' ',(#104));
#40=PRODUCT_DEFINITION_SHAPE('NONE','NONE',#105);
#41=ADVANCED_BREP_SHAPE_REPRESENTATION('1',(#55,#106),#6);
#44=UNCERTAINTY_MEASURE_WITH_UNIT(LENGTH_MEASURE(1.0E-006),#46,'','');
#46= (CONVERSION_BASED_UNIT('MILLIMETRE',#109)LENGTH_UNIT()NAMED_UNIT(#112));
#47= (NAMED_UNIT(#114)PLANE_ANGLE_UNIT()SI_UNIT($,.RADIAN.));
#48= (NAMED_UNIT(#114)SOLID_ANGLE_UNIT()SI_UNIT($,.STERADIAN.));
#50=PRESENTATION_STYLE_ASSIGNMENT((#120));
#51=VERTEX_POINT('',#121);
#52=PRESENTATION_STYLE_ASSIGNMENT((#122));
#53=EDGE_CURVE('',#61,#77,#123,.T.);
#54=PRESENTATION_STYLE_ASSIGNMENT((#124));
#55=MANIFOLD_SOLID_BREP('1',#125);
#56=PRESENTATION_STYLE_ASSIGNMENT((#126));
#57=EDGE_CURVE('',#91,#103,#127,.T.);
#58=PRESENTATION_STYLE_ASSIGNMENT((#128));
#59=EDGE_CURVE('',#77,#91,#129,.T.);
#60=PRESENTATION_STYLE_ASSIGNMENT((#130));
#61=VERTEX_POINT('',#131);
#62=PRESENTATION_STYLE_ASSIGNMENT((#132));
#63=ADVANCED_FACE('',(#133),#134,.T.);
#64=PRESENTATION_STYLE_ASSIGNMENT((#135));
#65=EDGE_CURVE('',#77,#61,#136,.T.);
#66=PRESENTATION_STYLE_ASSIGNMENT((#137));
#67=ADVANCED_FACE('',(#138),#139,.F.);
#68=PRESENTATION_STYLE_ASSIGNMENT((#140));
#69=ADVANCED_FACE('',(#141,#142),#143,.T.);
#70=PRESENTATION_STYLE_ASSIGNMENT((#144));
#71=EDGE_CURVE('',#79,#85,#145,.T.);
#72=PRESENTATION_STYLE_ASSIGNMENT((#146));
#73=EDGE_CURVE('',#79,#51,#147,.T.);
#74=PRESENTATION_STYLE_ASSIGNMENT((#148));
#75=EDGE_CURVE('',#103,#91,#149,.T.);
#76=PRESENTATION_STYLE_ASSIGNMENT((#150));
#77=VERTEX_POINT('',#151);
#78=PRESENTATION_STYLE_ASSIGNMENT((#152));
#79=VERTEX_POINT('',#153);
#80=PRESENTATION_STYLE_ASSIGNMENT((#154));
#81=EDGE_CURVE('',#99,#85,#155,.T.);
#82=PRESENTATION_STYLE_ASSIGNMENT((#156));
#83=ADVANCED_FACE('',(#157),#158,.F.);
#84=PRESENTATION_STYLE_ASSIGNMENT((#159));
#85=VERTEX_POINT('',#160);
#86=PRESENTATION_STYLE_ASSIGNMENT((#161));
#87=ADVANCED_FACE('',(#162,#163),#164,.F.);
#88=PRESENTATION_STYLE_ASSIGNMENT((#165));
#89=EDGE_CURVE('',#85,#99,#166,.T.);
#90=PRESENTATION_STYLE_ASSIGNMENT((#167));
#91=VERTEX_POINT('',#168);
#92=PRESENTATION_STYLE_ASSIGNMENT((#169));
#93=EDGE_CURVE('',#51,#79,#170,.T.);
#94=PRESENTATION_STYLE_ASSIGNMENT((#171));
#95=EDGE_CURVE('',#99,#51,#172,.T.);
#96=PRESENTATION_STYLE_ASSIGNMENT((#173));
#97=EDGE_CURVE('',#103,#61,#174,.T.);
#98=PRESENTATION_STYLE_ASSIGNMENT((#175));
#99=VERTEX_POINT('',#176);
#100=PRESENTATION_STYLE_ASSIGNMENT((#177));
#101=ADVANCED_FACE('',(#178),#179,.T.);
#102=PRESENTATION_STYLE_ASSIGNMENT((#180));
#103=VERTEX_POINT('',#181);
#104=PRODUCT('1','1','PART-1-DESC',(#182));
#105=PRODUCT_DEFINITION('NONE','NONE',#183,#2);
#106=AXIS2_PLACEMENT_3D('',#184,#185,#186);
#109=LENGTH_MEASURE_WITH_UNIT(LENGTH_MEASURE(1.0),#187);
#112=DIMENSIONAL_EXPONENTS(1.0,0.0,0.0,0.0,0.0,0.0,0.0);
#114=DIMENSIONAL_EXPONENTS(0.0,0.0,0.0,0.0,0.0,0.0,0.0);
#120=POINT_STYLE(' ',#188,POSITIVE_LENGTH_MEASURE(1.0E-006),#189);
#121=CARTESIAN_POINT('',(-6.5,0.0,10.0));
#122=CURVE_STYLE('',#190,POSITIVE_LENGTH_MEASURE(1.0E-006),#191);
#123=CIRCLE('',#192,19.75);
#124=SURFACE_STYLE_USAGE(.BOTH.,#193);
#125=CLOSED_SHELL('',(#63,#83,#67,#101,#87,#69));
#126=CURVE_STYLE('',#194,POSITIVE_LENGTH_MEASURE(1.0E-006),#195);
#127=CIRCLE('',#196,19.75);
#128=CURVE_STYLE('',#197,POSITIVE_LENGTH_MEASURE(1.0E-006),#198);
#129=LINE('',#199,#200);
#130=POINT_STYLE(' ',#201,POSITIVE_LENGTH_MEASURE(1.0E-006),#202);
#131=CARTESIAN_POINT('',(-19.75,2.4185975487992E-015,0.0));
#132=SURFACE_STYLE_USAGE(.BOTH.,#203);
#133=FACE_OUTER_BOUND('',#204,.T.);
#134=CYLINDRICAL_SURFACE('',#205,19.75);
#135=CURVE_STYLE('',#206,POSITIVE_LENGTH_MEASURE(1.0E-006),#207);
#136=CIRCLE('',#208,19.75);
#137=SURFACE_STYLE_USAGE(.BOTH.,#209);
#138=FACE_OUTER_BOUND('',#210,.T.);
#139=CYLINDRICAL_SURFACE('',#211,6.5);
#140=SURFACE_STYLE_USAGE(.BOTH.,#212);
#141=FACE_BOUND('',#213,.T.);
#142=FACE_OUTER_BOUND('',#214,.T.);
#143=PLANE('',#215);
#144=CURVE_STYLE('',#216,POSITIVE_LENGTH_MEASURE(1.0E-006),#217);
#145=LINE('',#218,#219);
#146=CURVE_STYLE('',#220,POSITIVE_LENGTH_MEASURE(1.0E-006),#221);
#147=CIRCLE('',#222,6.5);
#148=CURVE_STYLE('',#223,POSITIVE_LENGTH_MEASURE(1.0E-006),#224);
#149=CIRCLE('',#225,19.75);
#150=POINT_STYLE(' ',#226,POSITIVE_LENGTH_MEASURE(1.0E-006),#227);
#151=CARTESIAN_POINT('',(19.75,0.0,0.0));
#152=POINT_STYLE(' ',#228,POSITIVE_LENGTH_MEASURE(1.0E-006),#229);
#153=CARTESIAN_POINT('',(6.5,-7.95994129984545E-016,10.0));
#154=CURVE_STYLE('',#230,POSITIVE_LENGTH_MEASURE(1.0E-006),#231);
#155=CIRCLE('',#232,6.5);
#156=SURFACE_STYLE_USAGE(.BOTH.,#233);
#157=FACE_OUTER_BOUND('',#234,.T.);
#158=CYLINDRICAL_SURFACE('',#235,6.5);
#159=POINT_STYLE(' ',#236,POSITIVE_LENGTH_MEASURE(1.0E-006),#237);
#160=CARTESIAN_POINT('',(6.5,0.0,0.0));
#161=SURFACE_STYLE_USAGE(.BOTH.,#238);
#162=FACE_BOUND('',#239,.T.);
#163=FACE_OUTER_BOUND('',#240,.T.);
#164=PLANE('',#241);
#165=CURVE_STYLE('',#242,POSITIVE_LENGTH_MEASURE(1.0E-006),#243);
#166=CIRCLE('',#244,6.5);
#167=POINT_STYLE(' ',#245,POSITIVE_LENGTH_MEASURE(1.0E-006),#246);
#168=CARTESIAN_POINT('',(19.75,-2.4185975487992E-015,10.0));
#169=CURVE_STYLE('',#247,POSITIVE_LENGTH_MEASURE(1.0E-006),#248);
#170=CIRCLE('',#249,6.5);
#171=CURVE_STYLE('',#250,POSITIVE_LENGTH_MEASURE(1.0E-006),#251);
#172=LINE('',#252,#253);
#173=CURVE_STYLE('',#254,POSITIVE_LENGTH_MEASURE(1.0E-006),#255);
#174=LINE('',#256,#257);
#175=POINT_STYLE(' ',#258,POSITIVE_LENGTH_MEASURE(1.0E-006),#259);
#176=CARTESIAN_POINT('',(-6.5,7.95994129984545E-016,0.0));
#177=SURFACE_STYLE_USAGE(.BOTH.,#260);
#178=FACE_OUTER_BOUND('',#261,.T.);
#179=CYLINDRICAL_SURFACE('',#262,19.75);
#180=POINT_STYLE(' ',#263,POSITIVE_LENGTH_MEASURE(1.0E-006),#264);
#181=CARTESIAN_POINT('',(-19.75,0.0,10.0));
#182=PRODUCT_CONTEXT('',#37,'mechanical');
#183=PRODUCT_DEFINITION_FORMATION_WITH_SPECIFIED_SOURCE(' ','NONE',#104,.NOT_KNOWN.);
#184=CARTESIAN_POINT('',(0.0,0.0,0.0));
#185=DIRECTION('',(0.0,0.0,1.0));
#186=DIRECTION('',(1.0,0.0,0.0));
#187= (NAMED_UNIT(#112)LENGTH_UNIT()SI_UNIT(.MILLI.,.METRE.));
#188=PRE_DEFINED_MARKER('');
#189=COLOUR_RGB('',0.509803950786591,0.509803950786591,0.588235318660736);
#190=DRAUGHTING_PRE_DEFINED_CURVE_FONT('continuous');
#191=COLOUR_RGB('',0.509803950786591,0.509803950786591,0.588235318660736);
#192=AXIS2_PLACEMENT_3D('',#266,#267,#268);
#193=SURFACE_SIDE_STYLE('',(#269));
#194=DRAUGHTING_PRE_DEFINED_CURVE_FONT('continuous');
#195=COLOUR_RGB('',0.509803950786591,0.509803950786591,0.588235318660736);
#196=AXIS2_PLACEMENT_3D('',#270,#271,#272);
#197=DRAUGHTING_PRE_DEFINED_CURVE_FONT('continuous');
#198=COLOUR_RGB('',0.509803950786591,0.509803950786591,0.588235318660736);
#199=CARTESIAN_POINT('',(19.75,-2.4185975487992E-015,0.0));
#200=VECTOR('',#273,1.0);
#201=PRE_DEFINED_MARKER('');
#202=COLOUR_RGB('',0.509803950786591,0.509803950786591,0.588235318660736);
#203=SURFACE_SIDE_STYLE('',(#274));
#204=EDGE_LOOP('',(#275,#276,#277,#278));
#205=AXIS2_PLACEMENT_3D('',#279,#280,#281);
#206=DRAUGHTING_PRE_DEFINED_CURVE_FONT('continuous');
#207=COLOUR_RGB('',0.509803950786591,0.509803950786591,0.588235318660736);
#208=AXIS2_PLACEMENT_3D('',#282,#283,#284);
#209=SURFACE_SIDE_STYLE('',(#285));
#210=EDGE_LOOP('',(#286,#287,#288,#289));
#211=AXIS2_PLACEMENT_3D('',#290,#291,#292);
#212=SURFACE_SIDE_STYLE('',(#293));
#213=EDGE_LOOP('',(#294,#295));
#214=EDGE_LOOP('',(#296,#297));
#215=AXIS2_PLACEMENT_3D('',#298,#299,#300);
#216=DRAUGHTING_PRE_DEFINED_CURVE_FONT('continuous');
#217=COLOUR_RGB('',0.509803950786591,0.509803950786591,0.588235318660736);
#218=CARTESIAN_POINT('',(6.5,-7.95994129984545E-016,0.0));
#219=VECTOR('',#301,1.0);
#220=DRAUGHTING_PRE_DEFINED_CURVE_FONT('continuous');
#221=COLOUR_RGB('',0.509803950786591,0.509803950786591,0.588235318660736);
#222=AXIS2_PLACEMENT_3D('',#302,#303,#304);
#223=DRAUGHTING_PRE_DEFINED_CURVE_FONT('continuous');
#224=COLOUR_RGB('',0.509803950786591,0.509803950786591,0.588235318660736);
#225=AXIS2_PLACEMENT_3D('',#305,#306,#307);
#226=PRE_DEFINED_MARKER('');
#227=COLOUR_RGB('',0.509803950786591,0.509803950786591,0.588235318660736);
#228=PRE_DEFINED_MARKER('');
#229=COLOUR_RGB('',0.509803950786591,0.509803950786591,0.588235318660736);
#230=DRAUGHTING_PRE_DEFINED_CURVE_FONT('continuous');
#231=COLOUR_RGB('',0.509803950786591,0.509803950786591,0.588235318660736);
#232=AXIS2_PLACEMENT_3D('',#308,#309,#310);
#233=SURFACE_SIDE_STYLE('',(#311));
#234=EDGE_LOOP('',(#312,#313,#314,#315));
#235=AXIS2_PLACEMENT_3D('',#316,#317,#318);
#236=PRE_DEFINED_MARKER('');
#237=COLOUR_RGB('',0.509803950786591,0.509803950786591,0.588235318660736);
#238=SURFACE_SIDE_STYLE('',(#319));
#239=EDGE_LOOP('',(#320,#321));
#240=EDGE_LOOP('',(#322,#323));
#241=AXIS2_PLACEMENT_3D('',#324,#325,#326);
#242=DRAUGHTING_PRE_DEFINED_CURVE_FONT('continuous');
#243=COLOUR_RGB('',0.509803950786591,0.509803950786591,0.588235318660736);
#244=AXIS2_PLACEMENT_3D('',#327,#328,#329);
#245=PRE_DEFINED_MARKER('');
#246=COLOUR_RGB('',0.509803950786591,0.509803950786591,0.588235318660736);
#247=DRAUGHTING_PRE_DEFINED_CURVE_FONT('continuous');
#248=COLOUR_RGB('',0.509803950786591,0.509803950786591,0.588235318660736);
#249=AXIS2_PLACEMENT_3D('',#330,#331,#332);
#250=DRAUGHTING_PRE_DEFINED_CURVE_FONT('continuous');
#251=COLOUR_RGB('',0.509803950786591,0.509803950786591,0.588235318660736);
#252=CARTESIAN_POINT('',(-6.5,7.95994129984545E-016,0.0));
#253=VECTOR('',#333,1.0);
#254=DRAUGHTING_PRE_DEFINED_CURVE_FONT('continuous');
#255=COLOUR_RGB('',0.509803950786591,0.509803950786591,0.588235318660736);
#256=CARTESIAN_POINT('',(-19.75,2.4185975487992E-015,0.0));
#257=VECTOR('',#334,1.0);
#258=PRE_DEFINED_MARKER('');
#259=COLOUR_RGB('',0.509803950786591,0.509803950786591,0.588235318660736);
#260=SURFACE_SIDE_STYLE('',(#335));
#261=EDGE_LOOP('',(#336,#337,#338,#339));
#262=AXIS2_PLACEMENT_3D('',#340,#341,#342);
#263=PRE_DEFINED_MARKER('');
#264=COLOUR_RGB('',0.509803950786591,0.509803950786591,0.588235318660736);
#266=CARTESIAN_POINT('',(0.0,0.0,0.0));
#267=DIRECTION('',(0.0,0.0,1.0));
#268=DIRECTION('',(1.0,0.0,0.0));
#269=SURFACE_STYLE_FILL_AREA(#343);
#270=CARTESIAN_POINT('',(0.0,0.0,10.0));
#271=DIRECTION('',(0.0,0.0,-1.0));
#272=DIRECTION('',(-1.0,0.0,0.0));
#273=DIRECTION('',(0.0,0.0,1.0));
#274=SURFACE_STYLE_FILL_AREA(#344);
#275=ORIENTED_EDGE('',*,*,#59,.F.);
#276=ORIENTED_EDGE('',*,*,#65,.T.);
#277=ORIENTED_EDGE('',*,*,#97,.F.);
#278=ORIENTED_EDGE('',*,*,#75,.T.);
#279=CARTESIAN_POINT('',(0.0,0.0,0.0));
#280=DIRECTION('',(-0.0,-0.0,-1.0));
#281=DIRECTION('',(1.0,0.0,0.0));
#282=CARTESIAN_POINT('',(0.0,0.0,0.0));
#283=DIRECTION('',(0.0,0.0,1.0));
#284=DIRECTION('',(1.0,0.0,0.0));
#285=SURFACE_STYLE_FILL_AREA(#345);
#286=ORIENTED_EDGE('',*,*,#71,.T.);
#287=ORIENTED_EDGE('',*,*,#81,.F.);
#288=ORIENTED_EDGE('',*,*,#95,.T.);
#289=ORIENTED_EDGE('',*,*,#73,.F.);
#290=CARTESIAN_POINT('',(0.0,0.0,0.0));
#291=DIRECTION('',(-0.0,-0.0,-1.0));
#292=DIRECTION('',(1.0,0.0,0.0));
#293=SURFACE_STYLE_FILL_AREA(#346);
#294=ORIENTED_EDGE('',*,*,#93,.T.);
#295=ORIENTED_EDGE('',*,*,#73,.T.);
#296=ORIENTED_EDGE('',*,*,#75,.F.);
#297=ORIENTED_EDGE('',*,*,#57,.F.);
#298=CARTESIAN_POINT('',(0.0,0.0,10.0));
#299=DIRECTION('',(0.0,0.0,1.0));
#300=DIRECTION('',(1.0,0.0,0.0));
#301=DIRECTION('',(-0.0,0.0,-1.0));
#302=CARTESIAN_POINT('',(0.0,0.0,10.0));
#303=DIRECTION('',(0.0,0.0,-1.0));
#304=DIRECTION('',(1.0,0.0,0.0));
#305=CARTESIAN_POINT('',(0.0,0.0,10.0));
#306=DIRECTION('',(0.0,0.0,-1.0));
#307=DIRECTION('',(-1.0,0.0,0.0));
#308=CARTESIAN_POINT('',(0.0,0.0,0.0));
#309=DIRECTION('',(0.0,0.0,1.0));
#310=DIRECTION('',(1.0,0.0,0.0));
#311=SURFACE_STYLE_FILL_AREA(#347);
#312=ORIENTED_EDGE('',*,*,#71,.F.);
#313=ORIENTED_EDGE('',*,*,#93,.F.);
#314=ORIENTED_EDGE('',*,*,#95,.F.);
#315=ORIENTED_EDGE('',*,*,#89,.F.);
#316=CARTESIAN_POINT('',(0.0,0.0,0.0));
#317=DIRECTION('',(-0.0,-0.0,-1.0));
#318=DIRECTION('',(1.0,0.0,0.0));
#319=SURFACE_STYLE_FILL_AREA(#348);
#320=ORIENTED_EDGE('',*,*,#89,.T.);
#321=ORIENTED_EDGE('',*,*,#81,.T.);
#322=ORIENTED_EDGE('',*,*,#65,.F.);
#323=ORIENTED_EDGE('',*,*,#53,.F.);
#324=CARTESIAN_POINT('',(0.0,0.0,0.0));
#325=DIRECTION('',(0.0,0.0,1.0));
#326=DIRECTION('',(1.0,0.0,0.0));
#327=CARTESIAN_POINT('',(0.0,0.0,0.0));
#328=DIRECTION('',(0.0,0.0,1.0));
#329=DIRECTION('',(1.0,0.0,0.0));
#330=CARTESIAN_POINT('',(0.0,0.0,10.0));
#331=DIRECTION('',(0.0,0.0,-1.0));
#332=DIRECTION('',(1.0,0.0,0.0));
#333=DIRECTION('',(-0.0,0.0,1.0));
#334=DIRECTION('',(-0.0,-0.0,-1.0));
#335=SURFACE_STYLE_FILL_AREA(#349);
#336=ORIENTED_EDGE('',*,*,#59,.T.);
#337=ORIENTED_EDGE('',*,*,#57,.T.);
#338=ORIENTED_EDGE('',*,*,#97,.T.);
#339=ORIENTED_EDGE('',*,*,#53,.T.);
#340=CARTESIAN_POINT('',(0.0,0.0,0.0));
#341=DIRECTION('',(-0.0,-0.0,-1.0));
#342=DIRECTION('',(1.0,0.0,0.0));
#343=FILL_AREA_STYLE('',(#350));
#344=FILL_AREA_STYLE('',(#351));
#345=FILL_AREA_STYLE('',(#352));
#346=FILL_AREA_STYLE('',(#353));
#347=FILL_AREA_STYLE('',(#354));
#348=FILL_AREA_STYLE('',(#355));
#349=FILL_AREA_STYLE('',(#356));
#350=FILL_AREA_STYLE_COLOUR('',#357);
#351=FILL_AREA_STYLE_COLOUR('',#358);
#352=FILL_AREA_STYLE_COLOUR('',#359);
#353=FILL_AREA_STYLE_COLOUR('',#360);
#354=FILL_AREA_STYLE_COLOUR('',#361);
#355=FILL_AREA_STYLE_COLOUR('',#362);
#356=FILL_AREA_STYLE_COLOUR('',#363);
#357=COLOUR_RGB('',0.509803950786591,0.509803950786591,0.588235318660736);
#358=COLOUR_RGB('',0.509803950786591,0.509803950786591,0.588235318660736);
#359=COLOUR_RGB('',0.509803950786591,0.509803950786591,0.588235318660736);
#360=COLOUR_RGB('',0.509803950786591,0.509803950786591,0.588235318660736);
#361=COLOUR_RGB('',0.509803950786591,0.509803950786591,0.588235318660736);
#362=COLOUR_RGB('',0.509803950786591,0.509803950786591,0.588235318660736);
#363=COLOUR_RGB('',0.509803950786591,0.509803950786591,0.588235318660736);
ENDSEC;
END-ISO-10303-21;
