ISO-10303-21;
HEADER;
FILE_DESCRIPTION(('STEP AP214'),'1');
FILE_NAME(' ','  ',('TraceParts'),('TraceParts S.A.'),'XStep 1.0',' ',' ');
FILE_SCHEMA(('automotive_design'));
ENDSEC;
DATA;
#1=MECHANICAL_DESIGN_GEOMETRIC_PRESENTATION_REPRESENTATION(' ',(#10,#11,#12,#13,#14,#15,#16,#17,#18,#19,#20,#21,#22,#23,#24,#25,#26,#27,#28,#29,#30,#31,#32,#33,#34,#35,#36,#37,#38,#39,#40,#41,#42,#43,#44,#45,#46,#47,#48,#49,#50,#51,#52,#53,#54,#55,#56,#57),#6);
#2=PRODUCT_DEFINITION_CONTEXT('',#58,'design');
#3=APPLICATION_PROTOCOL_DEFINITION('INTERNATIONAL STANDARD','automotive_design',1994,#58);
#4=PRODUCT_CATEGORY_RELATIONSHIP('NONE','NONE',#59,#60);
#5=SHAPE_DEFINITION_REPRESENTATION(#61,#62);
#6= (GEOMETRIC_REPRESENTATION_CONTEXT(3)GLOBAL_UNCERTAINTY_ASSIGNED_CONTEXT((#65))GLOBAL_UNIT_ASSIGNED_CONTEXT((#67,#68,#69))REPRESENTATION_CONTEXT('NONE','WORKSPACE'));
#10=STYLED_ITEM('',(#71),#72);
#11=STYLED_ITEM('',(#73),#74);
#12=STYLED_ITEM('',(#75),#76);
#13=STYLED_ITEM('',(#77),#78);
#14=STYLED_ITEM('',(#79),#80);
#15=STYLED_ITEM('',(#81),#82);
#16=STYLED_ITEM('',(#83),#84);
#17=STYLED_ITEM('',(#85),#86);
#18=STYLED_ITEM('',(#87),#88);
#19=STYLED_ITEM('',(#89),#90);
#20=STYLED_ITEM('',(#91),#92);
#21=STYLED_ITEM('',(#93),#94);
#22=STYLED_ITEM('',(#95),#96);
#23=STYLED_ITEM('',(#97),#98);
#24=STYLED_ITEM('',(#99),#100);
#25=STYLED_ITEM('',(#101),#102);
#26=STYLED_ITEM('',(#103),#104);
#27=STYLED_ITEM('',(#105),#106);
#28=STYLED_ITEM('',(#107),#108);
#29=STYLED_ITEM('',(#109),#110);
#30=STYLED_ITEM('',(#111),#112);
#31=STYLED_ITEM('',(#113),#114);
#32=STYLED_ITEM('',(#115),#116);
#33=STYLED_ITEM('',(#117),#118);
#34=STYLED_ITEM('',(#119),#120);
#35=STYLED_ITEM('',(#121),#122);
#36=STYLED_ITEM('',(#123),#124);
#37=STYLED_ITEM('',(#125),#126);
#38=STYLED_ITEM('',(#127),#128);
#39=STYLED_ITEM('',(#129),#130);
#40=STYLED_ITEM('',(#131),#132);
#41=STYLED_ITEM('',(#133),#134);
#42=STYLED_ITEM('',(#135),#136);
#43=STYLED_ITEM('',(#137),#138);
#44=STYLED_ITEM('',(#139),#140);
#45=STYLED_ITEM('',(#141),#142);
#46=STYLED_ITEM('',(#143),#144);
#47=STYLED_ITEM('',(#145),#146);
#48=STYLED_ITEM('',(#147),#148);
#49=STYLED_ITEM('',(#149),#150);
#50=STYLED_ITEM('',(#151),#152);
#51=STYLED_ITEM('',(#153),#154);
#52=STYLED_ITEM('',(#155),#156);
#53=STYLED_ITEM('',(#157),#158);
#54=STYLED_ITEM('',(#159),#160);
#55=STYLED_ITEM('',(#161),#162);
#56=STYLED_ITEM('',(#163),#164);
#57=STYLED_ITEM('',(#165),#166);
#58=APPLICATION_CONTEXT(' ');
#59=PRODUCT_CATEGORY('part','NONE');
#60=PRODUCT_RELATED_PRODUCT_CATEGORY('detail',' ',(#167));
#61=PRODUCT_DEFINITION_SHAPE('NONE','NONE',#168);
#62=ADVANCED_BREP_SHAPE_REPRESENTATION('1',(#84,#169),#6);
#65=UNCERTAINTY_MEASURE_WITH_UNIT(LENGTH_MEASURE(1.0E-006),#67,'','');
#67= (CONVERSION_BASED_UNIT('MILLIMETRE',#172)LENGTH_UNIT()NAMED_UNIT(#175));
#68= (NAMED_UNIT(#177)PLANE_ANGLE_UNIT()SI_UNIT($,.RADIAN.));
#69= (NAMED_UNIT(#177)SOLID_ANGLE_UNIT()SI_UNIT($,.STERADIAN.));
#71=PRESENTATION_STYLE_ASSIGNMENT((#183));
#72=ADVANCED_FACE('',(#184),#185,.F.);
#73=PRESENTATION_STYLE_ASSIGNMENT((#186));
#74=VERTEX_POINT('',#187);
#75=PRESENTATION_STYLE_ASSIGNMENT((#188));
#76=VERTEX_POINT('',#189);
#77=PRESENTATION_STYLE_ASSIGNMENT((#190));
#78=EDGE_CURVE('',#108,#140,#191,.T.);
#79=PRESENTATION_STYLE_ASSIGNMENT((#192));
#80=EDGE_CURVE('',#76,#110,#193,.T.);
#81=PRESENTATION_STYLE_ASSIGNMENT((#194));
#82=EDGE_CURVE('',#142,#154,#195,.T.);
#83=PRESENTATION_STYLE_ASSIGNMENT((#196));
#84=MANIFOLD_SOLID_BREP('1',#197);
#85=PRESENTATION_STYLE_ASSIGNMENT((#198));
#86=VERTEX_POINT('',#199);
#87=PRESENTATION_STYLE_ASSIGNMENT((#200));
#88=EDGE_CURVE('',#140,#106,#201,.T.);
#89=PRESENTATION_STYLE_ASSIGNMENT((#202));
#90=EDGE_CURVE('',#146,#110,#203,.T.);
#91=PRESENTATION_STYLE_ASSIGNMENT((#204));
#92=ADVANCED_FACE('',(#205),#206,.T.);
#93=PRESENTATION_STYLE_ASSIGNMENT((#207));
#94=EDGE_CURVE('',#86,#122,#208,.T.);
#95=PRESENTATION_STYLE_ASSIGNMENT((#209));
#96=EDGE_CURVE('',#164,#108,#210,.T.);
#97=PRESENTATION_STYLE_ASSIGNMENT((#211));
#98=EDGE_CURVE('',#106,#164,#212,.T.);
#99=PRESENTATION_STYLE_ASSIGNMENT((#213));
#100=EDGE_CURVE('',#134,#118,#214,.T.);
#101=PRESENTATION_STYLE_ASSIGNMENT((#215));
#102=EDGE_CURVE('',#122,#74,#216,.T.);
#103=PRESENTATION_STYLE_ASSIGNMENT((#217));
#104=ADVANCED_FACE('',(#218),#219,.T.);
#105=PRESENTATION_STYLE_ASSIGNMENT((#220));
#106=VERTEX_POINT('',#221);
#107=PRESENTATION_STYLE_ASSIGNMENT((#222));
#108=VERTEX_POINT('',#223);
#109=PRESENTATION_STYLE_ASSIGNMENT((#224));
#110=VERTEX_POINT('',#225);
#111=PRESENTATION_STYLE_ASSIGNMENT((#226));
#112=EDGE_CURVE('',#118,#134,#227,.T.);
#113=PRESENTATION_STYLE_ASSIGNMENT((#228));
#114=ADVANCED_FACE('',(#229),#230,.T.);
#115=PRESENTATION_STYLE_ASSIGNMENT((#231));
#116=EDGE_CURVE('',#118,#154,#232,.T.);
#117=PRESENTATION_STYLE_ASSIGNMENT((#233));
#118=VERTEX_POINT('',#234);
#119=PRESENTATION_STYLE_ASSIGNMENT((#235));
#120=EDGE_CURVE('',#154,#142,#236,.T.);
#121=PRESENTATION_STYLE_ASSIGNMENT((#237));
#122=VERTEX_POINT('',#238);
#123=PRESENTATION_STYLE_ASSIGNMENT((#239));
#124=EDGE_CURVE('',#76,#86,#240,.T.);
#125=PRESENTATION_STYLE_ASSIGNMENT((#241));
#126=EDGE_CURVE('',#74,#122,#242,.T.);
#127=PRESENTATION_STYLE_ASSIGNMENT((#243));
#128=EDGE_CURVE('',#142,#134,#244,.T.);
#129=PRESENTATION_STYLE_ASSIGNMENT((#245));
#130=ADVANCED_FACE('',(#246),#247,.T.);
#131=PRESENTATION_STYLE_ASSIGNMENT((#248));
#132=EDGE_CURVE('',#108,#164,#249,.T.);
#133=PRESENTATION_STYLE_ASSIGNMENT((#250));
#134=VERTEX_POINT('',#251);
#135=PRESENTATION_STYLE_ASSIGNMENT((#252));
#136=EDGE_CURVE('',#86,#76,#253,.T.);
#137=PRESENTATION_STYLE_ASSIGNMENT((#254));
#138=ADVANCED_FACE('',(#255),#256,.F.);
#139=PRESENTATION_STYLE_ASSIGNMENT((#257));
#140=VERTEX_POINT('',#258);
#141=PRESENTATION_STYLE_ASSIGNMENT((#259));
#142=VERTEX_POINT('',#260);
#143=PRESENTATION_STYLE_ASSIGNMENT((#261));
#144=ADVANCED_FACE('',(#262,#263),#264,.T.);
#145=PRESENTATION_STYLE_ASSIGNMENT((#265));
#146=VERTEX_POINT('',#266);
#147=PRESENTATION_STYLE_ASSIGNMENT((#267));
#148=EDGE_CURVE('',#146,#86,#268,.T.);
#149=PRESENTATION_STYLE_ASSIGNMENT((#269));
#150=EDGE_CURVE('',#110,#146,#270,.T.);
#151=PRESENTATION_STYLE_ASSIGNMENT((#271));
#152=ADVANCED_FACE('',(#272),#273,.F.);
#153=PRESENTATION_STYLE_ASSIGNMENT((#274));
#154=VERTEX_POINT('',#275);
#155=PRESENTATION_STYLE_ASSIGNMENT((#276));
#156=EDGE_CURVE('',#106,#140,#277,.T.);
#157=PRESENTATION_STYLE_ASSIGNMENT((#278));
#158=ADVANCED_FACE('',(#279,#280),#281,.T.);
#159=PRESENTATION_STYLE_ASSIGNMENT((#282));
#160=EDGE_CURVE('',#74,#76,#283,.T.);
#161=PRESENTATION_STYLE_ASSIGNMENT((#284));
#162=ADVANCED_FACE('',(#285,#286),#287,.T.);
#163=PRESENTATION_STYLE_ASSIGNMENT((#288));
#164=VERTEX_POINT('',#289);
#165=PRESENTATION_STYLE_ASSIGNMENT((#290));
#166=ADVANCED_FACE('',(#291),#292,.F.);
#167=PRODUCT('1','1','PART-1-DESC',(#293));
#168=PRODUCT_DEFINITION('NONE','NONE',#294,#2);
#169=AXIS2_PLACEMENT_3D('',#295,#296,#297);
#172=LENGTH_MEASURE_WITH_UNIT(LENGTH_MEASURE(1.0),#298);
#175=DIMENSIONAL_EXPONENTS(1.0,0.0,0.0,0.0,0.0,0.0,0.0);
#177=DIMENSIONAL_EXPONENTS(0.0,0.0,0.0,0.0,0.0,0.0,0.0);
#183=SURFACE_STYLE_USAGE(.BOTH.,#299);
#184=FACE_OUTER_BOUND('',#300,.T.);
#185=CYLINDRICAL_SURFACE('',#301,10.0);
#186=POINT_STYLE(' ',#302,POSITIVE_LENGTH_MEASURE(1.0E-006),#303);
#187=CARTESIAN_POINT('',(18.0,1.03054884599067E-014,70.0));
#188=POINT_STYLE(' ',#304,POSITIVE_LENGTH_MEASURE(1.0E-006),#305);
#189=CARTESIAN_POINT('',(20.0,1.04279490952889E-014,68.0));
#190=CURVE_STYLE('',#306,POSITIVE_LENGTH_MEASURE(1.0E-006),#307);
#191=LINE('',#308,#309);
#192=CURVE_STYLE('',#310,POSITIVE_LENGTH_MEASURE(1.0E-006),#311);
#193=LINE('',#312,#313);
#194=CURVE_STYLE('',#314,POSITIVE_LENGTH_MEASURE(1.0E-006),#315);
#195=CIRCLE('',#316,6.0);
#196=SURFACE_STYLE_USAGE(.BOTH.,#317);
#197=CLOSED_SHELL('',(#92,#104,#152,#166,#144,#138,#158,#72,#162,#114,#130));
#198=POINT_STYLE(' ',#318,POSITIVE_LENGTH_MEASURE(1.0E-006),#319);
#199=CARTESIAN_POINT('',(-19.9999999999999,7.48377254234352E-015,68.0));
#200=CURVE_STYLE('',#320,POSITIVE_LENGTH_MEASURE(1.0E-006),#321);
#201=CIRCLE('',#322,10.0);
#202=CURVE_STYLE('',#323,POSITIVE_LENGTH_MEASURE(1.0E-006),#324);
#203=CIRCLE('',#325,20.0);
#204=SURFACE_STYLE_USAGE(.BOTH.,#326);
#205=FACE_OUTER_BOUND('',#327,.T.);
#206=CYLINDRICAL_SURFACE('',#328,20.0);
#207=CURVE_STYLE('',#329,POSITIVE_LENGTH_MEASURE(1.0E-006),#330);
#208=LINE('',#331,#332);
#209=CURVE_STYLE('',#333,POSITIVE_LENGTH_MEASURE(1.0E-006),#334);
#210=CIRCLE('',#335,10.0);
#211=CURVE_STYLE('',#336,POSITIVE_LENGTH_MEASURE(1.0E-006),#337);
#212=LINE('',#338,#339);
#213=CURVE_STYLE('',#340,POSITIVE_LENGTH_MEASURE(1.0E-006),#341);
#214=CIRCLE('',#342,6.0);
#215=CURVE_STYLE('',#343,POSITIVE_LENGTH_MEASURE(1.0E-006),#344);
#216=CIRCLE('',#345,18.0);
#217=SURFACE_STYLE_USAGE(.BOTH.,#346);
#218=FACE_OUTER_BOUND('',#347,.T.);
#219=CONICAL_SURFACE('',#348,19.0,0.785398163397448);
#220=POINT_STYLE(' ',#349,POSITIVE_LENGTH_MEASURE(1.0E-006),#350);
#221=CARTESIAN_POINT('',(10.0000000000001,9.32580337684876E-015,70.0));
#222=POINT_STYLE(' ',#351,POSITIVE_LENGTH_MEASURE(1.0E-006),#352);
#223=CARTESIAN_POINT('',(-9.99999999999994,7.79248478268495E-015,24.0));
#224=POINT_STYLE(' ',#353,POSITIVE_LENGTH_MEASURE(1.0E-006),#354);
#225=CARTESIAN_POINT('',(20.0,6.26428749229281E-015,-2.8421709430404E-014));
#226=CURVE_STYLE('',#355,POSITIVE_LENGTH_MEASURE(1.0E-006),#356);
#227=CIRCLE('',#357,6.0);
#228=SURFACE_STYLE_USAGE(.BOTH.,#358);
#229=FACE_OUTER_BOUND('',#359,.T.);
#230=CONICAL_SURFACE('',#360,19.0,0.785398163397448);
#231=CURVE_STYLE('',#361,POSITIVE_LENGTH_MEASURE(1.0E-006),#362);
#232=LINE('',#363,#364);
#233=POINT_STYLE(' ',#365,POSITIVE_LENGTH_MEASURE(1.0E-006),#366);
#234=CARTESIAN_POINT('',(-5.99999999999994,7.91596967882152E-015,-5.6843418860808E-014));
#235=CURVE_STYLE('',#367,POSITIVE_LENGTH_MEASURE(1.0E-006),#368);
#236=CIRCLE('',#369,6.0);
#237=POINT_STYLE(' ',#370,POSITIVE_LENGTH_MEASURE(1.0E-006),#371);
#238=CARTESIAN_POINT('',(-17.9999999999999,7.54551499041181E-015,70.0));
#239=CURVE_STYLE('',#372,POSITIVE_LENGTH_MEASURE(1.0E-006),#373);
#240=CIRCLE('',#374,20.0);
#241=CURVE_STYLE('',#375,POSITIVE_LENGTH_MEASURE(1.0E-006),#376);
#242=CIRCLE('',#377,18.0);
#243=CURVE_STYLE('',#378,POSITIVE_LENGTH_MEASURE(1.0E-006),#379);
#244=LINE('',#380,#381);
#245=SURFACE_STYLE_USAGE(.BOTH.,#382);
#246=FACE_OUTER_BOUND('',#383,.T.);
#247=CYLINDRICAL_SURFACE('',#384,20.0);
#248=CURVE_STYLE('',#385,POSITIVE_LENGTH_MEASURE(1.0E-006),#386);
#249=CIRCLE('',#387,10.0);
#250=POINT_STYLE(' ',#388,POSITIVE_LENGTH_MEASURE(1.0E-006),#389);
#251=CARTESIAN_POINT('',(6.00000000000006,4.54983859694148E-015,-5.6843418860808E-014));
#252=CURVE_STYLE('',#390,POSITIVE_LENGTH_MEASURE(1.0E-006),#391);
#253=CIRCLE('',#392,20.0);
#254=SURFACE_STYLE_USAGE(.BOTH.,#393);
#255=FACE_OUTER_BOUND('',#394,.T.);
#256=CYLINDRICAL_SURFACE('',#395,6.0);
#257=POINT_STYLE(' ',#396,POSITIVE_LENGTH_MEASURE(1.0E-006),#397);
#258=CARTESIAN_POINT('',(-9.99999999999994,7.79248478268495E-015,70.0));
#259=POINT_STYLE(' ',#398,POSITIVE_LENGTH_MEASURE(1.0E-006),#399);
#260=CARTESIAN_POINT('',(6.00000000000006,6.01936622152834E-015,24.0));
#261=SURFACE_STYLE_USAGE(.BOTH.,#400);
#262=FACE_BOUND('',#401,.T.);
#263=FACE_OUTER_BOUND('',#402,.T.);
#264=PLANE('',#403);
#265=POINT_STYLE(' ',#404,POSITIVE_LENGTH_MEASURE(1.0E-006),#405);
#266=CARTESIAN_POINT('',(-19.9999999999999,7.48377254234352E-015,-2.8421709430404E-014));
#267=CURVE_STYLE('',#406,POSITIVE_LENGTH_MEASURE(1.0E-006),#407);
#268=LINE('',#408,#409);
#269=CURVE_STYLE('',#410,POSITIVE_LENGTH_MEASURE(1.0E-006),#411);
#270=CIRCLE('',#412,20.0);
#271=SURFACE_STYLE_USAGE(.BOTH.,#413);
#272=FACE_OUTER_BOUND('',#414,.T.);
#273=CYLINDRICAL_SURFACE('',#415,10.0);
#274=POINT_STYLE(' ',#416,POSITIVE_LENGTH_MEASURE(1.0E-006),#417);
#275=CARTESIAN_POINT('',(-5.99999999999994,7.91596967882152E-015,24.0));
#276=CURVE_STYLE('',#418,POSITIVE_LENGTH_MEASURE(1.0E-006),#419);
#277=CIRCLE('',#420,10.0);
#278=SURFACE_STYLE_USAGE(.BOTH.,#421);
#279=FACE_OUTER_BOUND('',#422,.T.);
#280=FACE_BOUND('',#423,.T.);
#281=PLANE('',#424);
#282=CURVE_STYLE('',#425,POSITIVE_LENGTH_MEASURE(1.0E-006),#426);
#283=LINE('',#427,#428);
#284=SURFACE_STYLE_USAGE(.BOTH.,#429);
#285=FACE_OUTER_BOUND('',#430,.T.);
#286=FACE_BOUND('',#431,.T.);
#287=PLANE('',#432);
#288=POINT_STYLE(' ',#433,POSITIVE_LENGTH_MEASURE(1.0E-006),#434);
#289=CARTESIAN_POINT('',(10.0000000000001,6.50920876305729E-015,24.0));
#290=SURFACE_STYLE_USAGE(.BOTH.,#435);
#291=FACE_OUTER_BOUND('',#436,.T.);
#292=CYLINDRICAL_SURFACE('',#437,6.0);
#293=PRODUCT_CONTEXT('',#58,'mechanical');
#294=PRODUCT_DEFINITION_FORMATION_WITH_SPECIFIED_SOURCE(' ','NONE',#167,.NOT_KNOWN.);
#295=CARTESIAN_POINT('',(0.0,0.0,0.0));
#296=DIRECTION('',(0.0,0.0,1.0));
#297=DIRECTION('',(1.0,0.0,0.0));
#298= (NAMED_UNIT(#175)LENGTH_UNIT()SI_UNIT(.MILLI.,.METRE.));
#299=SURFACE_SIDE_STYLE('',(#439));
#300=EDGE_LOOP('',(#440,#441,#442,#443));
#301=AXIS2_PLACEMENT_3D('',#444,#445,#446);
#302=PRE_DEFINED_MARKER('');
#303=COLOUR_RGB('',0.509803950786591,0.509803950786591,0.588235318660736);
#304=PRE_DEFINED_MARKER('');
#305=COLOUR_RGB('',0.509803950786591,0.509803950786591,0.588235318660736);
#306=DRAUGHTING_PRE_DEFINED_CURVE_FONT('continuous');
#307=COLOUR_RGB('',0.509803950786591,0.509803950786591,0.588235318660736);
#308=CARTESIAN_POINT('',(-9.99999999999994,7.79248478268495E-015,47.0));
#309=VECTOR('',#447,1.0);
#310=DRAUGHTING_PRE_DEFINED_CURVE_FONT('continuous');
#311=COLOUR_RGB('',0.509803950786591,0.509803950786591,0.588235318660736);
#312=CARTESIAN_POINT('',(20.0,8.71862150370925E-015,34.0));
#313=VECTOR('',#448,1.0);
#314=DRAUGHTING_PRE_DEFINED_CURVE_FONT('continuous');
#315=COLOUR_RGB('',0.509803950786591,0.509803950786591,0.588235318660736);
#316=AXIS2_PLACEMENT_3D('',#449,#450,#451);
#317=SURFACE_SIDE_STYLE('',(#452));
#318=PRE_DEFINED_MARKER('');
#319=COLOUR_RGB('',0.509803950786591,0.509803950786591,0.588235318660736);
#320=DRAUGHTING_PRE_DEFINED_CURVE_FONT('continuous');
#321=COLOUR_RGB('',0.509803950786591,0.509803950786591,0.588235318660736);
#322=AXIS2_PLACEMENT_3D('',#453,#454,#455);
#323=DRAUGHTING_PRE_DEFINED_CURVE_FONT('continuous');
#324=COLOUR_RGB('',0.509803950786591,0.509803950786591,0.588235318660736);
#325=AXIS2_PLACEMENT_3D('',#456,#457,#458);
#326=SURFACE_SIDE_STYLE('',(#459));
#327=EDGE_LOOP('',(#460,#461,#462,#463));
#328=AXIS2_PLACEMENT_3D('',#464,#465,#466);
#329=DRAUGHTING_PRE_DEFINED_CURVE_FONT('continuous');
#330=COLOUR_RGB('',0.509803950786591,0.509803950786591,0.588235318660736);
#331=CARTESIAN_POINT('',(-18.9999999999999,7.51464376637766E-015,69.0));
#332=VECTOR('',#467,1.0);
#333=DRAUGHTING_PRE_DEFINED_CURVE_FONT('continuous');
#334=COLOUR_RGB('',0.509803950786591,0.509803950786591,0.588235318660736);
#335=AXIS2_PLACEMENT_3D('',#468,#469,#470);
#336=DRAUGHTING_PRE_DEFINED_CURVE_FONT('continuous');
#337=COLOUR_RGB('',0.509803950786591,0.509803950786591,0.588235318660736);
#338=CARTESIAN_POINT('',(10.0000000000001,8.40990926336782E-015,47.0));
#339=VECTOR('',#471,1.0);
#340=DRAUGHTING_PRE_DEFINED_CURVE_FONT('continuous');
#341=COLOUR_RGB('',0.509803950786591,0.509803950786591,0.588235318660736);
#342=AXIS2_PLACEMENT_3D('',#472,#473,#474);
#343=DRAUGHTING_PRE_DEFINED_CURVE_FONT('continuous');
#344=COLOUR_RGB('',0.509803950786591,0.509803950786591,0.588235318660736);
#345=AXIS2_PLACEMENT_3D('',#475,#476,#477);
#346=SURFACE_SIDE_STYLE('',(#478));
#347=EDGE_LOOP('',(#479,#480,#481,#482));
#348=AXIS2_PLACEMENT_3D('',#483,#484,#485);
#349=PRE_DEFINED_MARKER('');
#350=COLOUR_RGB('',0.509803950786591,0.509803950786591,0.588235318660736);
#351=PRE_DEFINED_MARKER('');
#352=COLOUR_RGB('',0.509803950786591,0.509803950786591,0.588235318660736);
#353=PRE_DEFINED_MARKER('');
#354=COLOUR_RGB('',0.509803950786591,0.509803950786591,0.588235318660736);
#355=DRAUGHTING_PRE_DEFINED_CURVE_FONT('continuous');
#356=COLOUR_RGB('',0.509803950786591,0.509803950786591,0.588235318660736);
#357=AXIS2_PLACEMENT_3D('',#486,#487,#488);
#358=SURFACE_SIDE_STYLE('',(#489));
#359=EDGE_LOOP('',(#490,#491,#492,#493));
#360=AXIS2_PLACEMENT_3D('',#494,#495,#496);
#361=DRAUGHTING_PRE_DEFINED_CURVE_FONT('continuous');
#362=COLOUR_RGB('',0.509803950786591,0.509803950786591,0.588235318660736);
#363=CARTESIAN_POINT('',(-5.99999999999994,7.91596967882152E-015,12.0));
#364=VECTOR('',#497,1.0);
#365=PRE_DEFINED_MARKER('');
#366=COLOUR_RGB('',0.509803950786591,0.509803950786591,0.588235318660736);
#367=DRAUGHTING_PRE_DEFINED_CURVE_FONT('continuous');
#368=COLOUR_RGB('',0.509803950786591,0.509803950786591,0.588235318660736);
#369=AXIS2_PLACEMENT_3D('',#498,#499,#500);
#370=PRE_DEFINED_MARKER('');
#371=COLOUR_RGB('',0.509803950786591,0.509803950786591,0.588235318660736);
#372=DRAUGHTING_PRE_DEFINED_CURVE_FONT('continuous');
#373=COLOUR_RGB('',0.509803950786591,0.509803950786591,0.588235318660736);
#374=AXIS2_PLACEMENT_3D('',#501,#502,#503);
#375=DRAUGHTING_PRE_DEFINED_CURVE_FONT('continuous');
#376=COLOUR_RGB('',0.509803950786591,0.509803950786591,0.588235318660736);
#377=AXIS2_PLACEMENT_3D('',#504,#505,#506);
#378=DRAUGHTING_PRE_DEFINED_CURVE_FONT('continuous');
#379=COLOUR_RGB('',0.509803950786591,0.509803950786591,0.588235318660736);
#380=CARTESIAN_POINT('',(6.00000000000006,8.28642436723124E-015,12.0));
#381=VECTOR('',#507,1.0);
#382=SURFACE_SIDE_STYLE('',(#508));
#383=EDGE_LOOP('',(#509,#510,#511,#512));
#384=AXIS2_PLACEMENT_3D('',#513,#514,#515);
#385=DRAUGHTING_PRE_DEFINED_CURVE_FONT('continuous');
#386=COLOUR_RGB('',0.509803950786591,0.509803950786591,0.588235318660736);
#387=AXIS2_PLACEMENT_3D('',#516,#517,#518);
#388=PRE_DEFINED_MARKER('');
#389=COLOUR_RGB('',0.509803950786591,0.509803950786591,0.588235318660736);
#390=DRAUGHTING_PRE_DEFINED_CURVE_FONT('continuous');
#391=COLOUR_RGB('',0.509803950786591,0.509803950786591,0.588235318660736);
#392=AXIS2_PLACEMENT_3D('',#519,#520,#521);
#393=SURFACE_SIDE_STYLE('',(#522));
#394=EDGE_LOOP('',(#523,#524,#525,#526));
#395=AXIS2_PLACEMENT_3D('',#527,#528,#529);
#396=PRE_DEFINED_MARKER('');
#397=COLOUR_RGB('',0.509803950786591,0.509803950786591,0.588235318660736);
#398=PRE_DEFINED_MARKER('');
#399=COLOUR_RGB('',0.509803950786591,0.509803950786591,0.588235318660736);
#400=SURFACE_SIDE_STYLE('',(#530));
#401=EDGE_LOOP('',(#531,#532));
#402=EDGE_LOOP('',(#533,#534));
#403=AXIS2_PLACEMENT_3D('',#535,#536,#537);
#404=PRE_DEFINED_MARKER('');
#405=COLOUR_RGB('',0.509803950786591,0.509803950786591,0.588235318660736);
#406=DRAUGHTING_PRE_DEFINED_CURVE_FONT('continuous');
#407=COLOUR_RGB('',0.509803950786591,0.509803950786591,0.588235318660736);
#408=CARTESIAN_POINT('',(-19.9999999999999,7.48377254234352E-015,34.0));
#409=VECTOR('',#538,1.0);
#410=DRAUGHTING_PRE_DEFINED_CURVE_FONT('continuous');
#411=COLOUR_RGB('',0.509803950786591,0.509803950786591,0.588235318660736);
#412=AXIS2_PLACEMENT_3D('',#539,#540,#541);
#413=SURFACE_SIDE_STYLE('',(#542));
#414=EDGE_LOOP('',(#543,#544,#545,#546));
#415=AXIS2_PLACEMENT_3D('',#547,#548,#549);
#416=PRE_DEFINED_MARKER('');
#417=COLOUR_RGB('',0.509803950786591,0.509803950786591,0.588235318660736);
#418=DRAUGHTING_PRE_DEFINED_CURVE_FONT('continuous');
#419=COLOUR_RGB('',0.509803950786591,0.509803950786591,0.588235318660736);
#420=AXIS2_PLACEMENT_3D('',#550,#551,#552);
#421=SURFACE_SIDE_STYLE('',(#553));
#422=EDGE_LOOP('',(#554,#555));
#423=EDGE_LOOP('',(#556,#557));
#424=AXIS2_PLACEMENT_3D('',#558,#559,#560);
#425=DRAUGHTING_PRE_DEFINED_CURVE_FONT('continuous');
#426=COLOUR_RGB('',0.509803950786591,0.509803950786591,0.588235318660736);
#427=CARTESIAN_POINT('',(19.0,8.6877502796751E-015,69.0));
#428=VECTOR('',#561,1.0);
#429=SURFACE_SIDE_STYLE('',(#562));
#430=EDGE_LOOP('',(#563,#564));
#431=EDGE_LOOP('',(#565,#566));
#432=AXIS2_PLACEMENT_3D('',#567,#568,#569);
#433=PRE_DEFINED_MARKER('');
#434=COLOUR_RGB('',0.509803950786591,0.509803950786591,0.588235318660736);
#435=SURFACE_SIDE_STYLE('',(#570));
#436=EDGE_LOOP('',(#571,#572,#573,#574));
#437=AXIS2_PLACEMENT_3D('',#575,#576,#577);
#439=SURFACE_STYLE_FILL_AREA(#578);
#440=ORIENTED_EDGE('',*,*,#98,.T.);
#441=ORIENTED_EDGE('',*,*,#96,.T.);
#442=ORIENTED_EDGE('',*,*,#78,.T.);
#443=ORIENTED_EDGE('',*,*,#156,.F.);
#444=CARTESIAN_POINT('',(5.6843418860808E-014,8.10119702302638E-015,47.0));
#445=DIRECTION('',(-0.0,-0.0,1.0));
#446=DIRECTION('',(1.0,-9.15894113480945E-017,0.0));
#447=DIRECTION('',(-0.0,-0.0,1.0));
#448=DIRECTION('',(0.0,0.0,-1.0));
#449=CARTESIAN_POINT('',(5.6843418860808E-014,8.10119702302638E-015,24.0));
#450=DIRECTION('',(0.0,0.0,-1.0));
#451=DIRECTION('',(1.0,-9.15894113480945E-017,0.0));
#452=SURFACE_STYLE_FILL_AREA(#579);
#453=CARTESIAN_POINT('',(5.6843418860808E-014,8.10119702302638E-015,70.0));
#454=DIRECTION('',(0.0,0.0,-1.0));
#455=DIRECTION('',(1.0,-9.15894113480945E-017,0.0));
#456=CARTESIAN_POINT('',(5.6843418860808E-014,8.10119702302638E-015,-2.8421709430404E-014));
#457=DIRECTION('',(0.0,0.0,-1.0));
#458=DIRECTION('',(1.0,-9.15894113480945E-017,0.0));
#459=SURFACE_STYLE_FILL_AREA(#580);
#460=ORIENTED_EDGE('',*,*,#80,.F.);
#461=ORIENTED_EDGE('',*,*,#124,.T.);
#462=ORIENTED_EDGE('',*,*,#148,.F.);
#463=ORIENTED_EDGE('',*,*,#150,.F.);
#464=CARTESIAN_POINT('',(5.6843418860808E-014,8.10119702302638E-015,34.0));
#465=DIRECTION('',(-0.0,-0.0,1.0));
#466=DIRECTION('',(1.0,-9.15894113480945E-017,0.0));
#467=DIRECTION('',(0.707106781186548,2.18292518580718E-017,0.707106781186547));
#468=CARTESIAN_POINT('',(5.6843418860808E-014,8.10119702302638E-015,24.0));
#469=DIRECTION('',(0.0,0.0,-1.0));
#470=DIRECTION('',(1.0,-9.15894113480945E-017,0.0));
#471=DIRECTION('',(-0.0,-0.0,-1.0));
#472=CARTESIAN_POINT('',(5.6843418860808E-014,8.10119702302638E-015,-5.6843418860808E-014));
#473=DIRECTION('',(0.0,0.0,-1.0));
#474=DIRECTION('',(1.0,-9.15894113480945E-017,0.0));
#475=CARTESIAN_POINT('',(5.6843418860808E-014,8.10119702302638E-015,70.0));
#476=DIRECTION('',(0.0,0.0,-1.0));
#477=DIRECTION('',(1.0,-9.15894113480945E-017,0.0));
#478=SURFACE_STYLE_FILL_AREA(#581);
#479=ORIENTED_EDGE('',*,*,#160,.F.);
#480=ORIENTED_EDGE('',*,*,#126,.T.);
#481=ORIENTED_EDGE('',*,*,#94,.F.);
#482=ORIENTED_EDGE('',*,*,#124,.F.);
#483=CARTESIAN_POINT('',(5.6843418860808E-014,8.10119702302638E-015,69.0));
#484=DIRECTION('',(0.0,-0.0,-1.0));
#485=DIRECTION('',(1.0,-9.15894113480945E-017,0.0));
#486=CARTESIAN_POINT('',(5.6843418860808E-014,8.10119702302638E-015,-5.6843418860808E-014));
#487=DIRECTION('',(0.0,0.0,-1.0));
#488=DIRECTION('',(1.0,-9.15894113480945E-017,0.0));
#489=SURFACE_STYLE_FILL_AREA(#582);
#490=ORIENTED_EDGE('',*,*,#160,.T.);
#491=ORIENTED_EDGE('',*,*,#136,.F.);
#492=ORIENTED_EDGE('',*,*,#94,.T.);
#493=ORIENTED_EDGE('',*,*,#102,.T.);
#494=CARTESIAN_POINT('',(5.6843418860808E-014,8.10119702302638E-015,69.0));
#495=DIRECTION('',(0.0,-0.0,-1.0));
#496=DIRECTION('',(1.0,-9.15894113480945E-017,0.0));
#497=DIRECTION('',(-0.0,-0.0,1.0));
#498=CARTESIAN_POINT('',(5.6843418860808E-014,8.10119702302638E-015,24.0));
#499=DIRECTION('',(0.0,0.0,-1.0));
#500=DIRECTION('',(1.0,-9.15894113480945E-017,0.0));
#501=CARTESIAN_POINT('',(5.6843418860808E-014,8.10119702302638E-015,68.0));
#502=DIRECTION('',(0.0,0.0,-1.0));
#503=DIRECTION('',(1.0,-9.15894113480945E-017,0.0));
#504=CARTESIAN_POINT('',(5.6843418860808E-014,8.10119702302638E-015,70.0));
#505=DIRECTION('',(0.0,0.0,-1.0));
#506=DIRECTION('',(1.0,-9.15894113480945E-017,0.0));
#507=DIRECTION('',(-0.0,-0.0,-1.0));
#508=SURFACE_STYLE_FILL_AREA(#583);
#509=ORIENTED_EDGE('',*,*,#80,.T.);
#510=ORIENTED_EDGE('',*,*,#90,.F.);
#511=ORIENTED_EDGE('',*,*,#148,.T.);
#512=ORIENTED_EDGE('',*,*,#136,.T.);
#513=CARTESIAN_POINT('',(5.6843418860808E-014,8.10119702302638E-015,34.0));
#514=DIRECTION('',(-0.0,-0.0,1.0));
#515=DIRECTION('',(1.0,-9.15894113480945E-017,0.0));
#516=CARTESIAN_POINT('',(5.6843418860808E-014,8.10119702302638E-015,24.0));
#517=DIRECTION('',(0.0,0.0,-1.0));
#518=DIRECTION('',(1.0,-9.15894113480945E-017,0.0));
#519=CARTESIAN_POINT('',(5.6843418860808E-014,8.10119702302638E-015,68.0));
#520=DIRECTION('',(0.0,0.0,-1.0));
#521=DIRECTION('',(1.0,-9.15894113480945E-017,0.0));
#522=SURFACE_STYLE_FILL_AREA(#584);
#523=ORIENTED_EDGE('',*,*,#128,.T.);
#524=ORIENTED_EDGE('',*,*,#100,.T.);
#525=ORIENTED_EDGE('',*,*,#116,.T.);
#526=ORIENTED_EDGE('',*,*,#82,.F.);
#527=CARTESIAN_POINT('',(5.6843418860808E-014,8.10119702302638E-015,12.0));
#528=DIRECTION('',(-0.0,-0.0,1.0));
#529=DIRECTION('',(1.0,-9.15894113480945E-017,0.0));
#530=SURFACE_STYLE_FILL_AREA(#585);
#531=ORIENTED_EDGE('',*,*,#100,.F.);
#532=ORIENTED_EDGE('',*,*,#112,.F.);
#533=ORIENTED_EDGE('',*,*,#150,.T.);
#534=ORIENTED_EDGE('',*,*,#90,.T.);
#535=CARTESIAN_POINT('',(13.0,5.40706304461715E-015,-4.2632564145606E-014));
#536=DIRECTION('',(0.0,0.0,-1.0));
#537=DIRECTION('',(1.0,1.22460635382238E-016,0.0));
#538=DIRECTION('',(-0.0,-0.0,1.0));
#539=CARTESIAN_POINT('',(5.6843418860808E-014,8.10119702302638E-015,-2.8421709430404E-014));
#540=DIRECTION('',(0.0,0.0,-1.0));
#541=DIRECTION('',(1.0,-9.15894113480945E-017,0.0));
#542=SURFACE_STYLE_FILL_AREA(#586);
#543=ORIENTED_EDGE('',*,*,#98,.F.);
#544=ORIENTED_EDGE('',*,*,#88,.F.);
#545=ORIENTED_EDGE('',*,*,#78,.F.);
#546=ORIENTED_EDGE('',*,*,#132,.T.);
#547=CARTESIAN_POINT('',(5.6843418860808E-014,8.10119702302638E-015,47.0));
#548=DIRECTION('',(-0.0,-0.0,1.0));
#549=DIRECTION('',(1.0,-9.15894113480945E-017,0.0));
#550=CARTESIAN_POINT('',(5.6843418860808E-014,8.10119702302638E-015,70.0));
#551=DIRECTION('',(0.0,0.0,-1.0));
#552=DIRECTION('',(1.0,-9.15894113480945E-017,0.0));
#553=SURFACE_STYLE_FILL_AREA(#587);
#554=ORIENTED_EDGE('',*,*,#96,.F.);
#555=ORIENTED_EDGE('',*,*,#132,.F.);
#556=ORIENTED_EDGE('',*,*,#82,.T.);
#557=ORIENTED_EDGE('',*,*,#120,.T.);
#558=CARTESIAN_POINT('',(8.00000000000006,6.26428749229281E-015,24.0));
#559=DIRECTION('',(0.0,0.0,1.0));
#560=DIRECTION('',(-1.0,-1.22460635382238E-016,0.0));
#561=DIRECTION('',(0.707106781186548,2.18292518580718E-017,-0.707106781186547));
#562=SURFACE_STYLE_FILL_AREA(#588);
#563=ORIENTED_EDGE('',*,*,#126,.F.);
#564=ORIENTED_EDGE('',*,*,#102,.F.);
#565=ORIENTED_EDGE('',*,*,#156,.T.);
#566=ORIENTED_EDGE('',*,*,#88,.T.);
#567=CARTESIAN_POINT('',(14.0,9.81564591837771E-015,70.0));
#568=DIRECTION('',(0.0,0.0,1.0));
#569=DIRECTION('',(-1.0,-1.22460635382238E-016,0.0));
#570=SURFACE_STYLE_FILL_AREA(#589);
#571=ORIENTED_EDGE('',*,*,#128,.F.);
#572=ORIENTED_EDGE('',*,*,#120,.F.);
#573=ORIENTED_EDGE('',*,*,#116,.F.);
#574=ORIENTED_EDGE('',*,*,#112,.T.);
#575=CARTESIAN_POINT('',(5.6843418860808E-014,8.10119702302638E-015,12.0));
#576=DIRECTION('',(-0.0,-0.0,1.0));
#577=DIRECTION('',(1.0,-9.15894113480945E-017,0.0));
#578=FILL_AREA_STYLE('',(#590));
#579=FILL_AREA_STYLE('',(#591));
#580=FILL_AREA_STYLE('',(#592));
#581=FILL_AREA_STYLE('',(#593));
#582=FILL_AREA_STYLE('',(#594));
#583=FILL_AREA_STYLE('',(#595));
#584=FILL_AREA_STYLE('',(#596));
#585=FILL_AREA_STYLE('',(#597));
#586=FILL_AREA_STYLE('',(#598));
#587=FILL_AREA_STYLE('',(#599));
#588=FILL_AREA_STYLE('',(#600));
#589=FILL_AREA_STYLE('',(#601));
#590=FILL_AREA_STYLE_COLOUR('',#602);
#591=FILL_AREA_STYLE_COLOUR('',#603);
#592=FILL_AREA_STYLE_COLOUR('',#604);
#593=FILL_AREA_STYLE_COLOUR('',#605);
#594=FILL_AREA_STYLE_COLOUR('',#606);
#595=FILL_AREA_STYLE_COLOUR('',#607);
#596=FILL_AREA_STYLE_COLOUR('',#608);
#597=FILL_AREA_STYLE_COLOUR('',#609);
#598=FILL_AREA_STYLE_COLOUR('',#610);
#599=FILL_AREA_STYLE_COLOUR('',#611);
#600=FILL_AREA_STYLE_COLOUR('',#612);
#601=FILL_AREA_STYLE_COLOUR('',#613);
#602=COLOUR_RGB('',0.509803950786591,0.509803950786591,0.588235318660736);
#603=COLOUR_RGB('',0.509803950786591,0.509803950786591,0.588235318660736);
#604=COLOUR_RGB('',0.509803950786591,0.509803950786591,0.588235318660736);
#605=COLOUR_RGB('',0.509803950786591,0.509803950786591,0.588235318660736);
#606=COLOUR_RGB('',0.509803950786591,0.509803950786591,0.588235318660736);
#607=COLOUR_RGB('',0.509803950786591,0.509803950786591,0.588235318660736);
#608=COLOUR_RGB('',0.509803950786591,0.509803950786591,0.588235318660736);
#609=COLOUR_RGB('',0.509803950786591,0.509803950786591,0.588235318660736);
#610=COLOUR_RGB('',0.509803950786591,0.509803950786591,0.588235318660736);
#611=COLOUR_RGB('',0.509803950786591,0.509803950786591,0.588235318660736);
#612=COLOUR_RGB('',0.509803950786591,0.509803950786591,0.588235318660736);
#613=COLOUR_RGB('',0.509803950786591,0.509803950786591,0.588235318660736);
ENDSEC;
END-ISO-10303-21;
