ISO-10303-21;
HEADER;
FILE_DESCRIPTION(('STEP AP214'),'1');
FILE_NAME(' ','  ',('TraceParts'),('TraceParts S.A.'),'XStep 1.0',' ',' ');
FILE_SCHEMA(('automotive_design'));
ENDSEC;
DATA;
#1=MECHANICAL_DESIGN_GEOMETRIC_PRESENTATION_REPRESENTATION(' ',(#10,#11,#12,#13,#14,#15,#16,#17,#18,#19,#20,#21,#22,#23,#24,#25,#26,#27,#28,#29,#30,#31,#32,#33,#34,#35,#36),#6);
#2=PRODUCT_DEFINITION_CONTEXT('',#37,'design');
#3=APPLICATION_PROTOCOL_DEFINITION('INTERNATIONAL STANDARD','automotive_design',1994,#37);
#4=PRODUCT_CATEGORY_RELATIONSHIP('NONE','NONE',#38,#39);
#5=SHAPE_DEFINITION_REPRESENTATION(#40,#41);
#6= (GEOMETRIC_REPRESENTATION_CONTEXT(3)GLOBAL_UNCERTAINTY_ASSIGNED_CONTEXT((#44))GLOBAL_UNIT_ASSIGNED_CONTEXT((#46,#47,#48))REPRESENTATION_CONTEXT('NONE','WORKSPACE'));
#10=STYLED_ITEM('',(#50),#51);
#11=STYLED_ITEM('',(#52),#53);
#12=STYLED_ITEM('',(#54),#55);
#13=STYLED_ITEM('',(#56),#57);
#14=STYLED_ITEM('',(#58),#59);
#15=STYLED_ITEM('',(#60),#61);
#16=STYLED_ITEM('',(#62),#63);
#17=STYLED_ITEM('',(#64),#65);
#18=STYLED_ITEM('',(#66),#67);
#19=STYLED_ITEM('',(#68),#69);
#20=STYLED_ITEM('',(#70),#71);
#21=STYLED_ITEM('',(#72),#73);
#22=STYLED_ITEM('',(#74),#75);
#23=STYLED_ITEM('',(#76),#77);
#24=STYLED_ITEM('',(#78),#79);
#25=STYLED_ITEM('',(#80),#81);
#26=STYLED_ITEM('',(#82),#83);
#27=STYLED_ITEM('',(#84),#85);
#28=STYLED_ITEM('',(#86),#87);
#29=STYLED_ITEM('',(#88),#89);
#30=STYLED_ITEM('',(#90),#91);
#31=STYLED_ITEM('',(#92),#93);
#32=STYLED_ITEM('',(#94),#95);
#33=STYLED_ITEM('',(#96),#97);
#34=STYLED_ITEM('',(#98),#99);
#35=STYLED_ITEM('',(#100),#101);
#36=STYLED_ITEM('',(#102),#103);
#37=APPLICATION_CONTEXT(' ');
#38=PRODUCT_CATEGORY('part','NONE');
#39=PRODUCT_RELATED_PRODUCT_CATEGORY('detail',' ',(#104));
#40=PRODUCT_DEFINITION_SHAPE('NONE','NONE',#105);
#41=ADVANCED_BREP_SHAPE_REPRESENTATION('1',(#63,#106),#6);
#44=UNCERTAINTY_MEASURE_WITH_UNIT(LENGTH_MEASURE(1.0E-006),#46,'','');
#46= (CONVERSION_BASED_UNIT('MILLIMETRE',#109)LENGTH_UNIT()NAMED_UNIT(#112));
#47= (NAMED_UNIT(#114)PLANE_ANGLE_UNIT()SI_UNIT($,.RADIAN.));
#48= (NAMED_UNIT(#114)SOLID_ANGLE_UNIT()SI_UNIT($,.STERADIAN.));
#50=PRESENTATION_STYLE_ASSIGNMENT((#120));
#51=ADVANCED_FACE('',(#121,#122),#123,.T.);
#52=PRESENTATION_STYLE_ASSIGNMENT((#124));
#53=VERTEX_POINT('',#125);
#54=PRESENTATION_STYLE_ASSIGNMENT((#126));
#55=EDGE_CURVE('',#101,#73,#127,.T.);
#56=PRESENTATION_STYLE_ASSIGNMENT((#128));
#57=EDGE_CURVE('',#65,#91,#129,.T.);
#58=PRESENTATION_STYLE_ASSIGNMENT((#130));
#59=EDGE_CURVE('',#91,#79,#131,.T.);
#60=PRESENTATION_STYLE_ASSIGNMENT((#132));
#61=EDGE_CURVE('',#73,#97,#133,.T.);
#62=PRESENTATION_STYLE_ASSIGNMENT((#134));
#63=MANIFOLD_SOLID_BREP('1',#135);
#64=PRESENTATION_STYLE_ASSIGNMENT((#136));
#65=VERTEX_POINT('',#137);
#66=PRESENTATION_STYLE_ASSIGNMENT((#138));
#67=EDGE_CURVE('',#79,#91,#139,.T.);
#68=PRESENTATION_STYLE_ASSIGNMENT((#140));
#69=ADVANCED_FACE('',(#141),#142,.F.);
#70=PRESENTATION_STYLE_ASSIGNMENT((#143));
#71=ADVANCED_FACE('',(#144,#145),#146,.F.);
#72=PRESENTATION_STYLE_ASSIGNMENT((#147));
#73=VERTEX_POINT('',#148);
#74=PRESENTATION_STYLE_ASSIGNMENT((#149));
#75=EDGE_CURVE('',#79,#53,#150,.T.);
#76=PRESENTATION_STYLE_ASSIGNMENT((#151));
#77=ADVANCED_FACE('',(#152),#153,.T.);
#78=PRESENTATION_STYLE_ASSIGNMENT((#154));
#79=VERTEX_POINT('',#155);
#80=PRESENTATION_STYLE_ASSIGNMENT((#156));
#81=EDGE_CURVE('',#65,#53,#157,.T.);
#82=PRESENTATION_STYLE_ASSIGNMENT((#158));
#83=VERTEX_POINT('',#159);
#84=PRESENTATION_STYLE_ASSIGNMENT((#160));
#85=ADVANCED_FACE('',(#161),#162,.T.);
#86=PRESENTATION_STYLE_ASSIGNMENT((#163));
#87=EDGE_CURVE('',#73,#101,#164,.T.);
#88=PRESENTATION_STYLE_ASSIGNMENT((#165));
#89=EDGE_CURVE('',#97,#83,#166,.T.);
#90=PRESENTATION_STYLE_ASSIGNMENT((#167));
#91=VERTEX_POINT('',#168);
#92=PRESENTATION_STYLE_ASSIGNMENT((#169));
#93=ADVANCED_FACE('',(#170),#171,.F.);
#94=PRESENTATION_STYLE_ASSIGNMENT((#172));
#95=EDGE_CURVE('',#53,#65,#173,.T.);
#96=PRESENTATION_STYLE_ASSIGNMENT((#174));
#97=VERTEX_POINT('',#175);
#98=PRESENTATION_STYLE_ASSIGNMENT((#176));
#99=EDGE_CURVE('',#83,#101,#177,.T.);
#100=PRESENTATION_STYLE_ASSIGNMENT((#178));
#101=VERTEX_POINT('',#179);
#102=PRESENTATION_STYLE_ASSIGNMENT((#180));
#103=EDGE_CURVE('',#83,#97,#181,.T.);
#104=PRODUCT('1','1','PART-1-DESC',(#182));
#105=PRODUCT_DEFINITION('NONE','NONE',#183,#2);
#106=AXIS2_PLACEMENT_3D('',#184,#185,#186);
#109=LENGTH_MEASURE_WITH_UNIT(LENGTH_MEASURE(1.0),#187);
#112=DIMENSIONAL_EXPONENTS(1.0,0.0,0.0,0.0,0.0,0.0,0.0);
#114=DIMENSIONAL_EXPONENTS(0.0,0.0,0.0,0.0,0.0,0.0,0.0);
#120=SURFACE_STYLE_USAGE(.BOTH.,#188);
#121=FACE_BOUND('',#189,.T.);
#122=FACE_OUTER_BOUND('',#190,.T.);
#123=PLANE('',#191);
#124=POINT_STYLE(' ',#192,POSITIVE_LENGTH_MEASURE(1.0E-006),#193);
#125=CARTESIAN_POINT('',(-29.75,3.64320390262157E-015,0.0));
#126=CURVE_STYLE('',#194,POSITIVE_LENGTH_MEASURE(1.0E-006),#195);
#127=CIRCLE('',#196,8.75);
#128=CURVE_STYLE('',#197,POSITIVE_LENGTH_MEASURE(1.0E-006),#198);
#129=LINE('',#199,#200);
#130=CURVE_STYLE('',#201,POSITIVE_LENGTH_MEASURE(1.0E-006),#202);
#131=CIRCLE('',#203,29.75);
#132=CURVE_STYLE('',#204,POSITIVE_LENGTH_MEASURE(1.0E-006),#205);
#133=LINE('',#206,#207);
#134=SURFACE_STYLE_USAGE(.BOTH.,#208);
#135=CLOSED_SHELL('',(#85,#93,#69,#77,#71,#51));
#136=POINT_STYLE(' ',#209,POSITIVE_LENGTH_MEASURE(1.0E-006),#210);
#137=CARTESIAN_POINT('',(29.75,0.0,0.0));
#138=CURVE_STYLE('',#211,POSITIVE_LENGTH_MEASURE(1.0E-006),#212);
#139=CIRCLE('',#213,29.75);
#140=SURFACE_STYLE_USAGE(.BOTH.,#214);
#141=FACE_OUTER_BOUND('',#215,.T.);
#142=CYLINDRICAL_SURFACE('',#216,8.75);
#143=SURFACE_STYLE_USAGE(.BOTH.,#217);
#144=FACE_BOUND('',#218,.T.);
#145=FACE_OUTER_BOUND('',#219,.T.);
#146=PLANE('',#220);
#147=POINT_STYLE(' ',#221,POSITIVE_LENGTH_MEASURE(1.0E-006),#222);
#148=CARTESIAN_POINT('',(-8.75,1.07153055959458E-015,0.0));
#149=CURVE_STYLE('',#223,POSITIVE_LENGTH_MEASURE(1.0E-006),#224);
#150=LINE('',#225,#226);
#151=SURFACE_STYLE_USAGE(.BOTH.,#227);
#152=FACE_OUTER_BOUND('',#228,.T.);
#153=CYLINDRICAL_SURFACE('',#229,29.75);
#154=POINT_STYLE(' ',#230,POSITIVE_LENGTH_MEASURE(1.0E-006),#231);
#155=CARTESIAN_POINT('',(-29.75,0.0,3.0));
#156=CURVE_STYLE('',#232,POSITIVE_LENGTH_MEASURE(1.0E-006),#233);
#157=CIRCLE('',#234,29.75);
#158=POINT_STYLE(' ',#235,POSITIVE_LENGTH_MEASURE(1.0E-006),#236);
#159=CARTESIAN_POINT('',(8.75,-1.07153055959458E-015,3.0));
#160=SURFACE_STYLE_USAGE(.BOTH.,#237);
#161=FACE_OUTER_BOUND('',#238,.T.);
#162=CYLINDRICAL_SURFACE('',#239,29.75);
#163=CURVE_STYLE('',#240,POSITIVE_LENGTH_MEASURE(1.0E-006),#241);
#164=CIRCLE('',#242,8.75);
#165=CURVE_STYLE('',#243,POSITIVE_LENGTH_MEASURE(1.0E-006),#244);
#166=CIRCLE('',#245,8.75);
#167=POINT_STYLE(' ',#246,POSITIVE_LENGTH_MEASURE(1.0E-006),#247);
#168=CARTESIAN_POINT('',(29.75,-3.64320390262157E-015,3.0));
#169=SURFACE_STYLE_USAGE(.BOTH.,#248);
#170=FACE_OUTER_BOUND('',#249,.T.);
#171=CYLINDRICAL_SURFACE('',#250,8.75);
#172=CURVE_STYLE('',#251,POSITIVE_LENGTH_MEASURE(1.0E-006),#252);
#173=CIRCLE('',#253,29.75);
#174=POINT_STYLE(' ',#254,POSITIVE_LENGTH_MEASURE(1.0E-006),#255);
#175=CARTESIAN_POINT('',(-8.75,0.0,3.0));
#176=CURVE_STYLE('',#256,POSITIVE_LENGTH_MEASURE(1.0E-006),#257);
#177=LINE('',#258,#259);
#178=POINT_STYLE(' ',#260,POSITIVE_LENGTH_MEASURE(1.0E-006),#261);
#179=CARTESIAN_POINT('',(8.75,0.0,0.0));
#180=CURVE_STYLE('',#262,POSITIVE_LENGTH_MEASURE(1.0E-006),#263);
#181=CIRCLE('',#264,8.75);
#182=PRODUCT_CONTEXT('',#37,'mechanical');
#183=PRODUCT_DEFINITION_FORMATION_WITH_SPECIFIED_SOURCE(' ','NONE',#104,.NOT_KNOWN.);
#184=CARTESIAN_POINT('',(0.0,0.0,0.0));
#185=DIRECTION('',(0.0,0.0,1.0));
#186=DIRECTION('',(1.0,0.0,0.0));
#187= (NAMED_UNIT(#112)LENGTH_UNIT()SI_UNIT(.MILLI.,.METRE.));
#188=SURFACE_SIDE_STYLE('',(#266));
#189=EDGE_LOOP('',(#267,#268));
#190=EDGE_LOOP('',(#269,#270));
#191=AXIS2_PLACEMENT_3D('',#271,#272,#273);
#192=PRE_DEFINED_MARKER('');
#193=COLOUR_RGB('',0.509803950786591,0.509803950786591,0.588235318660736);
#194=DRAUGHTING_PRE_DEFINED_CURVE_FONT('continuous');
#195=COLOUR_RGB('',0.509803950786591,0.509803950786591,0.588235318660736);
#196=AXIS2_PLACEMENT_3D('',#274,#275,#276);
#197=DRAUGHTING_PRE_DEFINED_CURVE_FONT('continuous');
#198=COLOUR_RGB('',0.509803950786591,0.509803950786591,0.588235318660736);
#199=CARTESIAN_POINT('',(29.75,-3.64320390262157E-015,0.0));
#200=VECTOR('',#277,1.0);
#201=DRAUGHTING_PRE_DEFINED_CURVE_FONT('continuous');
#202=COLOUR_RGB('',0.509803950786591,0.509803950786591,0.588235318660736);
#203=AXIS2_PLACEMENT_3D('',#278,#279,#280);
#204=DRAUGHTING_PRE_DEFINED_CURVE_FONT('continuous');
#205=COLOUR_RGB('',0.509803950786591,0.509803950786591,0.588235318660736);
#206=CARTESIAN_POINT('',(-8.75,1.07153055959458E-015,0.0));
#207=VECTOR('',#281,1.0);
#208=SURFACE_SIDE_STYLE('',(#282));
#209=PRE_DEFINED_MARKER('');
#210=COLOUR_RGB('',0.509803950786591,0.509803950786591,0.588235318660736);
#211=DRAUGHTING_PRE_DEFINED_CURVE_FONT('continuous');
#212=COLOUR_RGB('',0.509803950786591,0.509803950786591,0.588235318660736);
#213=AXIS2_PLACEMENT_3D('',#283,#284,#285);
#214=SURFACE_SIDE_STYLE('',(#286));
#215=EDGE_LOOP('',(#287,#288,#289,#290));
#216=AXIS2_PLACEMENT_3D('',#291,#292,#293);
#217=SURFACE_SIDE_STYLE('',(#294));
#218=EDGE_LOOP('',(#295,#296));
#219=EDGE_LOOP('',(#297,#298));
#220=AXIS2_PLACEMENT_3D('',#299,#300,#301);
#221=PRE_DEFINED_MARKER('');
#222=COLOUR_RGB('',0.509803950786591,0.509803950786591,0.588235318660736);
#223=DRAUGHTING_PRE_DEFINED_CURVE_FONT('continuous');
#224=COLOUR_RGB('',0.509803950786591,0.509803950786591,0.588235318660736);
#225=CARTESIAN_POINT('',(-29.75,3.64320390262157E-015,0.0));
#226=VECTOR('',#302,1.0);
#227=SURFACE_SIDE_STYLE('',(#303));
#228=EDGE_LOOP('',(#304,#305,#306,#307));
#229=AXIS2_PLACEMENT_3D('',#308,#309,#310);
#230=PRE_DEFINED_MARKER('');
#231=COLOUR_RGB('',0.509803950786591,0.509803950786591,0.588235318660736);
#232=DRAUGHTING_PRE_DEFINED_CURVE_FONT('continuous');
#233=COLOUR_RGB('',0.509803950786591,0.509803950786591,0.588235318660736);
#234=AXIS2_PLACEMENT_3D('',#311,#312,#313);
#235=PRE_DEFINED_MARKER('');
#236=COLOUR_RGB('',0.509803950786591,0.509803950786591,0.588235318660736);
#237=SURFACE_SIDE_STYLE('',(#314));
#238=EDGE_LOOP('',(#315,#316,#317,#318));
#239=AXIS2_PLACEMENT_3D('',#319,#320,#321);
#240=DRAUGHTING_PRE_DEFINED_CURVE_FONT('continuous');
#241=COLOUR_RGB('',0.509803950786591,0.509803950786591,0.588235318660736);
#242=AXIS2_PLACEMENT_3D('',#322,#323,#324);
#243=DRAUGHTING_PRE_DEFINED_CURVE_FONT('continuous');
#244=COLOUR_RGB('',0.509803950786591,0.509803950786591,0.588235318660736);
#245=AXIS2_PLACEMENT_3D('',#325,#326,#327);
#246=PRE_DEFINED_MARKER('');
#247=COLOUR_RGB('',0.509803950786591,0.509803950786591,0.588235318660736);
#248=SURFACE_SIDE_STYLE('',(#328));
#249=EDGE_LOOP('',(#329,#330,#331,#332));
#250=AXIS2_PLACEMENT_3D('',#333,#334,#335);
#251=DRAUGHTING_PRE_DEFINED_CURVE_FONT('continuous');
#252=COLOUR_RGB('',0.509803950786591,0.509803950786591,0.588235318660736);
#253=AXIS2_PLACEMENT_3D('',#336,#337,#338);
#254=PRE_DEFINED_MARKER('');
#255=COLOUR_RGB('',0.509803950786591,0.509803950786591,0.588235318660736);
#256=DRAUGHTING_PRE_DEFINED_CURVE_FONT('continuous');
#257=COLOUR_RGB('',0.509803950786591,0.509803950786591,0.588235318660736);
#258=CARTESIAN_POINT('',(8.75,-1.07153055959458E-015,0.0));
#259=VECTOR('',#339,1.0);
#260=PRE_DEFINED_MARKER('');
#261=COLOUR_RGB('',0.509803950786591,0.509803950786591,0.588235318660736);
#262=DRAUGHTING_PRE_DEFINED_CURVE_FONT('continuous');
#263=COLOUR_RGB('',0.509803950786591,0.509803950786591,0.588235318660736);
#264=AXIS2_PLACEMENT_3D('',#340,#341,#342);
#266=SURFACE_STYLE_FILL_AREA(#343);
#267=ORIENTED_EDGE('',*,*,#89,.T.);
#268=ORIENTED_EDGE('',*,*,#103,.T.);
#269=ORIENTED_EDGE('',*,*,#67,.F.);
#270=ORIENTED_EDGE('',*,*,#59,.F.);
#271=CARTESIAN_POINT('',(0.0,0.0,3.0));
#272=DIRECTION('',(0.0,0.0,1.0));
#273=DIRECTION('',(1.0,0.0,0.0));
#274=CARTESIAN_POINT('',(0.0,0.0,0.0));
#275=DIRECTION('',(0.0,0.0,1.0));
#276=DIRECTION('',(1.0,0.0,0.0));
#277=DIRECTION('',(0.0,0.0,1.0));
#278=CARTESIAN_POINT('',(0.0,0.0,3.0));
#279=DIRECTION('',(0.0,0.0,-1.0));
#280=DIRECTION('',(-1.0,0.0,0.0));
#281=DIRECTION('',(-0.0,0.0,1.0));
#282=SURFACE_STYLE_FILL_AREA(#344);
#283=CARTESIAN_POINT('',(0.0,0.0,3.0));
#284=DIRECTION('',(0.0,0.0,-1.0));
#285=DIRECTION('',(-1.0,0.0,0.0));
#286=SURFACE_STYLE_FILL_AREA(#345);
#287=ORIENTED_EDGE('',*,*,#99,.T.);
#288=ORIENTED_EDGE('',*,*,#87,.F.);
#289=ORIENTED_EDGE('',*,*,#61,.T.);
#290=ORIENTED_EDGE('',*,*,#103,.F.);
#291=CARTESIAN_POINT('',(0.0,0.0,0.0));
#292=DIRECTION('',(-0.0,-0.0,-1.0));
#293=DIRECTION('',(1.0,0.0,0.0));
#294=SURFACE_STYLE_FILL_AREA(#346);
#295=ORIENTED_EDGE('',*,*,#55,.T.);
#296=ORIENTED_EDGE('',*,*,#87,.T.);
#297=ORIENTED_EDGE('',*,*,#81,.F.);
#298=ORIENTED_EDGE('',*,*,#95,.F.);
#299=CARTESIAN_POINT('',(0.0,0.0,0.0));
#300=DIRECTION('',(0.0,0.0,1.0));
#301=DIRECTION('',(1.0,0.0,0.0));
#302=DIRECTION('',(-0.0,-0.0,-1.0));
#303=SURFACE_STYLE_FILL_AREA(#347);
#304=ORIENTED_EDGE('',*,*,#57,.T.);
#305=ORIENTED_EDGE('',*,*,#59,.T.);
#306=ORIENTED_EDGE('',*,*,#75,.T.);
#307=ORIENTED_EDGE('',*,*,#95,.T.);
#308=CARTESIAN_POINT('',(0.0,0.0,0.0));
#309=DIRECTION('',(-0.0,-0.0,-1.0));
#310=DIRECTION('',(1.0,0.0,0.0));
#311=CARTESIAN_POINT('',(0.0,0.0,0.0));
#312=DIRECTION('',(0.0,0.0,1.0));
#313=DIRECTION('',(1.0,0.0,0.0));
#314=SURFACE_STYLE_FILL_AREA(#348);
#315=ORIENTED_EDGE('',*,*,#57,.F.);
#316=ORIENTED_EDGE('',*,*,#81,.T.);
#317=ORIENTED_EDGE('',*,*,#75,.F.);
#318=ORIENTED_EDGE('',*,*,#67,.T.);
#319=CARTESIAN_POINT('',(0.0,0.0,0.0));
#320=DIRECTION('',(-0.0,-0.0,-1.0));
#321=DIRECTION('',(1.0,0.0,0.0));
#322=CARTESIAN_POINT('',(0.0,0.0,0.0));
#323=DIRECTION('',(0.0,0.0,1.0));
#324=DIRECTION('',(1.0,0.0,0.0));
#325=CARTESIAN_POINT('',(0.0,0.0,3.0));
#326=DIRECTION('',(0.0,0.0,-1.0));
#327=DIRECTION('',(1.0,0.0,0.0));
#328=SURFACE_STYLE_FILL_AREA(#349);
#329=ORIENTED_EDGE('',*,*,#99,.F.);
#330=ORIENTED_EDGE('',*,*,#89,.F.);
#331=ORIENTED_EDGE('',*,*,#61,.F.);
#332=ORIENTED_EDGE('',*,*,#55,.F.);
#333=CARTESIAN_POINT('',(0.0,0.0,0.0));
#334=DIRECTION('',(-0.0,-0.0,-1.0));
#335=DIRECTION('',(1.0,0.0,0.0));
#336=CARTESIAN_POINT('',(0.0,0.0,0.0));
#337=DIRECTION('',(0.0,0.0,1.0));
#338=DIRECTION('',(1.0,0.0,0.0));
#339=DIRECTION('',(-0.0,0.0,-1.0));
#340=CARTESIAN_POINT('',(0.0,0.0,3.0));
#341=DIRECTION('',(0.0,0.0,-1.0));
#342=DIRECTION('',(1.0,0.0,0.0));
#343=FILL_AREA_STYLE('',(#350));
#344=FILL_AREA_STYLE('',(#351));
#345=FILL_AREA_STYLE('',(#352));
#346=FILL_AREA_STYLE('',(#353));
#347=FILL_AREA_STYLE('',(#354));
#348=FILL_AREA_STYLE('',(#355));
#349=FILL_AREA_STYLE('',(#356));
#350=FILL_AREA_STYLE_COLOUR('',#357);
#351=FILL_AREA_STYLE_COLOUR('',#358);
#352=FILL_AREA_STYLE_COLOUR('',#359);
#353=FILL_AREA_STYLE_COLOUR('',#360);
#354=FILL_AREA_STYLE_COLOUR('',#361);
#355=FILL_AREA_STYLE_COLOUR('',#362);
#356=FILL_AREA_STYLE_COLOUR('',#363);
#357=COLOUR_RGB('',0.509803950786591,0.509803950786591,0.588235318660736);
#358=COLOUR_RGB('',0.509803950786591,0.509803950786591,0.588235318660736);
#359=COLOUR_RGB('',0.509803950786591,0.509803950786591,0.588235318660736);
#360=COLOUR_RGB('',0.509803950786591,0.509803950786591,0.588235318660736);
#361=COLOUR_RGB('',0.509803950786591,0.509803950786591,0.588235318660736);
#362=COLOUR_RGB('',0.509803950786591,0.509803950786591,0.588235318660736);
#363=COLOUR_RGB('',0.509803950786591,0.509803950786591,0.588235318660736);
ENDSEC;
END-ISO-10303-21;
