ISO-10303-21;
HEADER;
FILE_DESCRIPTION(('STEP AP214'),'1');
FILE_NAME(' ','  ',('TraceParts'),('TraceParts S.A.'),'XStep 1.0',' ',' ');
FILE_SCHEMA(('automotive_design'));
ENDSEC;
DATA;
#1=MECHANICAL_DESIGN_GEOMETRIC_PRESENTATION_REPRESENTATION(' ',(#10,#11,#12,#13,#14,#15,#16,#17,#18,#19,#20,#21,#22,#23,#24,#25,#26,#27,#28,#29,#30,#31,#32,#33,#34,#35,#36),#6);
#2=PRODUCT_DEFINITION_CONTEXT('',#37,'design');
#3=APPLICATION_PROTOCOL_DEFINITION('INTERNATIONAL STANDARD','automotive_design',1994,#37);
#4=PRODUCT_CATEGORY_RELATIONSHIP('NONE','NONE',#38,#39);
#5=SHAPE_DEFINITION_REPRESENTATION(#40,#41);
#6= (GEOMETRIC_REPRESENTATION_CONTEXT(3)GLOBAL_UNCERTAINTY_ASSIGNED_CONTEXT((#44))GLOBAL_UNIT_ASSIGNED_CONTEXT((#46,#47,#48))REPRESENTATION_CONTEXT('NONE','WORKSPACE'));
#10=STYLED_ITEM('',(#50),#51);
#11=STYLED_ITEM('',(#52),#53);
#12=STYLED_ITEM('',(#54),#55);
#13=STYLED_ITEM('',(#56),#57);
#14=STYLED_ITEM('',(#58),#59);
#15=STYLED_ITEM('',(#60),#61);
#16=STYLED_ITEM('',(#62),#63);
#17=STYLED_ITEM('',(#64),#65);
#18=STYLED_ITEM('',(#66),#67);
#19=STYLED_ITEM('',(#68),#69);
#20=STYLED_ITEM('',(#70),#71);
#21=STYLED_ITEM('',(#72),#73);
#22=STYLED_ITEM('',(#74),#75);
#23=STYLED_ITEM('',(#76),#77);
#24=STYLED_ITEM('',(#78),#79);
#25=STYLED_ITEM('',(#80),#81);
#26=STYLED_ITEM('',(#82),#83);
#27=STYLED_ITEM('',(#84),#85);
#28=STYLED_ITEM('',(#86),#87);
#29=STYLED_ITEM('',(#88),#89);
#30=STYLED_ITEM('',(#90),#91);
#31=STYLED_ITEM('',(#92),#93);
#32=STYLED_ITEM('',(#94),#95);
#33=STYLED_ITEM('',(#96),#97);
#34=STYLED_ITEM('',(#98),#99);
#35=STYLED_ITEM('',(#100),#101);
#36=STYLED_ITEM('',(#102),#103);
#37=APPLICATION_CONTEXT(' ');
#38=PRODUCT_CATEGORY('part','NONE');
#39=PRODUCT_RELATED_PRODUCT_CATEGORY('detail',' ',(#104));
#40=PRODUCT_DEFINITION_SHAPE('NONE','NONE',#105);
#41=ADVANCED_BREP_SHAPE_REPRESENTATION('1',(#57,#106),#6);
#44=UNCERTAINTY_MEASURE_WITH_UNIT(LENGTH_MEASURE(1.0E-006),#46,'','');
#46= (CONVERSION_BASED_UNIT('MILLIMETRE',#109)LENGTH_UNIT()NAMED_UNIT(#112));
#47= (NAMED_UNIT(#114)PLANE_ANGLE_UNIT()SI_UNIT($,.RADIAN.));
#48= (NAMED_UNIT(#114)SOLID_ANGLE_UNIT()SI_UNIT($,.STERADIAN.));
#50=PRESENTATION_STYLE_ASSIGNMENT((#120));
#51=EDGE_CURVE('',#65,#79,#121,.T.);
#52=PRESENTATION_STYLE_ASSIGNMENT((#122));
#53=VERTEX_POINT('',#123);
#54=PRESENTATION_STYLE_ASSIGNMENT((#124));
#55=EDGE_CURVE('',#61,#85,#125,.T.);
#56=PRESENTATION_STYLE_ASSIGNMENT((#126));
#57=MANIFOLD_SOLID_BREP('1',#127);
#58=PRESENTATION_STYLE_ASSIGNMENT((#128));
#59=ADVANCED_FACE('',(#129),#130,.T.);
#60=PRESENTATION_STYLE_ASSIGNMENT((#131));
#61=VERTEX_POINT('',#132);
#62=PRESENTATION_STYLE_ASSIGNMENT((#133));
#63=VERTEX_POINT('',#134);
#64=PRESENTATION_STYLE_ASSIGNMENT((#135));
#65=VERTEX_POINT('',#136);
#66=PRESENTATION_STYLE_ASSIGNMENT((#137));
#67=EDGE_CURVE('',#85,#61,#138,.T.);
#68=PRESENTATION_STYLE_ASSIGNMENT((#139));
#69=ADVANCED_FACE('',(#140,#141),#142,.T.);
#70=PRESENTATION_STYLE_ASSIGNMENT((#143));
#71=EDGE_CURVE('',#63,#53,#144,.T.);
#72=PRESENTATION_STYLE_ASSIGNMENT((#145));
#73=EDGE_CURVE('',#53,#63,#146,.T.);
#74=PRESENTATION_STYLE_ASSIGNMENT((#147));
#75=EDGE_CURVE('',#85,#63,#148,.T.);
#76=PRESENTATION_STYLE_ASSIGNMENT((#149));
#77=VERTEX_POINT('',#150);
#78=PRESENTATION_STYLE_ASSIGNMENT((#151));
#79=VERTEX_POINT('',#152);
#80=PRESENTATION_STYLE_ASSIGNMENT((#153));
#81=EDGE_CURVE('',#65,#77,#154,.T.);
#82=PRESENTATION_STYLE_ASSIGNMENT((#155));
#83=EDGE_CURVE('',#53,#61,#156,.T.);
#84=PRESENTATION_STYLE_ASSIGNMENT((#157));
#85=VERTEX_POINT('',#158);
#86=PRESENTATION_STYLE_ASSIGNMENT((#159));
#87=ADVANCED_FACE('',(#160),#161,.F.);
#88=PRESENTATION_STYLE_ASSIGNMENT((#162));
#89=EDGE_CURVE('',#99,#79,#163,.T.);
#90=PRESENTATION_STYLE_ASSIGNMENT((#164));
#91=ADVANCED_FACE('',(#165),#166,.F.);
#92=PRESENTATION_STYLE_ASSIGNMENT((#167));
#93=EDGE_CURVE('',#79,#99,#168,.T.);
#94=PRESENTATION_STYLE_ASSIGNMENT((#169));
#95=ADVANCED_FACE('',(#170),#171,.T.);
#96=PRESENTATION_STYLE_ASSIGNMENT((#172));
#97=EDGE_CURVE('',#99,#77,#173,.T.);
#98=PRESENTATION_STYLE_ASSIGNMENT((#174));
#99=VERTEX_POINT('',#175);
#100=PRESENTATION_STYLE_ASSIGNMENT((#176));
#101=ADVANCED_FACE('',(#177,#178),#179,.F.);
#102=PRESENTATION_STYLE_ASSIGNMENT((#180));
#103=EDGE_CURVE('',#77,#65,#181,.T.);
#104=PRODUCT('1','1','PART-1-DESC',(#182));
#105=PRODUCT_DEFINITION('NONE','NONE',#183,#2);
#106=AXIS2_PLACEMENT_3D('',#184,#185,#186);
#109=LENGTH_MEASURE_WITH_UNIT(LENGTH_MEASURE(1.0),#187);
#112=DIMENSIONAL_EXPONENTS(1.0,0.0,0.0,0.0,0.0,0.0,0.0);
#114=DIMENSIONAL_EXPONENTS(0.0,0.0,0.0,0.0,0.0,0.0,0.0);
#120=CURVE_STYLE('',#188,POSITIVE_LENGTH_MEASURE(1.0E-006),#189);
#121=LINE('',#190,#191);
#122=POINT_STYLE(' ',#192,POSITIVE_LENGTH_MEASURE(1.0E-006),#193);
#123=CARTESIAN_POINT('',(-19.75,0.0,5.0));
#124=CURVE_STYLE('',#194,POSITIVE_LENGTH_MEASURE(1.0E-006),#195);
#125=CIRCLE('',#196,19.75);
#126=SURFACE_STYLE_USAGE(.BOTH.,#197);
#127=CLOSED_SHELL('',(#95,#91,#87,#59,#101,#69));
#128=SURFACE_STYLE_USAGE(.BOTH.,#198);
#129=FACE_OUTER_BOUND('',#199,.T.);
#130=CYLINDRICAL_SURFACE('',#200,19.75);
#131=POINT_STYLE(' ',#201,POSITIVE_LENGTH_MEASURE(1.0E-006),#202);
#132=CARTESIAN_POINT('',(-19.75,2.4185975487992E-015,0.0));
#133=POINT_STYLE(' ',#203,POSITIVE_LENGTH_MEASURE(1.0E-006),#204);
#134=CARTESIAN_POINT('',(19.75,-2.4185975487992E-015,5.0));
#135=POINT_STYLE(' ',#205,POSITIVE_LENGTH_MEASURE(1.0E-006),#206);
#136=CARTESIAN_POINT('',(8.75,-1.07153055959458E-015,5.0));
#137=CURVE_STYLE('',#207,POSITIVE_LENGTH_MEASURE(1.0E-006),#208);
#138=CIRCLE('',#209,19.75);
#139=SURFACE_STYLE_USAGE(.BOTH.,#210);
#140=FACE_BOUND('',#211,.T.);
#141=FACE_OUTER_BOUND('',#212,.T.);
#142=PLANE('',#213);
#143=CURVE_STYLE('',#214,POSITIVE_LENGTH_MEASURE(1.0E-006),#215);
#144=CIRCLE('',#216,19.75);
#145=CURVE_STYLE('',#217,POSITIVE_LENGTH_MEASURE(1.0E-006),#218);
#146=CIRCLE('',#219,19.75);
#147=CURVE_STYLE('',#220,POSITIVE_LENGTH_MEASURE(1.0E-006),#221);
#148=LINE('',#222,#223);
#149=POINT_STYLE(' ',#224,POSITIVE_LENGTH_MEASURE(1.0E-006),#225);
#150=CARTESIAN_POINT('',(-8.75,0.0,5.0));
#151=POINT_STYLE(' ',#226,POSITIVE_LENGTH_MEASURE(1.0E-006),#227);
#152=CARTESIAN_POINT('',(8.75,0.0,0.0));
#153=CURVE_STYLE('',#228,POSITIVE_LENGTH_MEASURE(1.0E-006),#229);
#154=CIRCLE('',#230,8.75);
#155=CURVE_STYLE('',#231,POSITIVE_LENGTH_MEASURE(1.0E-006),#232);
#156=LINE('',#233,#234);
#157=POINT_STYLE(' ',#235,POSITIVE_LENGTH_MEASURE(1.0E-006),#236);
#158=CARTESIAN_POINT('',(19.75,0.0,0.0));
#159=SURFACE_STYLE_USAGE(.BOTH.,#237);
#160=FACE_OUTER_BOUND('',#238,.T.);
#161=CYLINDRICAL_SURFACE('',#239,8.75);
#162=CURVE_STYLE('',#240,POSITIVE_LENGTH_MEASURE(1.0E-006),#241);
#163=CIRCLE('',#242,8.75);
#164=SURFACE_STYLE_USAGE(.BOTH.,#243);
#165=FACE_OUTER_BOUND('',#244,.T.);
#166=CYLINDRICAL_SURFACE('',#245,8.75);
#167=CURVE_STYLE('',#246,POSITIVE_LENGTH_MEASURE(1.0E-006),#247);
#168=CIRCLE('',#248,8.75);
#169=SURFACE_STYLE_USAGE(.BOTH.,#249);
#170=FACE_OUTER_BOUND('',#250,.T.);
#171=CYLINDRICAL_SURFACE('',#251,19.75);
#172=CURVE_STYLE('',#252,POSITIVE_LENGTH_MEASURE(1.0E-006),#253);
#173=LINE('',#254,#255);
#174=POINT_STYLE(' ',#256,POSITIVE_LENGTH_MEASURE(1.0E-006),#257);
#175=CARTESIAN_POINT('',(-8.75,1.07153055959458E-015,0.0));
#176=SURFACE_STYLE_USAGE(.BOTH.,#258);
#177=FACE_BOUND('',#259,.T.);
#178=FACE_OUTER_BOUND('',#260,.T.);
#179=PLANE('',#261);
#180=CURVE_STYLE('',#262,POSITIVE_LENGTH_MEASURE(1.0E-006),#263);
#181=CIRCLE('',#264,8.75);
#182=PRODUCT_CONTEXT('',#37,'mechanical');
#183=PRODUCT_DEFINITION_FORMATION_WITH_SPECIFIED_SOURCE(' ','NONE',#104,.NOT_KNOWN.);
#184=CARTESIAN_POINT('',(0.0,0.0,0.0));
#185=DIRECTION('',(0.0,0.0,1.0));
#186=DIRECTION('',(1.0,0.0,0.0));
#187= (NAMED_UNIT(#112)LENGTH_UNIT()SI_UNIT(.MILLI.,.METRE.));
#188=DRAUGHTING_PRE_DEFINED_CURVE_FONT('continuous');
#189=COLOUR_RGB('',0.509803950786591,0.509803950786591,0.588235318660736);
#190=CARTESIAN_POINT('',(8.75,-1.07153055959458E-015,0.0));
#191=VECTOR('',#266,1.0);
#192=PRE_DEFINED_MARKER('');
#193=COLOUR_RGB('',0.509803950786591,0.509803950786591,0.588235318660736);
#194=DRAUGHTING_PRE_DEFINED_CURVE_FONT('continuous');
#195=COLOUR_RGB('',0.509803950786591,0.509803950786591,0.588235318660736);
#196=AXIS2_PLACEMENT_3D('',#267,#268,#269);
#197=SURFACE_SIDE_STYLE('',(#270));
#198=SURFACE_SIDE_STYLE('',(#271));
#199=EDGE_LOOP('',(#272,#273,#274,#275));
#200=AXIS2_PLACEMENT_3D('',#276,#277,#278);
#201=PRE_DEFINED_MARKER('');
#202=COLOUR_RGB('',0.509803950786591,0.509803950786591,0.588235318660736);
#203=PRE_DEFINED_MARKER('');
#204=COLOUR_RGB('',0.509803950786591,0.509803950786591,0.588235318660736);
#205=PRE_DEFINED_MARKER('');
#206=COLOUR_RGB('',0.509803950786591,0.509803950786591,0.588235318660736);
#207=DRAUGHTING_PRE_DEFINED_CURVE_FONT('continuous');
#208=COLOUR_RGB('',0.509803950786591,0.509803950786591,0.588235318660736);
#209=AXIS2_PLACEMENT_3D('',#279,#280,#281);
#210=SURFACE_SIDE_STYLE('',(#282));
#211=EDGE_LOOP('',(#283,#284));
#212=EDGE_LOOP('',(#285,#286));
#213=AXIS2_PLACEMENT_3D('',#287,#288,#289);
#214=DRAUGHTING_PRE_DEFINED_CURVE_FONT('continuous');
#215=COLOUR_RGB('',0.509803950786591,0.509803950786591,0.588235318660736);
#216=AXIS2_PLACEMENT_3D('',#290,#291,#292);
#217=DRAUGHTING_PRE_DEFINED_CURVE_FONT('continuous');
#218=COLOUR_RGB('',0.509803950786591,0.509803950786591,0.588235318660736);
#219=AXIS2_PLACEMENT_3D('',#293,#294,#295);
#220=DRAUGHTING_PRE_DEFINED_CURVE_FONT('continuous');
#221=COLOUR_RGB('',0.509803950786591,0.509803950786591,0.588235318660736);
#222=CARTESIAN_POINT('',(19.75,-2.4185975487992E-015,0.0));
#223=VECTOR('',#296,1.0);
#224=PRE_DEFINED_MARKER('');
#225=COLOUR_RGB('',0.509803950786591,0.509803950786591,0.588235318660736);
#226=PRE_DEFINED_MARKER('');
#227=COLOUR_RGB('',0.509803950786591,0.509803950786591,0.588235318660736);
#228=DRAUGHTING_PRE_DEFINED_CURVE_FONT('continuous');
#229=COLOUR_RGB('',0.509803950786591,0.509803950786591,0.588235318660736);
#230=AXIS2_PLACEMENT_3D('',#297,#298,#299);
#231=DRAUGHTING_PRE_DEFINED_CURVE_FONT('continuous');
#232=COLOUR_RGB('',0.509803950786591,0.509803950786591,0.588235318660736);
#233=CARTESIAN_POINT('',(-19.75,2.4185975487992E-015,0.0));
#234=VECTOR('',#300,1.0);
#235=PRE_DEFINED_MARKER('');
#236=COLOUR_RGB('',0.509803950786591,0.509803950786591,0.588235318660736);
#237=SURFACE_SIDE_STYLE('',(#301));
#238=EDGE_LOOP('',(#302,#303,#304,#305));
#239=AXIS2_PLACEMENT_3D('',#306,#307,#308);
#240=DRAUGHTING_PRE_DEFINED_CURVE_FONT('continuous');
#241=COLOUR_RGB('',0.509803950786591,0.509803950786591,0.588235318660736);
#242=AXIS2_PLACEMENT_3D('',#309,#310,#311);
#243=SURFACE_SIDE_STYLE('',(#312));
#244=EDGE_LOOP('',(#313,#314,#315,#316));
#245=AXIS2_PLACEMENT_3D('',#317,#318,#319);
#246=DRAUGHTING_PRE_DEFINED_CURVE_FONT('continuous');
#247=COLOUR_RGB('',0.509803950786591,0.509803950786591,0.588235318660736);
#248=AXIS2_PLACEMENT_3D('',#320,#321,#322);
#249=SURFACE_SIDE_STYLE('',(#323));
#250=EDGE_LOOP('',(#324,#325,#326,#327));
#251=AXIS2_PLACEMENT_3D('',#328,#329,#330);
#252=DRAUGHTING_PRE_DEFINED_CURVE_FONT('continuous');
#253=COLOUR_RGB('',0.509803950786591,0.509803950786591,0.588235318660736);
#254=CARTESIAN_POINT('',(-8.75,1.07153055959458E-015,0.0));
#255=VECTOR('',#331,1.0);
#256=PRE_DEFINED_MARKER('');
#257=COLOUR_RGB('',0.509803950786591,0.509803950786591,0.588235318660736);
#258=SURFACE_SIDE_STYLE('',(#332));
#259=EDGE_LOOP('',(#333,#334));
#260=EDGE_LOOP('',(#335,#336));
#261=AXIS2_PLACEMENT_3D('',#337,#338,#339);
#262=DRAUGHTING_PRE_DEFINED_CURVE_FONT('continuous');
#263=COLOUR_RGB('',0.509803950786591,0.509803950786591,0.588235318660736);
#264=AXIS2_PLACEMENT_3D('',#340,#341,#342);
#266=DIRECTION('',(-0.0,0.0,-1.0));
#267=CARTESIAN_POINT('',(0.0,0.0,0.0));
#268=DIRECTION('',(0.0,0.0,1.0));
#269=DIRECTION('',(1.0,0.0,0.0));
#270=SURFACE_STYLE_FILL_AREA(#343);
#271=SURFACE_STYLE_FILL_AREA(#344);
#272=ORIENTED_EDGE('',*,*,#75,.T.);
#273=ORIENTED_EDGE('',*,*,#71,.T.);
#274=ORIENTED_EDGE('',*,*,#83,.T.);
#275=ORIENTED_EDGE('',*,*,#55,.T.);
#276=CARTESIAN_POINT('',(0.0,0.0,0.0));
#277=DIRECTION('',(-0.0,-0.0,-1.0));
#278=DIRECTION('',(1.0,0.0,0.0));
#279=CARTESIAN_POINT('',(0.0,0.0,0.0));
#280=DIRECTION('',(0.0,0.0,1.0));
#281=DIRECTION('',(1.0,0.0,0.0));
#282=SURFACE_STYLE_FILL_AREA(#345);
#283=ORIENTED_EDGE('',*,*,#103,.T.);
#284=ORIENTED_EDGE('',*,*,#81,.T.);
#285=ORIENTED_EDGE('',*,*,#73,.F.);
#286=ORIENTED_EDGE('',*,*,#71,.F.);
#287=CARTESIAN_POINT('',(0.0,0.0,5.0));
#288=DIRECTION('',(0.0,0.0,1.0));
#289=DIRECTION('',(1.0,0.0,0.0));
#290=CARTESIAN_POINT('',(0.0,0.0,5.0));
#291=DIRECTION('',(0.0,0.0,-1.0));
#292=DIRECTION('',(-1.0,0.0,0.0));
#293=CARTESIAN_POINT('',(0.0,0.0,5.0));
#294=DIRECTION('',(0.0,0.0,-1.0));
#295=DIRECTION('',(-1.0,0.0,0.0));
#296=DIRECTION('',(0.0,0.0,1.0));
#297=CARTESIAN_POINT('',(0.0,0.0,5.0));
#298=DIRECTION('',(0.0,0.0,-1.0));
#299=DIRECTION('',(1.0,0.0,0.0));
#300=DIRECTION('',(-0.0,-0.0,-1.0));
#301=SURFACE_STYLE_FILL_AREA(#346);
#302=ORIENTED_EDGE('',*,*,#51,.T.);
#303=ORIENTED_EDGE('',*,*,#89,.F.);
#304=ORIENTED_EDGE('',*,*,#97,.T.);
#305=ORIENTED_EDGE('',*,*,#81,.F.);
#306=CARTESIAN_POINT('',(0.0,0.0,0.0));
#307=DIRECTION('',(-0.0,-0.0,-1.0));
#308=DIRECTION('',(1.0,0.0,0.0));
#309=CARTESIAN_POINT('',(0.0,0.0,0.0));
#310=DIRECTION('',(0.0,0.0,1.0));
#311=DIRECTION('',(1.0,0.0,0.0));
#312=SURFACE_STYLE_FILL_AREA(#347);
#313=ORIENTED_EDGE('',*,*,#51,.F.);
#314=ORIENTED_EDGE('',*,*,#103,.F.);
#315=ORIENTED_EDGE('',*,*,#97,.F.);
#316=ORIENTED_EDGE('',*,*,#93,.F.);
#317=CARTESIAN_POINT('',(0.0,0.0,0.0));
#318=DIRECTION('',(-0.0,-0.0,-1.0));
#319=DIRECTION('',(1.0,0.0,0.0));
#320=CARTESIAN_POINT('',(0.0,0.0,0.0));
#321=DIRECTION('',(0.0,0.0,1.0));
#322=DIRECTION('',(1.0,0.0,0.0));
#323=SURFACE_STYLE_FILL_AREA(#348);
#324=ORIENTED_EDGE('',*,*,#75,.F.);
#325=ORIENTED_EDGE('',*,*,#67,.T.);
#326=ORIENTED_EDGE('',*,*,#83,.F.);
#327=ORIENTED_EDGE('',*,*,#73,.T.);
#328=CARTESIAN_POINT('',(0.0,0.0,0.0));
#329=DIRECTION('',(-0.0,-0.0,-1.0));
#330=DIRECTION('',(1.0,0.0,0.0));
#331=DIRECTION('',(-0.0,0.0,1.0));
#332=SURFACE_STYLE_FILL_AREA(#349);
#333=ORIENTED_EDGE('',*,*,#93,.T.);
#334=ORIENTED_EDGE('',*,*,#89,.T.);
#335=ORIENTED_EDGE('',*,*,#67,.F.);
#336=ORIENTED_EDGE('',*,*,#55,.F.);
#337=CARTESIAN_POINT('',(0.0,0.0,0.0));
#338=DIRECTION('',(0.0,0.0,1.0));
#339=DIRECTION('',(1.0,0.0,0.0));
#340=CARTESIAN_POINT('',(0.0,0.0,5.0));
#341=DIRECTION('',(0.0,0.0,-1.0));
#342=DIRECTION('',(1.0,0.0,0.0));
#343=FILL_AREA_STYLE('',(#350));
#344=FILL_AREA_STYLE('',(#351));
#345=FILL_AREA_STYLE('',(#352));
#346=FILL_AREA_STYLE('',(#353));
#347=FILL_AREA_STYLE('',(#354));
#348=FILL_AREA_STYLE('',(#355));
#349=FILL_AREA_STYLE('',(#356));
#350=FILL_AREA_STYLE_COLOUR('',#357);
#351=FILL_AREA_STYLE_COLOUR('',#358);
#352=FILL_AREA_STYLE_COLOUR('',#359);
#353=FILL_AREA_STYLE_COLOUR('',#360);
#354=FILL_AREA_STYLE_COLOUR('',#361);
#355=FILL_AREA_STYLE_COLOUR('',#362);
#356=FILL_AREA_STYLE_COLOUR('',#363);
#357=COLOUR_RGB('',0.509803950786591,0.509803950786591,0.588235318660736);
#358=COLOUR_RGB('',0.509803950786591,0.509803950786591,0.588235318660736);
#359=COLOUR_RGB('',0.509803950786591,0.509803950786591,0.588235318660736);
#360=COLOUR_RGB('',0.509803950786591,0.509803950786591,0.588235318660736);
#361=COLOUR_RGB('',0.509803950786591,0.509803950786591,0.588235318660736);
#362=COLOUR_RGB('',0.509803950786591,0.509803950786591,0.588235318660736);
#363=COLOUR_RGB('',0.509803950786591,0.509803950786591,0.588235318660736);
ENDSEC;
END-ISO-10303-21;
