ISO-10303-21;
HEADER;
FILE_DESCRIPTION(('STEP AP214'),'1');
FILE_NAME('HALDERN_EH_22050_1608.stp','2020-02-28T09:40:02',('TraceParts'),('TraceParts S.A.'),'Spatial InterOp 3D',' ',' ');
FILE_SCHEMA(('AUTOMOTIVE_DESIGN { 1 0 10303 214 1 1 1 1 }'));
ENDSEC;
DATA;
#1=MECHANICAL_DESIGN_GEOMETRIC_PRESENTATION_REPRESENTATION(' ',(#11,#12,#13,#14,#15,#16,#17,#18,#19,#20,#21,#22,#23,#24,#25,#26,#27),#7);
#2=PRODUCT_DEFINITION_CONTEXT('',#28,'design');
#3=APPLICATION_PROTOCOL_DEFINITION('INTERNATIONAL STANDARD','automotive_design',1994,#28);
#4=PRODUCT_CATEGORY_RELATIONSHIP('NONE','NONE',#29,#30);
#5=SHAPE_DEFINITION_REPRESENTATION(#31,#32);
#6=SHAPE_DEFINITION_REPRESENTATION(#31,#33);
#7= (GEOMETRIC_REPRESENTATION_CONTEXT(3)GLOBAL_UNCERTAINTY_ASSIGNED_CONTEXT((#36))GLOBAL_UNIT_ASSIGNED_CONTEXT((#38,#39,#40))REPRESENTATION_CONTEXT('NONE','WORKSPACE'));
#11=STYLED_ITEM('',(#42),#43);
#12=STYLED_ITEM('',(#44),#45);
#13=STYLED_ITEM('',(#46),#47);
#14=STYLED_ITEM('',(#48),#49);
#15=STYLED_ITEM('',(#50),#51);
#16=STYLED_ITEM('',(#52),#53);
#17=STYLED_ITEM('',(#54),#55);
#18=STYLED_ITEM('',(#56),#57);
#19=STYLED_ITEM('',(#58),#59);
#20=STYLED_ITEM('',(#60),#61);
#21=STYLED_ITEM('',(#62),#63);
#22=STYLED_ITEM('',(#64),#65);
#23=STYLED_ITEM('',(#66),#67);
#24=STYLED_ITEM('',(#68),#69);
#25=STYLED_ITEM('',(#70),#71);
#26=STYLED_ITEM('',(#72),#73);
#27=STYLED_ITEM('',(#74),#75);
#28=APPLICATION_CONTEXT(' ');
#29=PRODUCT_CATEGORY('part','NONE');
#30=PRODUCT_RELATED_PRODUCT_CATEGORY('detail',' ',(#76));
#31=PRODUCT_DEFINITION_SHAPE('NONE','NONE',#77);
#32=ADVANCED_BREP_SHAPE_REPRESENTATION('HALDERN_EH_22050_1608_1',(#78,#79),#7);
#33=ADVANCED_BREP_SHAPE_REPRESENTATION('HALDERN_EH_22050_1608_2',(#80,#81),#7);
#36=UNCERTAINTY_MEASURE_WITH_UNIT(LENGTH_MEASURE(1.0E-06),#38,'','');
#38= (CONVERSION_BASED_UNIT('MILLIMETRE',#84)LENGTH_UNIT()NAMED_UNIT(#87));
#39= (NAMED_UNIT(#89)PLANE_ANGLE_UNIT()SI_UNIT($,.RADIAN.));
#40= (NAMED_UNIT(#89)SOLID_ANGLE_UNIT()SI_UNIT($,.STERADIAN.));
#42=PRESENTATION_STYLE_ASSIGNMENT((#95));
#43=ADVANCED_FACE('',(#96),#97,.T.);
#44=PRESENTATION_STYLE_ASSIGNMENT((#98));
#45=ADVANCED_FACE('',(#99),#100,.T.);
#46=PRESENTATION_STYLE_ASSIGNMENT((#101));
#47=ADVANCED_FACE('',(#102),#103,.F.);
#48=PRESENTATION_STYLE_ASSIGNMENT((#104));
#49=ADVANCED_FACE('',(#105),#106,.T.);
#50=PRESENTATION_STYLE_ASSIGNMENT((#107));
#51=ADVANCED_FACE('',(#108),#109,.T.);
#52=PRESENTATION_STYLE_ASSIGNMENT((#110));
#53=ADVANCED_FACE('',(#111),#112,.T.);
#54=PRESENTATION_STYLE_ASSIGNMENT((#113));
#55=ADVANCED_FACE('',(#114),#115,.T.);
#56=PRESENTATION_STYLE_ASSIGNMENT((#116));
#57=ADVANCED_FACE('',(#117),#118,.T.);
#58=PRESENTATION_STYLE_ASSIGNMENT((#119));
#59=ADVANCED_FACE('',(#120),#121,.T.);
#60=PRESENTATION_STYLE_ASSIGNMENT((#122));
#61=ADVANCED_FACE('',(#123),#124,.F.);
#62=PRESENTATION_STYLE_ASSIGNMENT((#125));
#63=ADVANCED_FACE('',(#126),#127,.F.);
#64=PRESENTATION_STYLE_ASSIGNMENT((#128));
#65=ADVANCED_FACE('',(#129),#130,.T.);
#66=PRESENTATION_STYLE_ASSIGNMENT((#131));
#67=ADVANCED_FACE('',(#132),#133,.T.);
#68=PRESENTATION_STYLE_ASSIGNMENT((#134));
#69=ADVANCED_FACE('',(#135,#136),#137,.T.);
#70=PRESENTATION_STYLE_ASSIGNMENT((#138));
#71=ADVANCED_FACE('',(#139),#140,.T.);
#72=PRESENTATION_STYLE_ASSIGNMENT((#141));
#73=ADVANCED_FACE('',(#142),#143,.T.);
#74=PRESENTATION_STYLE_ASSIGNMENT((#144));
#75=ADVANCED_FACE('',(#145),#146,.T.);
#76=PRODUCT('HALDERN_EH_22050_1608_1','HALDERN_EH_22050_1608_1','PART-HALDERN_EH_22050_1608_1-DESC',(#147));
#77=PRODUCT_DEFINITION('','NONE',#148,#2);
#78=MANIFOLD_SOLID_BREP('HALDERN_EH_22050_1608_1',#149);
#79=AXIS2_PLACEMENT_3D('',#150,#151,#152);
#80=MANIFOLD_SOLID_BREP('HALDERN_EH_22050_1608_2',#153);
#81=AXIS2_PLACEMENT_3D('',#154,#155,#156);
#84=LENGTH_MEASURE_WITH_UNIT(LENGTH_MEASURE(1.0),#157);
#87=DIMENSIONAL_EXPONENTS(1.0,0.0,0.0,0.0,0.0,0.0,0.0);
#89=DIMENSIONAL_EXPONENTS(0.0,0.0,0.0,0.0,0.0,0.0,0.0);
#95=SURFACE_STYLE_USAGE(.BOTH.,#158);
#96=FACE_OUTER_BOUND('',#159,.T.);
#97=CYLINDRICAL_SURFACE('',#160,4.0);
#98=SURFACE_STYLE_USAGE(.BOTH.,#161);
#99=FACE_OUTER_BOUND('',#162,.T.);
#100=CONICAL_SURFACE('',#163,3.48038475772934,0.523598775598299);
#101=SURFACE_STYLE_USAGE(.BOTH.,#164);
#102=FACE_OUTER_BOUND('',#165,.T.);
#103=CYLINDRICAL_SURFACE('',#166,2.25);
#104=SURFACE_STYLE_USAGE(.BOTH.,#167);
#105=FACE_OUTER_BOUND('',#168,.T.);
#106=CONICAL_SURFACE('',#169,3.48038475772934,0.523598775598299);
#107=SURFACE_STYLE_USAGE(.BOTH.,#170);
#108=FACE_OUTER_BOUND('',#171,.T.);
#109=PLANE('',#172);
#110=SURFACE_STYLE_USAGE(.BOTH.,#173);
#111=FACE_OUTER_BOUND('',#174,.T.);
#112=PLANE('',#175);
#113=SURFACE_STYLE_USAGE(.BOTH.,#176);
#114=FACE_OUTER_BOUND('',#177,.T.);
#115=PLANE('',#178);
#116=SURFACE_STYLE_USAGE(.BOTH.,#179);
#117=FACE_OUTER_BOUND('',#180,.T.);
#118=PLANE('',#181);
#119=SURFACE_STYLE_USAGE(.BOTH.,#182);
#120=FACE_OUTER_BOUND('',#183,.T.);
#121=CONICAL_SURFACE('',#184,3.48038475772934,0.523598775598299);
#122=SURFACE_STYLE_USAGE(.BOTH.,#185);
#123=FACE_OUTER_BOUND('',#186,.T.);
#124=CYLINDRICAL_SURFACE('',#187,2.25);
#125=SURFACE_STYLE_USAGE(.BOTH.,#188);
#126=FACE_OUTER_BOUND('',#189,.T.);
#127=PLANE('',#190);
#128=SURFACE_STYLE_USAGE(.BOTH.,#191);
#129=FACE_OUTER_BOUND('',#192,.T.);
#130=CONICAL_SURFACE('',#193,3.48038475772934,0.523598775598299);
#131=SURFACE_STYLE_USAGE(.BOTH.,#194);
#132=FACE_OUTER_BOUND('',#195,.T.);
#133=CYLINDRICAL_SURFACE('',#196,4.0);
#134=SURFACE_STYLE_USAGE(.BOTH.,#197);
#135=FACE_BOUND('',#198,.T.);
#136=FACE_OUTER_BOUND('',#199,.T.);
#137=PLANE('',#200);
#138=SURFACE_STYLE_USAGE(.BOTH.,#201);
#139=FACE_OUTER_BOUND('',#202,.T.);
#140=PLANE('',#203);
#141=SURFACE_STYLE_USAGE(.BOTH.,#204);
#142=FACE_OUTER_BOUND('',#205,.T.);
#143=SPHERICAL_SURFACE('',#206,2.25);
#144=SURFACE_STYLE_USAGE(.BOTH.,#207);
#145=FACE_OUTER_BOUND('',#208,.T.);
#146=SPHERICAL_SURFACE('',#209,2.25);
#147=PRODUCT_CONTEXT('',#28,'mechanical');
#148=PRODUCT_DEFINITION_FORMATION_WITH_SPECIFIED_SOURCE(' ','NONE',#76,.NOT_KNOWN.);
#149=CLOSED_SHELL('',(#43,#45,#47,#49,#51,#53,#55,#57,#59,#61,#63,#65,#67,#69,#71));
#150=CARTESIAN_POINT('',(0.0,0.0,0.0));
#151=DIRECTION('',(0.0,0.0,1.0));
#152=DIRECTION('',(1.0,0.0,0.0));
#153=CLOSED_SHELL('',(#73,#75));
#154=CARTESIAN_POINT('',(0.0,0.0,0.0));
#155=DIRECTION('',(0.0,0.0,1.0));
#156=DIRECTION('',(1.0,0.0,0.0));
#157= (NAMED_UNIT(#87)LENGTH_UNIT()SI_UNIT(.MILLI.,.METRE.));
#158=SURFACE_SIDE_STYLE('',(#211));
#159=EDGE_LOOP('',(#212,#213,#214,#215,#216,#217));
#160=AXIS2_PLACEMENT_3D('',#218,#219,#220);
#161=SURFACE_SIDE_STYLE('',(#221));
#162=EDGE_LOOP('',(#222,#223,#224,#225,#226));
#163=AXIS2_PLACEMENT_3D('',#227,#228,#229);
#164=SURFACE_SIDE_STYLE('',(#230));
#165=EDGE_LOOP('',(#231,#232,#233,#234));
#166=AXIS2_PLACEMENT_3D('',#235,#236,#237);
#167=SURFACE_SIDE_STYLE('',(#238));
#168=EDGE_LOOP('',(#239,#240,#241,#242,#243,#244,#245,#246,#247));
#169=AXIS2_PLACEMENT_3D('',#248,#249,#250);
#170=SURFACE_SIDE_STYLE('',(#251));
#171=EDGE_LOOP('',(#252,#253,#254,#255));
#172=AXIS2_PLACEMENT_3D('',#256,#257,#258);
#173=SURFACE_SIDE_STYLE('',(#259));
#174=EDGE_LOOP('',(#260,#261,#262,#263,#264,#265));
#175=AXIS2_PLACEMENT_3D('',#266,#267,#268);
#176=SURFACE_SIDE_STYLE('',(#269));
#177=EDGE_LOOP('',(#270,#271,#272,#273));
#178=AXIS2_PLACEMENT_3D('',#274,#275,#276);
#179=SURFACE_SIDE_STYLE('',(#277));
#180=EDGE_LOOP('',(#278,#279));
#181=AXIS2_PLACEMENT_3D('',#280,#281,#282);
#182=SURFACE_SIDE_STYLE('',(#283));
#183=EDGE_LOOP('',(#284,#285,#286,#287,#288,#289,#290,#291,#292));
#184=AXIS2_PLACEMENT_3D('',#293,#294,#295);
#185=SURFACE_SIDE_STYLE('',(#296));
#186=EDGE_LOOP('',(#297,#298,#299,#300));
#187=AXIS2_PLACEMENT_3D('',#301,#302,#303);
#188=SURFACE_SIDE_STYLE('',(#304));
#189=EDGE_LOOP('',(#305,#306));
#190=AXIS2_PLACEMENT_3D('',#307,#308,#309);
#191=SURFACE_SIDE_STYLE('',(#310));
#192=EDGE_LOOP('',(#311,#312,#313,#314,#315));
#193=AXIS2_PLACEMENT_3D('',#316,#317,#318);
#194=SURFACE_SIDE_STYLE('',(#319));
#195=EDGE_LOOP('',(#320,#321,#322,#323,#324,#325));
#196=AXIS2_PLACEMENT_3D('',#326,#327,#328);
#197=SURFACE_SIDE_STYLE('',(#329));
#198=EDGE_LOOP('',(#330,#331));
#199=EDGE_LOOP('',(#332,#333));
#200=AXIS2_PLACEMENT_3D('',#334,#335,#336);
#201=SURFACE_SIDE_STYLE('',(#337));
#202=EDGE_LOOP('',(#338,#339));
#203=AXIS2_PLACEMENT_3D('',#340,#341,#342);
#204=SURFACE_SIDE_STYLE('',(#343));
#205=EDGE_LOOP('',(#344,#345));
#206=AXIS2_PLACEMENT_3D('',#346,#347,#348);
#207=SURFACE_SIDE_STYLE('',(#349));
#208=EDGE_LOOP('',(#350,#351));
#209=AXIS2_PLACEMENT_3D('',#352,#353,#354);
#211=SURFACE_STYLE_FILL_AREA(#355);
#212=ORIENTED_EDGE('',*,*,#356,.F.);
#213=ORIENTED_EDGE('',*,*,#357,.T.);
#214=ORIENTED_EDGE('',*,*,#358,.T.);
#215=ORIENTED_EDGE('',*,*,#359,.F.);
#216=ORIENTED_EDGE('',*,*,#360,.T.);
#217=ORIENTED_EDGE('',*,*,#361,.T.);
#218=CARTESIAN_POINT('',(0.0,0.0,9.5));
#219=DIRECTION('',(0.0,0.0,1.0));
#220=DIRECTION('',(1.0,0.0,0.0));
#221=SURFACE_STYLE_FILL_AREA(#362);
#222=ORIENTED_EDGE('',*,*,#363,.F.);
#223=ORIENTED_EDGE('',*,*,#364,.F.);
#224=ORIENTED_EDGE('',*,*,#365,.F.);
#225=ORIENTED_EDGE('',*,*,#366,.F.);
#226=ORIENTED_EDGE('',*,*,#358,.F.);
#227=CARTESIAN_POINT('',(-5.5107285922007E-17,0.0,2.4));
#228=DIRECTION('',(-6.12303176911189E-17,-0.0,1.0));
#229=DIRECTION('',(0.0,1.0,0.0));
#230=SURFACE_STYLE_FILL_AREA(#367);
#231=ORIENTED_EDGE('',*,*,#368,.F.);
#232=ORIENTED_EDGE('',*,*,#369,.T.);
#233=ORIENTED_EDGE('',*,*,#370,.F.);
#234=ORIENTED_EDGE('',*,*,#371,.F.);
#235=CARTESIAN_POINT('',(0.0,0.0,6.6));
#236=DIRECTION('',(0.0,0.0,1.0));
#237=DIRECTION('',(1.0,0.0,0.0));
#238=SURFACE_STYLE_FILL_AREA(#372);
#239=ORIENTED_EDGE('',*,*,#373,.F.);
#240=ORIENTED_EDGE('',*,*,#374,.T.);
#241=ORIENTED_EDGE('',*,*,#375,.T.);
#242=ORIENTED_EDGE('',*,*,#376,.F.);
#243=ORIENTED_EDGE('',*,*,#377,.T.);
#244=ORIENTED_EDGE('',*,*,#378,.T.);
#245=ORIENTED_EDGE('',*,*,#379,.F.);
#246=ORIENTED_EDGE('',*,*,#380,.F.);
#247=ORIENTED_EDGE('',*,*,#361,.F.);
#248=CARTESIAN_POINT('',(-5.5107285922007E-17,0.0,16.6));
#249=DIRECTION('',(-6.12303176911189E-17,0.0,-1.0));
#250=DIRECTION('',(0.0,1.0,0.0));
#251=SURFACE_STYLE_FILL_AREA(#381);
#252=ORIENTED_EDGE('',*,*,#375,.F.);
#253=ORIENTED_EDGE('',*,*,#382,.T.);
#254=ORIENTED_EDGE('',*,*,#377,.F.);
#255=ORIENTED_EDGE('',*,*,#383,.F.);
#256=CARTESIAN_POINT('',(0.6,0.0,17.2));
#257=DIRECTION('',(-1.0,0.0,0.0));
#258=DIRECTION('',(0.0,0.0,1.0));
#259=SURFACE_STYLE_FILL_AREA(#384);
#260=ORIENTED_EDGE('',*,*,#385,.F.);
#261=ORIENTED_EDGE('',*,*,#386,.F.);
#262=ORIENTED_EDGE('',*,*,#387,.F.);
#263=ORIENTED_EDGE('',*,*,#378,.F.);
#264=ORIENTED_EDGE('',*,*,#382,.F.);
#265=ORIENTED_EDGE('',*,*,#374,.F.);
#266=CARTESIAN_POINT('',(0.0,0.0,15.9));
#267=DIRECTION('',(0.0,0.0,1.0));
#268=DIRECTION('',(1.0,0.0,0.0));
#269=SURFACE_STYLE_FILL_AREA(#388);
#270=ORIENTED_EDGE('',*,*,#389,.F.);
#271=ORIENTED_EDGE('',*,*,#390,.F.);
#272=ORIENTED_EDGE('',*,*,#391,.F.);
#273=ORIENTED_EDGE('',*,*,#386,.T.);
#274=CARTESIAN_POINT('',(-0.6,0.0,17.2));
#275=DIRECTION('',(1.0,0.0,0.0));
#276=DIRECTION('',(0.0,0.0,-1.0));
#277=SURFACE_STYLE_FILL_AREA(#392);
#278=ORIENTED_EDGE('',*,*,#383,.T.);
#279=ORIENTED_EDGE('',*,*,#376,.T.);
#280=CARTESIAN_POINT('',(0.0,0.0,17.5));
#281=DIRECTION('',(0.0,0.0,1.0));
#282=DIRECTION('',(1.0,0.0,0.0));
#283=SURFACE_STYLE_FILL_AREA(#393);
#284=ORIENTED_EDGE('',*,*,#373,.T.);
#285=ORIENTED_EDGE('',*,*,#360,.F.);
#286=ORIENTED_EDGE('',*,*,#394,.F.);
#287=ORIENTED_EDGE('',*,*,#379,.T.);
#288=ORIENTED_EDGE('',*,*,#387,.T.);
#289=ORIENTED_EDGE('',*,*,#391,.T.);
#290=ORIENTED_EDGE('',*,*,#395,.F.);
#291=ORIENTED_EDGE('',*,*,#389,.T.);
#292=ORIENTED_EDGE('',*,*,#385,.T.);
#293=CARTESIAN_POINT('',(-5.5107285922007E-17,0.0,16.6));
#294=DIRECTION('',(-6.12303176911189E-17,0.0,-1.0));
#295=DIRECTION('',(0.0,1.0,0.0));
#296=SURFACE_STYLE_FILL_AREA(#396);
#297=ORIENTED_EDGE('',*,*,#368,.T.);
#298=ORIENTED_EDGE('',*,*,#397,.F.);
#299=ORIENTED_EDGE('',*,*,#370,.T.);
#300=ORIENTED_EDGE('',*,*,#398,.T.);
#301=CARTESIAN_POINT('',(0.0,0.0,6.6));
#302=DIRECTION('',(0.0,0.0,1.0));
#303=DIRECTION('',(1.0,0.0,0.0));
#304=SURFACE_STYLE_FILL_AREA(#399);
#305=ORIENTED_EDGE('',*,*,#369,.F.);
#306=ORIENTED_EDGE('',*,*,#398,.F.);
#307=CARTESIAN_POINT('',(0.0,0.0,12.7));
#308=DIRECTION('',(0.0,0.0,1.0));
#309=DIRECTION('',(1.0,0.0,0.0));
#310=SURFACE_STYLE_FILL_AREA(#400);
#311=ORIENTED_EDGE('',*,*,#363,.T.);
#312=ORIENTED_EDGE('',*,*,#357,.F.);
#313=ORIENTED_EDGE('',*,*,#401,.F.);
#314=ORIENTED_EDGE('',*,*,#365,.T.);
#315=ORIENTED_EDGE('',*,*,#402,.F.);
#316=CARTESIAN_POINT('',(-5.5107285922007E-17,0.0,2.4));
#317=DIRECTION('',(-6.12303176911189E-17,-0.0,1.0));
#318=DIRECTION('',(0.0,1.0,0.0));
#319=SURFACE_STYLE_FILL_AREA(#403);
#320=ORIENTED_EDGE('',*,*,#356,.T.);
#321=ORIENTED_EDGE('',*,*,#380,.T.);
#322=ORIENTED_EDGE('',*,*,#394,.T.);
#323=ORIENTED_EDGE('',*,*,#359,.T.);
#324=ORIENTED_EDGE('',*,*,#366,.T.);
#325=ORIENTED_EDGE('',*,*,#401,.T.);
#326=CARTESIAN_POINT('',(0.0,0.0,9.5));
#327=DIRECTION('',(0.0,0.0,1.0));
#328=DIRECTION('',(1.0,0.0,0.0));
#329=SURFACE_STYLE_FILL_AREA(#404);
#330=ORIENTED_EDGE('',*,*,#397,.T.);
#331=ORIENTED_EDGE('',*,*,#371,.T.);
#332=ORIENTED_EDGE('',*,*,#402,.T.);
#333=ORIENTED_EDGE('',*,*,#364,.T.);
#334=CARTESIAN_POINT('',(0.0,0.0,1.5));
#335=DIRECTION('',(0.0,0.0,-1.0));
#336=DIRECTION('',(-1.0,0.0,0.0));
#337=SURFACE_STYLE_FILL_AREA(#405);
#338=ORIENTED_EDGE('',*,*,#390,.T.);
#339=ORIENTED_EDGE('',*,*,#395,.T.);
#340=CARTESIAN_POINT('',(0.0,0.0,17.5));
#341=DIRECTION('',(0.0,0.0,1.0));
#342=DIRECTION('',(1.0,0.0,0.0));
#343=SURFACE_STYLE_FILL_AREA(#406);
#344=ORIENTED_EDGE('',*,*,#407,.F.);
#345=ORIENTED_EDGE('',*,*,#408,.F.);
#346=CARTESIAN_POINT('',(0.0,0.0,2.25));
#347=DIRECTION('',(0.0,0.0,1.0));
#348=DIRECTION('',(1.0,0.0,0.0));
#349=SURFACE_STYLE_FILL_AREA(#409);
#350=ORIENTED_EDGE('',*,*,#407,.T.);
#351=ORIENTED_EDGE('',*,*,#408,.T.);
#352=CARTESIAN_POINT('',(0.0,0.0,2.25));
#353=DIRECTION('',(0.0,0.0,1.0));
#354=DIRECTION('',(1.0,0.0,0.0));
#355=FILL_AREA_STYLE('',(#410));
#356=EDGE_CURVE('',#411,#412,#413,.T.);
#357=EDGE_CURVE('',#411,#414,#415,.T.);
#358=EDGE_CURVE('',#414,#416,#417,.T.);
#359=EDGE_CURVE('',#418,#416,#419,.T.);
#360=EDGE_CURVE('',#418,#420,#421,.T.);
#361=EDGE_CURVE('',#420,#412,#422,.T.);
#362=FILL_AREA_STYLE('',(#423));
#363=EDGE_CURVE('',#424,#414,#425,.T.);
#364=EDGE_CURVE('',#426,#424,#427,.T.);
#365=EDGE_CURVE('',#428,#426,#429,.T.);
#366=EDGE_CURVE('',#416,#428,#430,.T.);
#367=FILL_AREA_STYLE('',(#431));
#368=EDGE_CURVE('',#432,#433,#434,.T.);
#369=EDGE_CURVE('',#432,#435,#436,.T.);
#370=EDGE_CURVE('',#437,#435,#438,.T.);
#371=EDGE_CURVE('',#433,#437,#439,.T.);
#372=FILL_AREA_STYLE('',(#440));
#373=EDGE_CURVE('',#441,#420,#442,.T.);
#374=EDGE_CURVE('',#441,#443,#444,.T.);
#375=EDGE_CURVE('',#443,#445,#446,.T.);
#376=EDGE_CURVE('',#447,#445,#448,.T.);
#377=EDGE_CURVE('',#447,#449,#450,.T.);
#378=EDGE_CURVE('',#449,#451,#452,.T.);
#379=EDGE_CURVE('',#453,#451,#454,.T.);
#380=EDGE_CURVE('',#412,#453,#455,.T.);
#381=FILL_AREA_STYLE('',(#456));
#382=EDGE_CURVE('',#443,#449,#457,.T.);
#383=EDGE_CURVE('',#445,#447,#458,.T.);
#384=FILL_AREA_STYLE('',(#459));
#385=EDGE_CURVE('',#460,#441,#461,.T.);
#386=EDGE_CURVE('',#462,#460,#463,.T.);
#387=EDGE_CURVE('',#451,#462,#464,.T.);
#388=FILL_AREA_STYLE('',(#465));
#389=EDGE_CURVE('',#466,#460,#467,.T.);
#390=EDGE_CURVE('',#468,#466,#469,.T.);
#391=EDGE_CURVE('',#462,#468,#470,.T.);
#392=FILL_AREA_STYLE('',(#471));
#393=FILL_AREA_STYLE('',(#472));
#394=EDGE_CURVE('',#453,#418,#473,.T.);
#395=EDGE_CURVE('',#466,#468,#474,.T.);
#396=FILL_AREA_STYLE('',(#475));
#397=EDGE_CURVE('',#437,#433,#476,.T.);
#398=EDGE_CURVE('',#435,#432,#477,.T.);
#399=FILL_AREA_STYLE('',(#478));
#400=FILL_AREA_STYLE('',(#479));
#401=EDGE_CURVE('',#428,#411,#480,.T.);
#402=EDGE_CURVE('',#424,#426,#481,.T.);
#403=FILL_AREA_STYLE('',(#482));
#404=FILL_AREA_STYLE('',(#483));
#405=FILL_AREA_STYLE('',(#484));
#406=FILL_AREA_STYLE('',(#485));
#407=EDGE_CURVE('',#486,#487,#488,.T.);
#408=EDGE_CURVE('',#487,#486,#489,.T.);
#409=FILL_AREA_STYLE('',(#490));
#410=FILL_AREA_STYLE_COLOUR('',#491);
#411=VERTEX_POINT('',#492);
#412=VERTEX_POINT('',#493);
#413=LINE('',#494,#495);
#414=VERTEX_POINT('',#496);
#415=CIRCLE('',#497,4.0);
#416=VERTEX_POINT('',#498);
#417=CIRCLE('',#499,4.0);
#418=VERTEX_POINT('',#500);
#419=LINE('',#501,#502);
#420=VERTEX_POINT('',#503);
#421=CIRCLE('',#504,4.0);
#422=CIRCLE('',#505,4.0);
#423=FILL_AREA_STYLE_COLOUR('',#506);
#424=VERTEX_POINT('',#507);
#425=LINE('',#508,#509);
#426=VERTEX_POINT('',#510);
#427=CIRCLE('',#511,2.96076951545867);
#428=VERTEX_POINT('',#512);
#429=LINE('',#513,#514);
#430=CIRCLE('',#515,4.0);
#431=FILL_AREA_STYLE_COLOUR('',#516);
#432=VERTEX_POINT('',#517);
#433=VERTEX_POINT('',#518);
#434=LINE('',#519,#520);
#435=VERTEX_POINT('',#521);
#436=CIRCLE('',#522,2.25);
#437=VERTEX_POINT('',#523);
#438=LINE('',#524,#525);
#439=CIRCLE('',#526,2.25);
#440=FILL_AREA_STYLE_COLOUR('',#527);
#441=VERTEX_POINT('',#528);
#442=LINE('',#529,#530);
#443=VERTEX_POINT('',#531);
#444=CIRCLE('',#532,3.88452994616208);
#445=VERTEX_POINT('',#533);
#446=(B_SPLINE_CURVE(2,(#535,#536,#537),.UNSPECIFIED.,.F.,.F.)B_SPLINE_CURVE_WITH_KNOTS((3,3),(0.0,1.85497356200678),.UNSPECIFIED.)RATIONAL_B_SPLINE_CURVE((1.0,1.00953455247438,1.0))BOUNDED_CURVE()REPRESENTATION_ITEM('')GEOMETRIC_REPRESENTATION_ITEM()CURVE());
#447=VERTEX_POINT('',#544);
#448=CIRCLE('',#545,2.96076951545867);
#449=VERTEX_POINT('',#546);
#450=(B_SPLINE_CURVE(2,(#548,#549,#550),.UNSPECIFIED.,.F.,.F.)B_SPLINE_CURVE_WITH_KNOTS((3,3),(0.0,1.85497356200678),.UNSPECIFIED.)RATIONAL_B_SPLINE_CURVE((1.0,1.00953455247438,1.0))BOUNDED_CURVE()REPRESENTATION_ITEM('')GEOMETRIC_REPRESENTATION_ITEM()CURVE());
#451=VERTEX_POINT('',#557);
#452=CIRCLE('',#558,3.88452994616208);
#453=VERTEX_POINT('',#559);
#454=LINE('',#560,#561);
#455=CIRCLE('',#562,4.0);
#456=FILL_AREA_STYLE_COLOUR('',#563);
#457=LINE('',#564,#565);
#458=LINE('',#566,#567);
#459=FILL_AREA_STYLE_COLOUR('',#568);
#460=VERTEX_POINT('',#569);
#461=CIRCLE('',#570,3.88452994616208);
#462=VERTEX_POINT('',#571);
#463=LINE('',#572,#573);
#464=CIRCLE('',#574,3.88452994616208);
#465=FILL_AREA_STYLE_COLOUR('',#575);
#466=VERTEX_POINT('',#576);
#467=(B_SPLINE_CURVE(2,(#578,#579,#580),.UNSPECIFIED.,.F.,.F.)B_SPLINE_CURVE_WITH_KNOTS((3,3),(0.0,1.85497356200678),.UNSPECIFIED.)RATIONAL_B_SPLINE_CURVE((1.0,1.00953455247503,1.0))BOUNDED_CURVE()REPRESENTATION_ITEM('')GEOMETRIC_REPRESENTATION_ITEM()CURVE());
#468=VERTEX_POINT('',#587);
#469=LINE('',#588,#589);
#470=(B_SPLINE_CURVE(2,(#591,#592,#593),.UNSPECIFIED.,.F.,.F.)B_SPLINE_CURVE_WITH_KNOTS((3,3),(0.0,1.85497356200678),.UNSPECIFIED.)RATIONAL_B_SPLINE_CURVE((1.0,1.00953455247503,1.0))BOUNDED_CURVE()REPRESENTATION_ITEM('')GEOMETRIC_REPRESENTATION_ITEM()CURVE());
#471=FILL_AREA_STYLE_COLOUR('',#600);
#472=FILL_AREA_STYLE_COLOUR('',#601);
#473=CIRCLE('',#602,4.0);
#474=CIRCLE('',#603,2.96076951545867);
#475=FILL_AREA_STYLE_COLOUR('',#604);
#476=CIRCLE('',#605,2.25);
#477=CIRCLE('',#606,2.25);
#478=FILL_AREA_STYLE_COLOUR('',#607);
#479=FILL_AREA_STYLE_COLOUR('',#608);
#480=CIRCLE('',#609,4.0);
#481=CIRCLE('',#610,2.96076951545867);
#482=FILL_AREA_STYLE_COLOUR('',#611);
#483=FILL_AREA_STYLE_COLOUR('',#612);
#484=FILL_AREA_STYLE_COLOUR('',#613);
#485=FILL_AREA_STYLE_COLOUR('',#614);
#486=VERTEX_POINT('',#615);
#487=VERTEX_POINT('',#616);
#488=CIRCLE('',#617,2.25);
#489=CIRCLE('',#618,2.25);
#490=FILL_AREA_STYLE_COLOUR('',#619);
#491=COLOUR_RGB('',0.752941191196442,0.752941191196442,0.752941191196442);
#492=CARTESIAN_POINT('',(4.0,-4.89842541528951E-16,3.3));
#493=CARTESIAN_POINT('',(4.0,-4.89842541528951E-16,15.7));
#494=CARTESIAN_POINT('',(4.0,-4.89842541528951E-16,9.5));
#495=VECTOR('',#620,1.0);
#496=CARTESIAN_POINT('',(-1.10214571844014E-16,4.0,3.3));
#497=AXIS2_PLACEMENT_3D('',#621,#622,#623);
#498=CARTESIAN_POINT('',(-4.0,4.89842541528951E-16,3.3));
#499=AXIS2_PLACEMENT_3D('',#624,#625,#626);
#500=CARTESIAN_POINT('',(-4.0,4.89842541528951E-16,15.7));
#501=CARTESIAN_POINT('',(-4.0,4.89842541528951E-16,9.5));
#502=VECTOR('',#627,1.0);
#503=CARTESIAN_POINT('',(-1.10214571844014E-16,4.0,15.7));
#504=AXIS2_PLACEMENT_3D('',#628,#629,#630);
#505=AXIS2_PLACEMENT_3D('',#631,#632,#633);
#506=COLOUR_RGB('',0.752941191196442,0.752941191196442,0.752941191196442);
#507=CARTESIAN_POINT('',(0.0,2.96076951545867,1.5));
#508=CARTESIAN_POINT('',(-4.81317414728197E-16,3.48038475772934,2.4));
#509=VECTOR('',#634,1.0);
#510=CARTESIAN_POINT('',(3.62577716083429E-16,-2.96076951545867,1.5));
#511=AXIS2_PLACEMENT_3D('',#635,#636,#637);
#512=CARTESIAN_POINT('',(3.79627969684937E-16,-4.0,3.3));
#513=CARTESIAN_POINT('',(3.71102842884183E-16,-3.48038475772934,2.4));
#514=VECTOR('',#638,1.0);
#515=AXIS2_PLACEMENT_3D('',#639,#640,#641);
#516=COLOUR_RGB('',0.752941191196442,0.752941191196442,0.752941191196442);
#517=CARTESIAN_POINT('',(2.25,0.0,12.7));
#518=CARTESIAN_POINT('',(2.25,-2.75536429610035E-16,1.5));
#519=CARTESIAN_POINT('',(2.25,-2.75536429610035E-16,6.6));
#520=VECTOR('',#642,1.0);
#521=CARTESIAN_POINT('',(-2.25,2.75536429610035E-16,12.7));
#522=AXIS2_PLACEMENT_3D('',#643,#644,#645);
#523=CARTESIAN_POINT('',(-2.25,-2.75536429610035E-16,1.5));
#524=CARTESIAN_POINT('',(-2.25,2.75536429610035E-16,6.6));
#525=VECTOR('',#646,1.0);
#526=AXIS2_PLACEMENT_3D('',#647,#648,#649);
#527=COLOUR_RGB('',0.752941191196442,0.752941191196442,0.752941191196442);
#528=CARTESIAN_POINT('',(3.77733497062547E-16,3.88452994616207,15.9));
#529=CARTESIAN_POINT('',(3.71102842884183E-16,3.48038475772934,16.6));
#530=VECTOR('',#650,1.0);
#531=CARTESIAN_POINT('',(0.6,3.83791257099871,15.9));
#532=AXIS2_PLACEMENT_3D('',#651,#652,#653);
#533=CARTESIAN_POINT('',(0.6,2.8993371869566,17.5));
#535=CARTESIAN_POINT('',(0.6,3.83791257099871,15.9));
#536=CARTESIAN_POINT('',(0.6,3.30529537777198,16.8114490829662));
#537=CARTESIAN_POINT('',(0.6,2.8993371869566,17.5));
#544=CARTESIAN_POINT('',(0.6,-2.8993371869566,17.5));
#545=AXIS2_PLACEMENT_3D('',#654,#655,#656);
#546=CARTESIAN_POINT('',(0.6,-3.83791257099871,15.9));
#548=CARTESIAN_POINT('',(0.6,-2.8993371869566,17.5));
#549=CARTESIAN_POINT('',(0.6,-3.30529537777198,16.8114490829662));
#550=CARTESIAN_POINT('',(0.6,-3.83791257099871,15.9));
#557=CARTESIAN_POINT('',(-5.73670513674128E-16,-3.88452994616207,15.9));
#558=AXIS2_PLACEMENT_3D('',#657,#658,#659);
#559=CARTESIAN_POINT('',(-6.00057113372965E-16,-4.0,15.7));
#560=CARTESIAN_POINT('',(-4.81317414728197E-16,-3.48038475772934,16.6));
#561=VECTOR('',#660,1.0);
#562=AXIS2_PLACEMENT_3D('',#661,#662,#663);
#563=COLOUR_RGB('',0.752941191196442,0.752941191196442,0.752941191196442);
#564=CARTESIAN_POINT('',(0.6,0.0,15.9));
#565=VECTOR('',#664,1.0);
#566=CARTESIAN_POINT('',(0.6,0.0,17.5));
#567=VECTOR('',#665,1.0);
#568=COLOUR_RGB('',0.752941191196442,0.752941191196442,0.752941191196442);
#569=CARTESIAN_POINT('',(-0.6,3.83791257099871,15.9));
#570=AXIS2_PLACEMENT_3D('',#666,#667,#668);
#571=CARTESIAN_POINT('',(-0.6,-3.83791257099871,15.9));
#572=CARTESIAN_POINT('',(-0.6,0.0,15.9));
#573=VECTOR('',#669,1.0);
#574=AXIS2_PLACEMENT_3D('',#670,#671,#672);
#575=COLOUR_RGB('',0.752941191196442,0.752941191196442,0.752941191196442);
#576=CARTESIAN_POINT('',(-0.6,2.8993371869566,17.5));
#578=CARTESIAN_POINT('',(-0.6,2.8993371869566,17.5));
#579=CARTESIAN_POINT('',(-0.6,3.30529537777203,16.8114490829661));
#580=CARTESIAN_POINT('',(-0.6,3.83791257099871,15.9));
#587=CARTESIAN_POINT('',(-0.6,-2.8993371869566,17.5));
#588=CARTESIAN_POINT('',(-0.6,0.0,17.5));
#589=VECTOR('',#673,1.0);
#591=CARTESIAN_POINT('',(-0.6,-3.83791257099871,15.9));
#592=CARTESIAN_POINT('',(-0.6,-3.30529537777203,16.8114490829661));
#593=CARTESIAN_POINT('',(-0.6,-2.8993371869566,17.5));
#600=COLOUR_RGB('',0.752941191196442,0.752941191196442,0.752941191196442);
#601=COLOUR_RGB('',0.752941191196442,0.752941191196442,0.752941191196442);
#602=AXIS2_PLACEMENT_3D('',#674,#675,#676);
#603=AXIS2_PLACEMENT_3D('',#677,#678,#679);
#604=COLOUR_RGB('',0.752941191196442,0.752941191196442,0.752941191196442);
#605=AXIS2_PLACEMENT_3D('',#680,#681,#682);
#606=AXIS2_PLACEMENT_3D('',#683,#684,#685);
#607=COLOUR_RGB('',0.752941191196442,0.752941191196442,0.752941191196442);
#608=COLOUR_RGB('',0.752941191196442,0.752941191196442,0.752941191196442);
#609=AXIS2_PLACEMENT_3D('',#686,#687,#688);
#610=AXIS2_PLACEMENT_3D('',#689,#690,#691);
#611=COLOUR_RGB('',0.752941191196442,0.752941191196442,0.752941191196442);
#612=COLOUR_RGB('',0.752941191196442,0.752941191196442,0.752941191196442);
#613=COLOUR_RGB('',0.752941191196442,0.752941191196442,0.752941191196442);
#614=COLOUR_RGB('',0.352941185235977,0.352941185235977,0.352941185235977);
#615=CARTESIAN_POINT('',(2.75536429610035E-16,-3.37423662409981E-32,0.0));
#616=CARTESIAN_POINT('',(0.0,0.0,4.5));
#617=AXIS2_PLACEMENT_3D('',#692,#693,#694);
#618=AXIS2_PLACEMENT_3D('',#695,#696,#697);
#619=COLOUR_RGB('',0.352941185235977,0.352941185235977,0.352941185235977);
#620=DIRECTION('',(0.0,0.0,1.0));
#621=CARTESIAN_POINT('',(0.0,0.0,3.3));
#622=DIRECTION('',(-6.12303176911189E-17,0.0,1.0));
#623=DIRECTION('',(1.0,0.0,6.12303176911189E-17));
#624=CARTESIAN_POINT('',(0.0,0.0,3.3));
#625=DIRECTION('',(-6.12303176911189E-17,0.0,1.0));
#626=DIRECTION('',(1.0,0.0,6.12303176911189E-17));
#627=DIRECTION('',(-0.0,-0.0,-1.0));
#628=CARTESIAN_POINT('',(0.0,0.0,15.7));
#629=DIRECTION('',(-6.12303176911189E-17,0.0,-1.0));
#630=DIRECTION('',(1.0,0.0,-6.12303176911189E-17));
#631=CARTESIAN_POINT('',(0.0,0.0,15.7));
#632=DIRECTION('',(-6.12303176911189E-17,0.0,-1.0));
#633=DIRECTION('',(1.0,0.0,-6.12303176911189E-17));
#634=DIRECTION('',(-1.1425732829342E-16,0.5,0.866025403784439));
#635=CARTESIAN_POINT('',(-1.23259516440783E-32,0.0,1.5));
#636=DIRECTION('',(0.0,0.0,-1.0));
#637=DIRECTION('',(0.0,1.0,0.0));
#638=DIRECTION('',(-8.20330708881817E-18,0.5,-0.866025403784439));
#639=CARTESIAN_POINT('',(0.0,0.0,3.3));
#640=DIRECTION('',(-6.12303176911189E-17,0.0,1.0));
#641=DIRECTION('',(1.0,0.0,6.12303176911189E-17));
#642=DIRECTION('',(-0.0,0.0,-1.0));
#643=CARTESIAN_POINT('',(0.0,0.0,12.7));
#644=DIRECTION('',(0.0,0.0,1.0));
#645=DIRECTION('',(1.0,0.0,0.0));
#646=DIRECTION('',(-0.0,0.0,1.0));
#647=CARTESIAN_POINT('',(0.0,0.0,1.5));
#648=DIRECTION('',(0.0,0.0,1.0));
#649=DIRECTION('',(1.0,0.0,0.0));
#650=DIRECTION('',(8.20330708881812E-18,0.5,-0.866025403784439));
#651=CARTESIAN_POINT('',(-9.79685083057901E-17,0.0,15.9));
#652=DIRECTION('',(0.0,0.0,-1.0));
#653=DIRECTION('',(0.0,1.0,0.0));
#654=CARTESIAN_POINT('',(9.86076131526265E-32,0.0,17.5));
#655=DIRECTION('',(0.0,-0.0,1.0));
#656=DIRECTION('',(0.0,1.0,0.0));
#657=CARTESIAN_POINT('',(-9.79685083057901E-17,0.0,15.9));
#658=DIRECTION('',(0.0,0.0,-1.0));
#659=DIRECTION('',(0.0,1.0,0.0));
#660=DIRECTION('',(1.1425732829342E-16,0.5,0.866025403784439));
#661=CARTESIAN_POINT('',(0.0,0.0,15.7));
#662=DIRECTION('',(-6.12303176911189E-17,0.0,-1.0));
#663=DIRECTION('',(1.0,0.0,-6.12303176911189E-17));
#664=DIRECTION('',(0.0,-1.0,0.0));
#665=DIRECTION('',(0.0,-1.0,0.0));
#666=CARTESIAN_POINT('',(-9.79685083057901E-17,0.0,15.9));
#667=DIRECTION('',(0.0,0.0,-1.0));
#668=DIRECTION('',(0.0,1.0,0.0));
#669=DIRECTION('',(0.0,1.0,0.0));
#670=CARTESIAN_POINT('',(-9.79685083057901E-17,0.0,15.9));
#671=DIRECTION('',(0.0,0.0,-1.0));
#672=DIRECTION('',(0.0,1.0,0.0));
#673=DIRECTION('',(0.0,1.0,0.0));
#674=CARTESIAN_POINT('',(0.0,0.0,15.7));
#675=DIRECTION('',(-6.12303176911189E-17,0.0,-1.0));
#676=DIRECTION('',(1.0,0.0,-6.12303176911189E-17));
#677=CARTESIAN_POINT('',(9.86076131526265E-32,0.0,17.5));
#678=DIRECTION('',(0.0,-0.0,1.0));
#679=DIRECTION('',(0.0,1.0,0.0));
#680=CARTESIAN_POINT('',(0.0,0.0,1.5));
#681=DIRECTION('',(0.0,0.0,1.0));
#682=DIRECTION('',(1.0,0.0,0.0));
#683=CARTESIAN_POINT('',(0.0,0.0,12.7));
#684=DIRECTION('',(0.0,0.0,1.0));
#685=DIRECTION('',(1.0,0.0,0.0));
#686=CARTESIAN_POINT('',(0.0,0.0,3.3));
#687=DIRECTION('',(-6.12303176911189E-17,0.0,1.0));
#688=DIRECTION('',(1.0,0.0,6.12303176911189E-17));
#689=CARTESIAN_POINT('',(-1.23259516440783E-32,0.0,1.5));
#690=DIRECTION('',(0.0,0.0,-1.0));
#691=DIRECTION('',(0.0,1.0,0.0));
#692=CARTESIAN_POINT('',(0.0,0.0,2.25));
#693=DIRECTION('',(-1.22460635382238E-16,-1.0,0.0));
#694=DIRECTION('',(0.0,0.0,1.0));
#695=CARTESIAN_POINT('',(0.0,0.0,2.25));
#696=DIRECTION('',(-1.22460635382238E-16,-1.0,0.0));
#697=DIRECTION('',(0.0,0.0,1.0));
ENDSEC;
END-ISO-10303-21;
