ISO-10303-21;
HEADER;
FILE_DESCRIPTION(('STEP AP214'),'1');
FILE_NAME('HALDERN_EH_22082_0006.stp','2019-11-18T07:26:33',('TraceParts'),('TraceParts S.A.'),'Spatial InterOp 3D',' ',' ');
FILE_SCHEMA(('AUTOMOTIVE_DESIGN { 1 0 10303 214 1 1 1 1 }'));
ENDSEC;
DATA;
#1=PRODUCT_DEFINITION_CONTEXT('',#9,'design');
#2=APPLICATION_PROTOCOL_DEFINITION('INTERNATIONAL STANDARD','automotive_design',1994,#9);
#3=PRODUCT_CATEGORY_RELATIONSHIP('NONE','NONE',#10,#11);
#4=SHAPE_DEFINITION_REPRESENTATION(#12,#13);
#5= (GEOMETRIC_REPRESENTATION_CONTEXT(3)GLOBAL_UNCERTAINTY_ASSIGNED_CONTEXT((#16))GLOBAL_UNIT_ASSIGNED_CONTEXT((#18,#19,#20))REPRESENTATION_CONTEXT('NONE','WORKSPACE'));
#9=APPLICATION_CONTEXT(' ');
#10=PRODUCT_CATEGORY('part','NONE');
#11=PRODUCT_RELATED_PRODUCT_CATEGORY('detail',' ',(#22));
#12=PRODUCT_DEFINITION_SHAPE('NONE','NONE',#23);
#13=ADVANCED_BREP_SHAPE_REPRESENTATION('HALDERN_EH_22082_0006',(#24,#25),#5);
#16=UNCERTAINTY_MEASURE_WITH_UNIT(LENGTH_MEASURE(1.0E-06),#18,'','');
#18= (CONVERSION_BASED_UNIT('MILLIMETRE',#28)LENGTH_UNIT()NAMED_UNIT(#31));
#19= (NAMED_UNIT(#33)PLANE_ANGLE_UNIT()SI_UNIT($,.RADIAN.));
#20= (NAMED_UNIT(#33)SOLID_ANGLE_UNIT()SI_UNIT($,.STERADIAN.));
#22=PRODUCT('HALDERN_EH_22082_0006','HALDERN_EH_22082_0006','PART-HALDERN_EH_22082_0006-DESC',(#39));
#23=PRODUCT_DEFINITION('','NONE',#40,#1);
#24=MANIFOLD_SOLID_BREP('HALDERN_EH_22082_0006',#41);
#25=AXIS2_PLACEMENT_3D('',#42,#43,#44);
#28=LENGTH_MEASURE_WITH_UNIT(LENGTH_MEASURE(1.0),#45);
#31=DIMENSIONAL_EXPONENTS(1.0,0.0,0.0,0.0,0.0,0.0,0.0);
#33=DIMENSIONAL_EXPONENTS(0.0,0.0,0.0,0.0,0.0,0.0,0.0);
#39=PRODUCT_CONTEXT('',#9,'mechanical');
#40=PRODUCT_DEFINITION_FORMATION_WITH_SPECIFIED_SOURCE(' ','NONE',#22,.NOT_KNOWN.);
#41=CLOSED_SHELL('',(#46,#47,#48,#49,#50,#51,#52,#53,#54,#55,#56,#57,#58,#59,#60,#61,#62,#63,#64,#65,#66,#67,#68,#69));
#42=CARTESIAN_POINT('',(0.0,0.0,0.0));
#43=DIRECTION('',(0.0,0.0,1.0));
#44=DIRECTION('',(1.0,0.0,0.0));
#45= (NAMED_UNIT(#31)LENGTH_UNIT()SI_UNIT(.MILLI.,.METRE.));
#46=ADVANCED_FACE('',(#71),#72,.T.);
#47=ADVANCED_FACE('',(#73),#74,.T.);
#48=ADVANCED_FACE('',(#75),#76,.F.);
#49=ADVANCED_FACE('',(#77),#78,.F.);
#50=ADVANCED_FACE('',(#79),#80,.F.);
#51=ADVANCED_FACE('',(#81),#82,.F.);
#52=ADVANCED_FACE('',(#83),#84,.F.);
#53=ADVANCED_FACE('',(#85),#86,.F.);
#54=ADVANCED_FACE('',(#87),#88,.F.);
#55=ADVANCED_FACE('',(#89),#90,.F.);
#56=ADVANCED_FACE('',(#91),#92,.T.);
#57=ADVANCED_FACE('',(#93),#94,.F.);
#58=ADVANCED_FACE('',(#95,#96),#97,.F.);
#59=ADVANCED_FACE('',(#98),#99,.F.);
#60=ADVANCED_FACE('',(#100),#101,.F.);
#61=ADVANCED_FACE('',(#102),#103,.F.);
#62=ADVANCED_FACE('',(#104),#105,.T.);
#63=ADVANCED_FACE('',(#106,#107,#108),#109,.T.);
#64=ADVANCED_FACE('',(#110),#111,.T.);
#65=ADVANCED_FACE('',(#112),#113,.T.);
#66=ADVANCED_FACE('',(#114,#115),#116,.T.);
#67=ADVANCED_FACE('',(#117),#118,.F.);
#68=ADVANCED_FACE('',(#119),#120,.F.);
#69=ADVANCED_FACE('',(#121),#122,.T.);
#71=FACE_OUTER_BOUND('',#123,.T.);
#72=CYLINDRICAL_SURFACE('',#124,4.25);
#73=FACE_OUTER_BOUND('',#125,.T.);
#74=CYLINDRICAL_SURFACE('',#126,1.5);
#75=FACE_OUTER_BOUND('',#127,.T.);
#76=CYLINDRICAL_SURFACE('',#128,3.0);
#77=FACE_OUTER_BOUND('',#129,.T.);
#78=CYLINDRICAL_SURFACE('',#130,3.625);
#79=FACE_OUTER_BOUND('',#131,.T.);
#80=CYLINDRICAL_SURFACE('',#132,1.6);
#81=FACE_OUTER_BOUND('',#133,.T.);
#82=CONICAL_SURFACE('',#134,2.425,0.785398163397448);
#83=FACE_OUTER_BOUND('',#135,.T.);
#84=CYLINDRICAL_SURFACE('',#136,3.25);
#85=FACE_OUTER_BOUND('',#137,.T.);
#86=CYLINDRICAL_SURFACE('',#138,3.25);
#87=FACE_OUTER_BOUND('',#139,.T.);
#88=CONICAL_SURFACE('',#140,2.425,0.785398163397448);
#89=FACE_OUTER_BOUND('',#141,.T.);
#90=CYLINDRICAL_SURFACE('',#142,1.6);
#91=FACE_OUTER_BOUND('',#143,.T.);
#92=PLANE('',#144);
#93=FACE_OUTER_BOUND('',#145,.T.);
#94=CYLINDRICAL_SURFACE('',#146,3.625);
#95=FACE_BOUND('',#147,.T.);
#96=FACE_OUTER_BOUND('',#148,.T.);
#97=PLANE('',#149);
#98=FACE_OUTER_BOUND('',#150,.T.);
#99=CYLINDRICAL_SURFACE('',#151,3.0);
#100=FACE_OUTER_BOUND('',#152,.T.);
#101=PLANE('',#153);
#102=FACE_OUTER_BOUND('',#154,.T.);
#103=PLANE('',#155);
#104=FACE_OUTER_BOUND('',#156,.T.);
#105=CYLINDRICAL_SURFACE('',#157,4.25);
#106=FACE_BOUND('',#158,.T.);
#107=FACE_BOUND('',#159,.T.);
#108=FACE_OUTER_BOUND('',#160,.T.);
#109=PLANE('',#161);
#110=FACE_OUTER_BOUND('',#162,.T.);
#111=CYLINDRICAL_SURFACE('',#163,1.5);
#112=FACE_OUTER_BOUND('',#164,.T.);
#113=PLANE('',#165);
#114=FACE_BOUND('',#166,.T.);
#115=FACE_OUTER_BOUND('',#167,.T.);
#116=PLANE('',#168);
#117=FACE_OUTER_BOUND('',#169,.T.);
#118=PLANE('',#170);
#119=FACE_OUTER_BOUND('',#171,.T.);
#120=PLANE('',#172);
#121=FACE_OUTER_BOUND('',#173,.T.);
#122=CYLINDRICAL_SURFACE('',#174,4.25);
#123=EDGE_LOOP('',(#175,#176,#177,#178));
#124=AXIS2_PLACEMENT_3D('',#179,#180,#181);
#125=EDGE_LOOP('',(#182,#183,#184,#185));
#126=AXIS2_PLACEMENT_3D('',#186,#187,#188);
#127=EDGE_LOOP('',(#189,#190,#191,#192));
#128=AXIS2_PLACEMENT_3D('',#193,#194,#195);
#129=EDGE_LOOP('',(#196,#197,#198,#199));
#130=AXIS2_PLACEMENT_3D('',#200,#201,#202);
#131=EDGE_LOOP('',(#203,#204,#205,#206));
#132=AXIS2_PLACEMENT_3D('',#207,#208,#209);
#133=EDGE_LOOP('',(#210,#211,#212,#213));
#134=AXIS2_PLACEMENT_3D('',#214,#215,#216);
#135=EDGE_LOOP('',(#217,#218,#219,#220));
#136=AXIS2_PLACEMENT_3D('',#221,#222,#223);
#137=EDGE_LOOP('',(#224,#225,#226,#227));
#138=AXIS2_PLACEMENT_3D('',#228,#229,#230);
#139=EDGE_LOOP('',(#231,#232,#233,#234));
#140=AXIS2_PLACEMENT_3D('',#235,#236,#237);
#141=EDGE_LOOP('',(#238,#239,#240,#241));
#142=AXIS2_PLACEMENT_3D('',#242,#243,#244);
#143=EDGE_LOOP('',(#245,#246,#247,#248,#249,#250,#251,#252));
#144=AXIS2_PLACEMENT_3D('',#253,#254,#255);
#145=EDGE_LOOP('',(#256,#257,#258,#259));
#146=AXIS2_PLACEMENT_3D('',#260,#261,#262);
#147=EDGE_LOOP('',(#263,#264));
#148=EDGE_LOOP('',(#265,#266));
#149=AXIS2_PLACEMENT_3D('',#267,#268,#269);
#150=EDGE_LOOP('',(#270,#271,#272,#273));
#151=AXIS2_PLACEMENT_3D('',#274,#275,#276);
#152=EDGE_LOOP('',(#277,#278));
#153=AXIS2_PLACEMENT_3D('',#279,#280,#281);
#154=EDGE_LOOP('',(#282,#283,#284,#285,#286));
#155=AXIS2_PLACEMENT_3D('',#287,#288,#289);
#156=EDGE_LOOP('',(#290,#291,#292,#293));
#157=AXIS2_PLACEMENT_3D('',#294,#295,#296);
#158=EDGE_LOOP('',(#297,#298));
#159=EDGE_LOOP('',(#299,#300));
#160=EDGE_LOOP('',(#301,#302,#303,#304,#305));
#161=AXIS2_PLACEMENT_3D('',#306,#307,#308);
#162=EDGE_LOOP('',(#309,#310,#311,#312));
#163=AXIS2_PLACEMENT_3D('',#313,#314,#315);
#164=EDGE_LOOP('',(#316,#317));
#165=AXIS2_PLACEMENT_3D('',#318,#319,#320);
#166=EDGE_LOOP('',(#321,#322));
#167=EDGE_LOOP('',(#323,#324,#325,#326,#327,#328));
#168=AXIS2_PLACEMENT_3D('',#329,#330,#331);
#169=EDGE_LOOP('',(#332,#333,#334,#335,#336,#337));
#170=AXIS2_PLACEMENT_3D('',#338,#339,#340);
#171=EDGE_LOOP('',(#341,#342,#343,#344));
#172=AXIS2_PLACEMENT_3D('',#345,#346,#347);
#173=EDGE_LOOP('',(#348,#349,#350,#351));
#174=AXIS2_PLACEMENT_3D('',#352,#353,#354);
#175=ORIENTED_EDGE('',*,*,#355,.F.);
#176=ORIENTED_EDGE('',*,*,#356,.F.);
#177=ORIENTED_EDGE('',*,*,#357,.F.);
#178=ORIENTED_EDGE('',*,*,#358,.F.);
#179=CARTESIAN_POINT('',(0.0,1.6,0.0));
#180=DIRECTION('',(-0.0,1.0,0.0));
#181=DIRECTION('',(1.0,0.0,0.0));
#182=ORIENTED_EDGE('',*,*,#359,.F.);
#183=ORIENTED_EDGE('',*,*,#360,.F.);
#184=ORIENTED_EDGE('',*,*,#361,.F.);
#185=ORIENTED_EDGE('',*,*,#362,.F.);
#186=CARTESIAN_POINT('',(7.5,-1.5,0.0));
#187=DIRECTION('',(0.0,-1.0,0.0));
#188=DIRECTION('',(1.0,0.0,0.0));
#189=ORIENTED_EDGE('',*,*,#363,.F.);
#190=ORIENTED_EDGE('',*,*,#364,.T.);
#191=ORIENTED_EDGE('',*,*,#365,.F.);
#192=ORIENTED_EDGE('',*,*,#366,.T.);
#193=CARTESIAN_POINT('',(7.5,4.25,0.625));
#194=DIRECTION('',(0.0,0.0,1.0));
#195=DIRECTION('',(1.0,0.0,0.0));
#196=ORIENTED_EDGE('',*,*,#367,.F.);
#197=ORIENTED_EDGE('',*,*,#368,.F.);
#198=ORIENTED_EDGE('',*,*,#369,.F.);
#199=ORIENTED_EDGE('',*,*,#370,.T.);
#200=CARTESIAN_POINT('',(7.5,4.25,3.9375));
#201=DIRECTION('',(0.0,0.0,1.0));
#202=DIRECTION('',(1.0,0.0,0.0));
#203=ORIENTED_EDGE('',*,*,#371,.F.);
#204=ORIENTED_EDGE('',*,*,#372,.F.);
#205=ORIENTED_EDGE('',*,*,#373,.F.);
#206=ORIENTED_EDGE('',*,*,#374,.F.);
#207=CARTESIAN_POINT('',(0.0,1.6,0.0));
#208=DIRECTION('',(-0.0,1.0,0.0));
#209=DIRECTION('',(1.0,0.0,0.0));
#210=ORIENTED_EDGE('',*,*,#375,.F.);
#211=ORIENTED_EDGE('',*,*,#376,.T.);
#212=ORIENTED_EDGE('',*,*,#377,.F.);
#213=ORIENTED_EDGE('',*,*,#378,.F.);
#214=CARTESIAN_POINT('',(5.05150120951731E-17,2.045,0.0));
#215=DIRECTION('',(-6.12303176911189E-17,1.0,-0.0));
#216=DIRECTION('',(1.0,6.12303176911189E-17,0.0));
#217=ORIENTED_EDGE('',*,*,#379,.F.);
#218=ORIENTED_EDGE('',*,*,#378,.T.);
#219=ORIENTED_EDGE('',*,*,#380,.F.);
#220=ORIENTED_EDGE('',*,*,#381,.F.);
#221=CARTESIAN_POINT('',(-1.01030024190346E-17,3.035,0.0));
#222=DIRECTION('',(6.12303176911189E-17,-1.0,0.0));
#223=DIRECTION('',(1.0,6.12303176911189E-17,0.0));
#224=ORIENTED_EDGE('',*,*,#379,.T.);
#225=ORIENTED_EDGE('',*,*,#382,.F.);
#226=ORIENTED_EDGE('',*,*,#380,.T.);
#227=ORIENTED_EDGE('',*,*,#383,.T.);
#228=CARTESIAN_POINT('',(-1.01030024190346E-17,3.035,0.0));
#229=DIRECTION('',(6.12303176911189E-17,-1.0,0.0));
#230=DIRECTION('',(1.0,6.12303176911189E-17,0.0));
#231=ORIENTED_EDGE('',*,*,#375,.T.);
#232=ORIENTED_EDGE('',*,*,#383,.F.);
#233=ORIENTED_EDGE('',*,*,#377,.T.);
#234=ORIENTED_EDGE('',*,*,#372,.T.);
#235=CARTESIAN_POINT('',(5.05150120951731E-17,2.045,0.0));
#236=DIRECTION('',(-6.12303176911189E-17,1.0,-0.0));
#237=DIRECTION('',(1.0,6.12303176911189E-17,0.0));
#238=ORIENTED_EDGE('',*,*,#371,.T.);
#239=ORIENTED_EDGE('',*,*,#384,.F.);
#240=ORIENTED_EDGE('',*,*,#373,.T.);
#241=ORIENTED_EDGE('',*,*,#376,.F.);
#242=CARTESIAN_POINT('',(0.0,1.6,0.0));
#243=DIRECTION('',(-0.0,1.0,0.0));
#244=DIRECTION('',(1.0,0.0,0.0));
#245=ORIENTED_EDGE('',*,*,#385,.T.);
#246=ORIENTED_EDGE('',*,*,#381,.T.);
#247=ORIENTED_EDGE('',*,*,#382,.T.);
#248=ORIENTED_EDGE('',*,*,#386,.T.);
#249=ORIENTED_EDGE('',*,*,#387,.F.);
#250=ORIENTED_EDGE('',*,*,#356,.T.);
#251=ORIENTED_EDGE('',*,*,#388,.T.);
#252=ORIENTED_EDGE('',*,*,#389,.F.);
#253=CARTESIAN_POINT('',(0.0,3.2,0.0));
#254=DIRECTION('',(-0.0,1.0,0.0));
#255=DIRECTION('',(1.0,0.0,0.0));
#256=ORIENTED_EDGE('',*,*,#367,.T.);
#257=ORIENTED_EDGE('',*,*,#390,.T.);
#258=ORIENTED_EDGE('',*,*,#369,.T.);
#259=ORIENTED_EDGE('',*,*,#391,.F.);
#260=CARTESIAN_POINT('',(7.5,4.25,3.9375));
#261=DIRECTION('',(0.0,0.0,1.0));
#262=DIRECTION('',(1.0,0.0,0.0));
#263=ORIENTED_EDGE('',*,*,#392,.F.);
#264=ORIENTED_EDGE('',*,*,#364,.F.);
#265=ORIENTED_EDGE('',*,*,#390,.F.);
#266=ORIENTED_EDGE('',*,*,#370,.F.);
#267=CARTESIAN_POINT('',(7.5,4.25,3.625));
#268=DIRECTION('',(0.0,0.0,-1.0));
#269=DIRECTION('',(-1.0,0.0,0.0));
#270=ORIENTED_EDGE('',*,*,#363,.T.);
#271=ORIENTED_EDGE('',*,*,#393,.T.);
#272=ORIENTED_EDGE('',*,*,#365,.T.);
#273=ORIENTED_EDGE('',*,*,#392,.T.);
#274=CARTESIAN_POINT('',(7.5,4.25,0.625));
#275=DIRECTION('',(0.0,0.0,1.0));
#276=DIRECTION('',(1.0,0.0,0.0));
#277=ORIENTED_EDGE('',*,*,#393,.F.);
#278=ORIENTED_EDGE('',*,*,#366,.F.);
#279=CARTESIAN_POINT('',(7.5,4.25,-3.0));
#280=DIRECTION('',(0.0,0.0,-1.0));
#281=DIRECTION('',(-1.0,0.0,0.0));
#282=ORIENTED_EDGE('',*,*,#385,.F.);
#283=ORIENTED_EDGE('',*,*,#394,.F.);
#284=ORIENTED_EDGE('',*,*,#395,.F.);
#285=ORIENTED_EDGE('',*,*,#396,.F.);
#286=ORIENTED_EDGE('',*,*,#386,.F.);
#287=CARTESIAN_POINT('',(3.25,2.125,0.0));
#288=DIRECTION('',(1.0,0.0,0.0));
#289=DIRECTION('',(0.0,0.0,-1.0));
#290=ORIENTED_EDGE('',*,*,#397,.T.);
#291=ORIENTED_EDGE('',*,*,#398,.F.);
#292=ORIENTED_EDGE('',*,*,#395,.T.);
#293=ORIENTED_EDGE('',*,*,#399,.F.);
#294=CARTESIAN_POINT('',(7.5,4.25,0.0));
#295=DIRECTION('',(0.0,0.0,1.0));
#296=DIRECTION('',(1.0,0.0,0.0));
#297=ORIENTED_EDGE('',*,*,#374,.T.);
#298=ORIENTED_EDGE('',*,*,#384,.T.);
#299=ORIENTED_EDGE('',*,*,#400,.T.);
#300=ORIENTED_EDGE('',*,*,#360,.T.);
#301=ORIENTED_EDGE('',*,*,#401,.F.);
#302=ORIENTED_EDGE('',*,*,#402,.F.);
#303=ORIENTED_EDGE('',*,*,#403,.F.);
#304=ORIENTED_EDGE('',*,*,#404,.T.);
#305=ORIENTED_EDGE('',*,*,#358,.T.);
#306=CARTESIAN_POINT('',(0.0,0.0,0.0));
#307=DIRECTION('',(0.0,-1.0,0.0));
#308=DIRECTION('',(-1.0,0.0,0.0));
#309=ORIENTED_EDGE('',*,*,#359,.T.);
#310=ORIENTED_EDGE('',*,*,#405,.F.);
#311=ORIENTED_EDGE('',*,*,#361,.T.);
#312=ORIENTED_EDGE('',*,*,#400,.F.);
#313=CARTESIAN_POINT('',(7.5,-1.5,0.0));
#314=DIRECTION('',(0.0,-1.0,0.0));
#315=DIRECTION('',(1.0,0.0,0.0));
#316=ORIENTED_EDGE('',*,*,#362,.T.);
#317=ORIENTED_EDGE('',*,*,#405,.T.);
#318=CARTESIAN_POINT('',(7.5,-3.0,0.0));
#319=DIRECTION('',(0.0,-1.0,0.0));
#320=DIRECTION('',(1.0,0.0,0.0));
#321=ORIENTED_EDGE('',*,*,#391,.T.);
#322=ORIENTED_EDGE('',*,*,#368,.T.);
#323=ORIENTED_EDGE('',*,*,#399,.T.);
#324=ORIENTED_EDGE('',*,*,#394,.T.);
#325=ORIENTED_EDGE('',*,*,#389,.T.);
#326=ORIENTED_EDGE('',*,*,#406,.F.);
#327=ORIENTED_EDGE('',*,*,#403,.T.);
#328=ORIENTED_EDGE('',*,*,#407,.T.);
#329=CARTESIAN_POINT('',(5.875,1.6,4.25));
#330=DIRECTION('',(0.0,0.0,1.0));
#331=DIRECTION('',(1.0,0.0,0.0));
#332=ORIENTED_EDGE('',*,*,#398,.T.);
#333=ORIENTED_EDGE('',*,*,#408,.T.);
#334=ORIENTED_EDGE('',*,*,#401,.T.);
#335=ORIENTED_EDGE('',*,*,#357,.T.);
#336=ORIENTED_EDGE('',*,*,#387,.T.);
#337=ORIENTED_EDGE('',*,*,#396,.T.);
#338=CARTESIAN_POINT('',(5.875,1.6,-4.25));
#339=DIRECTION('',(0.0,0.0,1.0));
#340=DIRECTION('',(1.0,0.0,0.0));
#341=ORIENTED_EDGE('',*,*,#402,.T.);
#342=ORIENTED_EDGE('',*,*,#408,.F.);
#343=ORIENTED_EDGE('',*,*,#397,.F.);
#344=ORIENTED_EDGE('',*,*,#407,.F.);
#345=CARTESIAN_POINT('',(11.75,1.6,0.0));
#346=DIRECTION('',(-1.0,0.0,0.0));
#347=DIRECTION('',(0.0,0.0,1.0));
#348=ORIENTED_EDGE('',*,*,#355,.T.);
#349=ORIENTED_EDGE('',*,*,#404,.F.);
#350=ORIENTED_EDGE('',*,*,#406,.T.);
#351=ORIENTED_EDGE('',*,*,#388,.F.);
#352=CARTESIAN_POINT('',(0.0,1.6,0.0));
#353=DIRECTION('',(-0.0,1.0,0.0));
#354=DIRECTION('',(1.0,0.0,0.0));
#355=EDGE_CURVE('',#409,#410,#411,.T.);
#356=EDGE_CURVE('',#412,#409,#413,.T.);
#357=EDGE_CURVE('',#414,#412,#415,.T.);
#358=EDGE_CURVE('',#410,#414,#416,.T.);
#359=EDGE_CURVE('',#417,#418,#419,.T.);
#360=EDGE_CURVE('',#420,#417,#421,.T.);
#361=EDGE_CURVE('',#422,#420,#423,.T.);
#362=EDGE_CURVE('',#418,#422,#424,.T.);
#363=EDGE_CURVE('',#425,#426,#427,.T.);
#364=EDGE_CURVE('',#425,#428,#429,.T.);
#365=EDGE_CURVE('',#430,#428,#431,.T.);
#366=EDGE_CURVE('',#430,#426,#432,.T.);
#367=EDGE_CURVE('',#433,#434,#435,.T.);
#368=EDGE_CURVE('',#436,#433,#437,.T.);
#369=EDGE_CURVE('',#438,#436,#439,.T.);
#370=EDGE_CURVE('',#438,#434,#440,.T.);
#371=EDGE_CURVE('',#441,#442,#443,.T.);
#372=EDGE_CURVE('',#444,#441,#445,.T.);
#373=EDGE_CURVE('',#446,#444,#447,.T.);
#374=EDGE_CURVE('',#442,#446,#448,.T.);
#375=EDGE_CURVE('',#441,#449,#450,.T.);
#376=EDGE_CURVE('',#441,#444,#451,.T.);
#377=EDGE_CURVE('',#452,#444,#453,.T.);
#378=EDGE_CURVE('',#449,#452,#454,.T.);
#379=EDGE_CURVE('',#449,#455,#456,.T.);
#380=EDGE_CURVE('',#457,#452,#458,.T.);
#381=EDGE_CURVE('',#455,#457,#459,.T.);
#382=EDGE_CURVE('',#457,#455,#460,.T.);
#383=EDGE_CURVE('',#452,#449,#461,.T.);
#384=EDGE_CURVE('',#446,#442,#462,.T.);
#385=EDGE_CURVE('',#463,#455,#464,.T.);
#386=EDGE_CURVE('',#455,#465,#466,.T.);
#387=EDGE_CURVE('',#412,#465,#467,.T.);
#388=EDGE_CURVE('',#409,#468,#469,.T.);
#389=EDGE_CURVE('',#463,#468,#470,.T.);
#390=EDGE_CURVE('',#434,#438,#471,.T.);
#391=EDGE_CURVE('',#433,#436,#472,.T.);
#392=EDGE_CURVE('',#428,#425,#473,.T.);
#393=EDGE_CURVE('',#426,#430,#474,.T.);
#394=EDGE_CURVE('',#475,#463,#476,.T.);
#395=EDGE_CURVE('',#477,#475,#478,.T.);
#396=EDGE_CURVE('',#465,#477,#479,.T.);
#397=EDGE_CURVE('',#480,#481,#482,.T.);
#398=EDGE_CURVE('',#477,#481,#483,.T.);
#399=EDGE_CURVE('',#480,#475,#484,.T.);
#400=EDGE_CURVE('',#417,#420,#485,.T.);
#401=EDGE_CURVE('',#486,#414,#487,.T.);
#402=EDGE_CURVE('',#488,#486,#489,.T.);
#403=EDGE_CURVE('',#490,#488,#491,.T.);
#404=EDGE_CURVE('',#490,#410,#492,.T.);
#405=EDGE_CURVE('',#422,#418,#493,.T.);
#406=EDGE_CURVE('',#490,#468,#494,.T.);
#407=EDGE_CURVE('',#488,#480,#495,.T.);
#408=EDGE_CURVE('',#481,#486,#496,.T.);
#409=VERTEX_POINT('',#497);
#410=VERTEX_POINT('',#498);
#411=LINE('',#499,#500);
#412=VERTEX_POINT('',#501);
#413=CIRCLE('',#502,4.25);
#414=VERTEX_POINT('',#503);
#415=LINE('',#504,#505);
#416=CIRCLE('',#506,4.25);
#417=VERTEX_POINT('',#507);
#418=VERTEX_POINT('',#508);
#419=LINE('',#509,#510);
#420=VERTEX_POINT('',#511);
#421=CIRCLE('',#512,1.5);
#422=VERTEX_POINT('',#513);
#423=LINE('',#514,#515);
#424=CIRCLE('',#516,1.5);
#425=VERTEX_POINT('',#517);
#426=VERTEX_POINT('',#518);
#427=LINE('',#519,#520);
#428=VERTEX_POINT('',#521);
#429=CIRCLE('',#522,3.0);
#430=VERTEX_POINT('',#523);
#431=LINE('',#524,#525);
#432=CIRCLE('',#526,3.0);
#433=VERTEX_POINT('',#527);
#434=VERTEX_POINT('',#528);
#435=LINE('',#529,#530);
#436=VERTEX_POINT('',#531);
#437=CIRCLE('',#532,3.625);
#438=VERTEX_POINT('',#533);
#439=LINE('',#534,#535);
#440=CIRCLE('',#536,3.625);
#441=VERTEX_POINT('',#537);
#442=VERTEX_POINT('',#538);
#443=LINE('',#539,#540);
#444=VERTEX_POINT('',#541);
#445=CIRCLE('',#542,1.6);
#446=VERTEX_POINT('',#543);
#447=LINE('',#544,#545);
#448=CIRCLE('',#546,1.6);
#449=VERTEX_POINT('',#547);
#450=LINE('',#548,#549);
#451=CIRCLE('',#550,1.6);
#452=VERTEX_POINT('',#551);
#453=LINE('',#552,#553);
#454=CIRCLE('',#554,3.25);
#455=VERTEX_POINT('',#555);
#456=LINE('',#556,#557);
#457=VERTEX_POINT('',#558);
#458=LINE('',#559,#560);
#459=CIRCLE('',#561,3.25);
#460=CIRCLE('',#562,3.25);
#461=CIRCLE('',#563,3.25);
#462=CIRCLE('',#564,1.6);
#463=VERTEX_POINT('',#565);
#464=LINE('',#566,#567);
#465=VERTEX_POINT('',#568);
#466=LINE('',#569,#570);
#467=LINE('',#571,#572);
#468=VERTEX_POINT('',#573);
#469=CIRCLE('',#574,4.25);
#470=LINE('',#575,#576);
#471=CIRCLE('',#577,3.625);
#472=CIRCLE('',#578,3.625);
#473=CIRCLE('',#579,3.0);
#474=CIRCLE('',#580,3.0);
#475=VERTEX_POINT('',#581);
#476=LINE('',#582,#583);
#477=VERTEX_POINT('',#584);
#478=LINE('',#585,#586);
#479=LINE('',#587,#588);
#480=VERTEX_POINT('',#589);
#481=VERTEX_POINT('',#590);
#482=LINE('',#591,#592);
#483=CIRCLE('',#593,4.25);
#484=CIRCLE('',#594,4.25);
#485=CIRCLE('',#595,1.5);
#486=VERTEX_POINT('',#596);
#487=LINE('',#597,#598);
#488=VERTEX_POINT('',#599);
#489=LINE('',#600,#601);
#490=VERTEX_POINT('',#602);
#491=LINE('',#603,#604);
#492=CIRCLE('',#605,4.25);
#493=CIRCLE('',#606,1.5);
#494=LINE('',#607,#608);
#495=LINE('',#609,#610);
#496=LINE('',#611,#612);
#497=CARTESIAN_POINT('',(-4.25,3.2,-5.2045770037451E-16));
#498=CARTESIAN_POINT('',(-4.25,0.0,-5.2045770037451E-16));
#499=CARTESIAN_POINT('',(-4.25,1.6,-5.2045770037451E-16));
#500=VECTOR('',#613,1.0);
#501=CARTESIAN_POINT('',(0.0,3.2,-4.25));
#502=AXIS2_PLACEMENT_3D('',#614,#615,#616);
#503=CARTESIAN_POINT('',(0.0,0.0,-4.25));
#504=CARTESIAN_POINT('',(0.0,1.6,-4.25));
#505=VECTOR('',#617,1.0);
#506=AXIS2_PLACEMENT_3D('',#618,#619,#620);
#507=CARTESIAN_POINT('',(9.0,0.0,0.0));
#508=CARTESIAN_POINT('',(9.0,-3.0,0.0));
#509=CARTESIAN_POINT('',(9.0,-1.5,-1.83690953073357E-16));
#510=VECTOR('',#621,1.0);
#511=CARTESIAN_POINT('',(6.0,0.0,1.83690953073357E-16));
#512=AXIS2_PLACEMENT_3D('',#622,#623,#624);
#513=CARTESIAN_POINT('',(6.0,-3.0,1.83690953073357E-16));
#514=CARTESIAN_POINT('',(6.0,-1.5,1.83690953073357E-16));
#515=VECTOR('',#625,1.0);
#516=AXIS2_PLACEMENT_3D('',#626,#627,#628);
#517=CARTESIAN_POINT('',(10.5,4.25,3.625));
#518=CARTESIAN_POINT('',(10.5,4.25,-3.0));
#519=CARTESIAN_POINT('',(10.5,4.25,0.625));
#520=VECTOR('',#629,1.0);
#521=CARTESIAN_POINT('',(4.5,4.25,3.625));
#522=AXIS2_PLACEMENT_3D('',#630,#631,#632);
#523=CARTESIAN_POINT('',(4.5,4.25,-3.0));
#524=CARTESIAN_POINT('',(4.5,4.25,0.625));
#525=VECTOR('',#633,1.0);
#526=AXIS2_PLACEMENT_3D('',#634,#635,#636);
#527=CARTESIAN_POINT('',(11.125,4.25,4.25));
#528=CARTESIAN_POINT('',(11.125,4.25,3.625));
#529=CARTESIAN_POINT('',(11.125,4.25,3.9375));
#530=VECTOR('',#637,1.0);
#531=CARTESIAN_POINT('',(3.875,4.25,4.25));
#532=AXIS2_PLACEMENT_3D('',#638,#639,#640);
#533=CARTESIAN_POINT('',(3.875,4.25,3.625));
#534=CARTESIAN_POINT('',(3.875,4.25,3.9375));
#535=VECTOR('',#641,1.0);
#536=AXIS2_PLACEMENT_3D('',#642,#643,#644);
#537=CARTESIAN_POINT('',(1.6,1.22,0.0));
#538=CARTESIAN_POINT('',(1.6,0.0,0.0));
#539=CARTESIAN_POINT('',(1.6,0.61,1.9593701661158E-16));
#540=VECTOR('',#645,1.0);
#541=CARTESIAN_POINT('',(-1.6,1.22,1.9593701661158E-16));
#542=AXIS2_PLACEMENT_3D('',#646,#647,#648);
#543=CARTESIAN_POINT('',(-1.6,0.0,-1.9593701661158E-16));
#544=CARTESIAN_POINT('',(-1.6,0.61,-1.9593701661158E-16));
#545=VECTOR('',#649,1.0);
#546=AXIS2_PLACEMENT_3D('',#650,#651,#652);
#547=CARTESIAN_POINT('',(3.25,2.87,0.0));
#548=CARTESIAN_POINT('',(2.425,2.045,-2.96967040801927E-16));
#549=VECTOR('',#653,1.0);
#550=AXIS2_PLACEMENT_3D('',#654,#655,#656);
#551=CARTESIAN_POINT('',(-3.25,2.87,3.97997064992273E-16));
#552=CARTESIAN_POINT('',(-2.425,2.045,2.96967040801927E-16));
#553=VECTOR('',#657,1.0);
#554=AXIS2_PLACEMENT_3D('',#658,#659,#660);
#555=CARTESIAN_POINT('',(3.25,3.2,0.0));
#556=CARTESIAN_POINT('',(3.25,3.035,-3.97997064992273E-16));
#557=VECTOR('',#661,1.0);
#558=CARTESIAN_POINT('',(-3.25,3.2,3.97997064992273E-16));
#559=CARTESIAN_POINT('',(-3.25,3.035,3.97997064992273E-16));
#560=VECTOR('',#662,1.0);
#561=AXIS2_PLACEMENT_3D('',#663,#664,#665);
#562=AXIS2_PLACEMENT_3D('',#666,#667,#668);
#563=AXIS2_PLACEMENT_3D('',#669,#670,#671);
#564=AXIS2_PLACEMENT_3D('',#672,#673,#674);
#565=CARTESIAN_POINT('',(3.25,3.2,4.25));
#566=CARTESIAN_POINT('',(3.25,3.2,0.0));
#567=VECTOR('',#675,1.0);
#568=CARTESIAN_POINT('',(3.25,3.2,-4.25));
#569=CARTESIAN_POINT('',(3.25,3.2,0.0));
#570=VECTOR('',#676,1.0);
#571=CARTESIAN_POINT('',(5.875,3.2,-4.25));
#572=VECTOR('',#677,1.0);
#573=CARTESIAN_POINT('',(0.0,3.2,4.25));
#574=AXIS2_PLACEMENT_3D('',#678,#679,#680);
#575=CARTESIAN_POINT('',(5.875,3.2,4.25));
#576=VECTOR('',#681,1.0);
#577=AXIS2_PLACEMENT_3D('',#682,#683,#684);
#578=AXIS2_PLACEMENT_3D('',#685,#686,#687);
#579=AXIS2_PLACEMENT_3D('',#688,#689,#690);
#580=AXIS2_PLACEMENT_3D('',#691,#692,#693);
#581=CARTESIAN_POINT('',(3.25,4.25,4.25));
#582=CARTESIAN_POINT('',(3.25,2.125,4.25));
#583=VECTOR('',#694,1.0);
#584=CARTESIAN_POINT('',(3.25,4.25,-4.25));
#585=CARTESIAN_POINT('',(3.25,4.25,0.0));
#586=VECTOR('',#695,1.0);
#587=CARTESIAN_POINT('',(3.25,2.125,-4.25));
#588=VECTOR('',#696,1.0);
#589=CARTESIAN_POINT('',(11.75,4.25,4.25));
#590=CARTESIAN_POINT('',(11.75,4.25,-4.25));
#591=CARTESIAN_POINT('',(11.75,4.25,0.0));
#592=VECTOR('',#697,1.0);
#593=AXIS2_PLACEMENT_3D('',#698,#699,#700);
#594=AXIS2_PLACEMENT_3D('',#701,#702,#703);
#595=AXIS2_PLACEMENT_3D('',#704,#705,#706);
#596=CARTESIAN_POINT('',(11.75,0.0,-4.25));
#597=CARTESIAN_POINT('',(5.875,0.0,-4.25));
#598=VECTOR('',#707,1.0);
#599=CARTESIAN_POINT('',(11.75,0.0,4.25));
#600=CARTESIAN_POINT('',(11.75,0.0,0.0));
#601=VECTOR('',#708,1.0);
#602=CARTESIAN_POINT('',(0.0,0.0,4.25));
#603=CARTESIAN_POINT('',(5.875,0.0,4.25));
#604=VECTOR('',#709,1.0);
#605=AXIS2_PLACEMENT_3D('',#710,#711,#712);
#606=AXIS2_PLACEMENT_3D('',#713,#714,#715);
#607=CARTESIAN_POINT('',(0.0,1.6,4.25));
#608=VECTOR('',#716,1.0);
#609=CARTESIAN_POINT('',(11.75,1.6,4.25));
#610=VECTOR('',#717,1.0);
#611=CARTESIAN_POINT('',(11.75,1.6,-4.25));
#612=VECTOR('',#718,1.0);
#613=DIRECTION('',(-0.0,-1.0,-0.0));
#614=CARTESIAN_POINT('',(0.0,3.2,0.0));
#615=DIRECTION('',(-0.0,1.0,0.0));
#616=DIRECTION('',(1.0,0.0,0.0));
#617=DIRECTION('',(0.0,1.0,0.0));
#618=CARTESIAN_POINT('',(0.0,0.0,0.0));
#619=DIRECTION('',(0.0,-1.0,0.0));
#620=DIRECTION('',(1.0,0.0,0.0));
#621=DIRECTION('',(0.0,-1.0,0.0));
#622=CARTESIAN_POINT('',(7.5,0.0,0.0));
#623=DIRECTION('',(-0.0,1.0,0.0));
#624=DIRECTION('',(1.0,0.0,0.0));
#625=DIRECTION('',(-0.0,1.0,-0.0));
#626=CARTESIAN_POINT('',(7.5,-3.0,0.0));
#627=DIRECTION('',(0.0,-1.0,0.0));
#628=DIRECTION('',(1.0,0.0,0.0));
#629=DIRECTION('',(-0.0,-0.0,-1.0));
#630=CARTESIAN_POINT('',(7.5,4.25,3.625));
#631=DIRECTION('',(-0.0,0.0,1.0));
#632=DIRECTION('',(1.0,0.0,0.0));
#633=DIRECTION('',(-0.0,0.0,1.0));
#634=CARTESIAN_POINT('',(7.5,4.25,-3.0));
#635=DIRECTION('',(0.0,0.0,-1.0));
#636=DIRECTION('',(1.0,0.0,0.0));
#637=DIRECTION('',(-0.0,-0.0,-1.0));
#638=CARTESIAN_POINT('',(7.5,4.25,4.25));
#639=DIRECTION('',(0.0,0.0,-1.0));
#640=DIRECTION('',(1.0,0.0,0.0));
#641=DIRECTION('',(-0.0,0.0,1.0));
#642=CARTESIAN_POINT('',(7.5,4.25,3.625));
#643=DIRECTION('',(0.0,0.0,-1.0));
#644=DIRECTION('',(1.0,0.0,0.0));
#645=DIRECTION('',(-0.0,-1.0,-0.0));
#646=CARTESIAN_POINT('',(0.0,1.22,0.0));
#647=DIRECTION('',(6.12303176911189E-17,-1.0,0.0));
#648=DIRECTION('',(1.0,6.12303176911189E-17,0.0));
#649=DIRECTION('',(-0.0,1.0,-0.0));
#650=CARTESIAN_POINT('',(0.0,0.0,0.0));
#651=DIRECTION('',(-0.0,1.0,0.0));
#652=DIRECTION('',(1.0,0.0,0.0));
#653=DIRECTION('',(0.707106781186547,0.707106781186548,-8.65927457071935E-17));
#654=CARTESIAN_POINT('',(0.0,1.22,0.0));
#655=DIRECTION('',(6.12303176911189E-17,-1.0,0.0));
#656=DIRECTION('',(1.0,6.12303176911189E-17,0.0));
#657=DIRECTION('',(0.707106781186547,-0.707106781186548,-8.65927457071935E-17));
#658=CARTESIAN_POINT('',(0.0,2.87,0.0));
#659=DIRECTION('',(6.12303176911189E-17,-1.0,0.0));
#660=DIRECTION('',(1.0,6.12303176911189E-17,0.0));
#661=DIRECTION('',(-6.12303176911189E-17,1.0,0.0));
#662=DIRECTION('',(6.12303176911189E-17,-1.0,0.0));
#663=CARTESIAN_POINT('',(-2.02060048380692E-17,3.2,0.0));
#664=DIRECTION('',(0.0,-1.0,0.0));
#665=DIRECTION('',(1.0,0.0,0.0));
#666=CARTESIAN_POINT('',(-2.02060048380692E-17,3.2,0.0));
#667=DIRECTION('',(0.0,-1.0,0.0));
#668=DIRECTION('',(1.0,0.0,0.0));
#669=CARTESIAN_POINT('',(0.0,2.87,0.0));
#670=DIRECTION('',(6.12303176911189E-17,-1.0,0.0));
#671=DIRECTION('',(1.0,6.12303176911189E-17,0.0));
#672=CARTESIAN_POINT('',(0.0,0.0,0.0));
#673=DIRECTION('',(-0.0,1.0,0.0));
#674=DIRECTION('',(1.0,0.0,0.0));
#675=DIRECTION('',(0.0,0.0,-1.0));
#676=DIRECTION('',(0.0,0.0,-1.0));
#677=DIRECTION('',(1.0,0.0,0.0));
#678=CARTESIAN_POINT('',(0.0,3.2,0.0));
#679=DIRECTION('',(-0.0,1.0,0.0));
#680=DIRECTION('',(1.0,0.0,0.0));
#681=DIRECTION('',(-1.0,0.0,0.0));
#682=CARTESIAN_POINT('',(7.5,4.25,3.625));
#683=DIRECTION('',(0.0,0.0,-1.0));
#684=DIRECTION('',(1.0,0.0,0.0));
#685=CARTESIAN_POINT('',(7.5,4.25,4.25));
#686=DIRECTION('',(0.0,0.0,-1.0));
#687=DIRECTION('',(1.0,0.0,0.0));
#688=CARTESIAN_POINT('',(7.5,4.25,3.625));
#689=DIRECTION('',(-0.0,0.0,1.0));
#690=DIRECTION('',(1.0,0.0,0.0));
#691=CARTESIAN_POINT('',(7.5,4.25,-3.0));
#692=DIRECTION('',(0.0,0.0,-1.0));
#693=DIRECTION('',(1.0,0.0,0.0));
#694=DIRECTION('',(0.0,-1.0,0.0));
#695=DIRECTION('',(0.0,0.0,1.0));
#696=DIRECTION('',(0.0,1.0,0.0));
#697=DIRECTION('',(0.0,0.0,-1.0));
#698=CARTESIAN_POINT('',(7.5,4.25,-4.25));
#699=DIRECTION('',(0.0,0.0,-1.0));
#700=DIRECTION('',(1.0,0.0,0.0));
#701=CARTESIAN_POINT('',(7.5,4.25,4.25));
#702=DIRECTION('',(0.0,0.0,1.0));
#703=DIRECTION('',(1.0,0.0,0.0));
#704=CARTESIAN_POINT('',(7.5,0.0,0.0));
#705=DIRECTION('',(-0.0,1.0,0.0));
#706=DIRECTION('',(1.0,0.0,0.0));
#707=DIRECTION('',(-1.0,0.0,0.0));
#708=DIRECTION('',(0.0,0.0,-1.0));
#709=DIRECTION('',(1.0,0.0,0.0));
#710=CARTESIAN_POINT('',(0.0,0.0,0.0));
#711=DIRECTION('',(0.0,-1.0,0.0));
#712=DIRECTION('',(1.0,0.0,0.0));
#713=CARTESIAN_POINT('',(7.5,-3.0,0.0));
#714=DIRECTION('',(0.0,-1.0,0.0));
#715=DIRECTION('',(1.0,0.0,0.0));
#716=DIRECTION('',(0.0,1.0,0.0));
#717=DIRECTION('',(0.0,1.0,0.0));
#718=DIRECTION('',(0.0,-1.0,0.0));
ENDSEC;
END-ISO-10303-21;
