ISO-10303-21;
HEADER;
FILE_DESCRIPTION(('STEP AP214'),'1');
FILE_NAME(' ','  ',('TraceParts'),('TraceParts S.A.'),'XStep 1.0',' ',' ');
FILE_SCHEMA(('automotive_design'));
ENDSEC;
DATA;
#1=MECHANICAL_DESIGN_GEOMETRIC_PRESENTATION_REPRESENTATION(' ',(#10,#11,#12,#13,#14,#15,#16,#17,#18,#19,#20,#21,#22,#23,#24,#25,#26,#27,#28,#29,#30,#31,#32,#33,#34,#35,#36,#37,#38,#39,#40,#41,#42,#43,#44,#45,#46,#47,#48,#49,#50,#51,#52,#53,#54,#55,#56,#57),#6);
#2=PRODUCT_DEFINITION_CONTEXT('',#58,'design');
#3=APPLICATION_PROTOCOL_DEFINITION('INTERNATIONAL STANDARD','automotive_design',1994,#58);
#4=PRODUCT_CATEGORY_RELATIONSHIP('NONE','NONE',#59,#60);
#5=SHAPE_DEFINITION_REPRESENTATION(#61,#62);
#6= (GEOMETRIC_REPRESENTATION_CONTEXT(3)GLOBAL_UNCERTAINTY_ASSIGNED_CONTEXT((#65))GLOBAL_UNIT_ASSIGNED_CONTEXT((#67,#68,#69))REPRESENTATION_CONTEXT('NONE','WORKSPACE'));
#10=STYLED_ITEM('',(#71),#72);
#11=STYLED_ITEM('',(#73),#74);
#12=STYLED_ITEM('',(#75),#76);
#13=STYLED_ITEM('',(#77),#78);
#14=STYLED_ITEM('',(#79),#80);
#15=STYLED_ITEM('',(#81),#82);
#16=STYLED_ITEM('',(#83),#84);
#17=STYLED_ITEM('',(#85),#86);
#18=STYLED_ITEM('',(#87),#88);
#19=STYLED_ITEM('',(#89),#90);
#20=STYLED_ITEM('',(#91),#92);
#21=STYLED_ITEM('',(#93),#94);
#22=STYLED_ITEM('',(#95),#96);
#23=STYLED_ITEM('',(#97),#98);
#24=STYLED_ITEM('',(#99),#100);
#25=STYLED_ITEM('',(#101),#102);
#26=STYLED_ITEM('',(#103),#104);
#27=STYLED_ITEM('',(#105),#106);
#28=STYLED_ITEM('',(#107),#108);
#29=STYLED_ITEM('',(#109),#110);
#30=STYLED_ITEM('',(#111),#112);
#31=STYLED_ITEM('',(#113),#114);
#32=STYLED_ITEM('',(#115),#116);
#33=STYLED_ITEM('',(#117),#118);
#34=STYLED_ITEM('',(#119),#120);
#35=STYLED_ITEM('',(#121),#122);
#36=STYLED_ITEM('',(#123),#124);
#37=STYLED_ITEM('',(#125),#126);
#38=STYLED_ITEM('',(#127),#128);
#39=STYLED_ITEM('',(#129),#130);
#40=STYLED_ITEM('',(#131),#132);
#41=STYLED_ITEM('',(#133),#134);
#42=STYLED_ITEM('',(#135),#136);
#43=STYLED_ITEM('',(#137),#138);
#44=STYLED_ITEM('',(#139),#140);
#45=STYLED_ITEM('',(#141),#142);
#46=STYLED_ITEM('',(#143),#144);
#47=STYLED_ITEM('',(#145),#146);
#48=STYLED_ITEM('',(#147),#148);
#49=STYLED_ITEM('',(#149),#150);
#50=STYLED_ITEM('',(#151),#152);
#51=STYLED_ITEM('',(#153),#154);
#52=STYLED_ITEM('',(#155),#156);
#53=STYLED_ITEM('',(#157),#158);
#54=STYLED_ITEM('',(#159),#160);
#55=STYLED_ITEM('',(#161),#162);
#56=STYLED_ITEM('',(#163),#164);
#57=STYLED_ITEM('',(#165),#166);
#58=APPLICATION_CONTEXT(' ');
#59=PRODUCT_CATEGORY('part','NONE');
#60=PRODUCT_RELATED_PRODUCT_CATEGORY('detail',' ',(#167));
#61=PRODUCT_DEFINITION_SHAPE('NONE','NONE',#168);
#62=ADVANCED_BREP_SHAPE_REPRESENTATION('1',(#150,#169),#6);
#65=UNCERTAINTY_MEASURE_WITH_UNIT(LENGTH_MEASURE(1.0E-006),#67,'','');
#67= (CONVERSION_BASED_UNIT('MILLIMETRE',#172)LENGTH_UNIT()NAMED_UNIT(#175));
#68= (NAMED_UNIT(#177)PLANE_ANGLE_UNIT()SI_UNIT($,.RADIAN.));
#69= (NAMED_UNIT(#177)SOLID_ANGLE_UNIT()SI_UNIT($,.STERADIAN.));
#71=PRESENTATION_STYLE_ASSIGNMENT((#183));
#72=EDGE_CURVE('',#134,#132,#184,.T.);
#73=PRESENTATION_STYLE_ASSIGNMENT((#185));
#74=EDGE_CURVE('',#118,#82,#186,.T.);
#75=PRESENTATION_STYLE_ASSIGNMENT((#187));
#76=EDGE_CURVE('',#82,#80,#188,.T.);
#77=PRESENTATION_STYLE_ASSIGNMENT((#189));
#78=EDGE_CURVE('',#108,#136,#190,.T.);
#79=PRESENTATION_STYLE_ASSIGNMENT((#191));
#80=VERTEX_POINT('',#192);
#81=PRESENTATION_STYLE_ASSIGNMENT((#193));
#82=VERTEX_POINT('',#194);
#83=PRESENTATION_STYLE_ASSIGNMENT((#195));
#84=ADVANCED_FACE('',(#196),#197,.T.);
#85=PRESENTATION_STYLE_ASSIGNMENT((#198));
#86=EDGE_CURVE('',#152,#162,#199,.T.);
#87=PRESENTATION_STYLE_ASSIGNMENT((#200));
#88=VERTEX_POINT('',#201);
#89=PRESENTATION_STYLE_ASSIGNMENT((#202));
#90=EDGE_CURVE('',#130,#80,#203,.T.);
#91=PRESENTATION_STYLE_ASSIGNMENT((#204));
#92=ADVANCED_FACE('',(#205,#206),#207,.T.);
#93=PRESENTATION_STYLE_ASSIGNMENT((#208));
#94=EDGE_CURVE('',#88,#134,#209,.T.);
#95=PRESENTATION_STYLE_ASSIGNMENT((#210));
#96=EDGE_CURVE('',#126,#104,#211,.T.);
#97=PRESENTATION_STYLE_ASSIGNMENT((#212));
#98=EDGE_CURVE('',#88,#164,#213,.T.);
#99=PRESENTATION_STYLE_ASSIGNMENT((#214));
#100=ADVANCED_FACE('',(#215),#216,.T.);
#101=PRESENTATION_STYLE_ASSIGNMENT((#217));
#102=EDGE_CURVE('',#162,#152,#218,.T.);
#103=PRESENTATION_STYLE_ASSIGNMENT((#219));
#104=VERTEX_POINT('',#220);
#105=PRESENTATION_STYLE_ASSIGNMENT((#221));
#106=EDGE_CURVE('',#130,#118,#222,.T.);
#107=PRESENTATION_STYLE_ASSIGNMENT((#223));
#108=VERTEX_POINT('',#224);
#109=PRESENTATION_STYLE_ASSIGNMENT((#225));
#110=ADVANCED_FACE('',(#226),#227,.T.);
#111=PRESENTATION_STYLE_ASSIGNMENT((#228));
#112=EDGE_CURVE('',#80,#130,#229,.T.);
#113=PRESENTATION_STYLE_ASSIGNMENT((#230));
#114=EDGE_CURVE('',#136,#162,#231,.T.);
#115=PRESENTATION_STYLE_ASSIGNMENT((#232));
#116=ADVANCED_FACE('',(#233),#234,.T.);
#117=PRESENTATION_STYLE_ASSIGNMENT((#235));
#118=VERTEX_POINT('',#236);
#119=PRESENTATION_STYLE_ASSIGNMENT((#237));
#120=EDGE_CURVE('',#152,#108,#238,.T.);
#121=PRESENTATION_STYLE_ASSIGNMENT((#239));
#122=ADVANCED_FACE('',(#240),#241,.T.);
#123=PRESENTATION_STYLE_ASSIGNMENT((#242));
#124=ADVANCED_FACE('',(#243),#244,.F.);
#125=PRESENTATION_STYLE_ASSIGNMENT((#245));
#126=VERTEX_POINT('',#246);
#127=PRESENTATION_STYLE_ASSIGNMENT((#247));
#128=EDGE_CURVE('',#104,#126,#248,.T.);
#129=PRESENTATION_STYLE_ASSIGNMENT((#249));
#130=VERTEX_POINT('',#250);
#131=PRESENTATION_STYLE_ASSIGNMENT((#251));
#132=VERTEX_POINT('',#252);
#133=PRESENTATION_STYLE_ASSIGNMENT((#253));
#134=VERTEX_POINT('',#254);
#135=PRESENTATION_STYLE_ASSIGNMENT((#255));
#136=VERTEX_POINT('',#256);
#137=PRESENTATION_STYLE_ASSIGNMENT((#257));
#138=EDGE_CURVE('',#132,#134,#258,.T.);
#139=PRESENTATION_STYLE_ASSIGNMENT((#259));
#140=EDGE_CURVE('',#132,#164,#260,.T.);
#141=PRESENTATION_STYLE_ASSIGNMENT((#261));
#142=ADVANCED_FACE('',(#262,#263),#264,.T.);
#143=PRESENTATION_STYLE_ASSIGNMENT((#265));
#144=ADVANCED_FACE('',(#266,#267),#268,.T.);
#145=PRESENTATION_STYLE_ASSIGNMENT((#269));
#146=ADVANCED_FACE('',(#270),#271,.T.);
#147=PRESENTATION_STYLE_ASSIGNMENT((#272));
#148=EDGE_CURVE('',#136,#108,#273,.T.);
#149=PRESENTATION_STYLE_ASSIGNMENT((#274));
#150=MANIFOLD_SOLID_BREP('1',#275);
#151=PRESENTATION_STYLE_ASSIGNMENT((#276));
#152=VERTEX_POINT('',#277);
#153=PRESENTATION_STYLE_ASSIGNMENT((#278));
#154=EDGE_CURVE('',#164,#88,#279,.T.);
#155=PRESENTATION_STYLE_ASSIGNMENT((#280));
#156=ADVANCED_FACE('',(#281),#282,.F.);
#157=PRESENTATION_STYLE_ASSIGNMENT((#283));
#158=EDGE_CURVE('',#82,#118,#284,.T.);
#159=PRESENTATION_STYLE_ASSIGNMENT((#285));
#160=EDGE_CURVE('',#126,#136,#286,.T.);
#161=PRESENTATION_STYLE_ASSIGNMENT((#287));
#162=VERTEX_POINT('',#288);
#163=PRESENTATION_STYLE_ASSIGNMENT((#289));
#164=VERTEX_POINT('',#290);
#165=PRESENTATION_STYLE_ASSIGNMENT((#291));
#166=EDGE_CURVE('',#108,#104,#292,.T.);
#167=PRODUCT('1','1','PART-1-DESC',(#293));
#168=PRODUCT_DEFINITION('NONE','NONE',#294,#2);
#169=AXIS2_PLACEMENT_3D('',#295,#296,#297);
#172=LENGTH_MEASURE_WITH_UNIT(LENGTH_MEASURE(1.0),#298);
#175=DIMENSIONAL_EXPONENTS(1.0,0.0,0.0,0.0,0.0,0.0,0.0);
#177=DIMENSIONAL_EXPONENTS(0.0,0.0,0.0,0.0,0.0,0.0,0.0);
#183=CURVE_STYLE('',#299,POSITIVE_LENGTH_MEASURE(1.0E-006),#300);
#184=CIRCLE('',#301,6.0);
#185=CURVE_STYLE('',#302,POSITIVE_LENGTH_MEASURE(1.0E-006),#303);
#186=CIRCLE('',#304,10.0);
#187=CURVE_STYLE('',#305,POSITIVE_LENGTH_MEASURE(1.0E-006),#306);
#188=LINE('',#307,#308);
#189=CURVE_STYLE('',#309,POSITIVE_LENGTH_MEASURE(1.0E-006),#310);
#190=CIRCLE('',#311,11.5);
#191=POINT_STYLE(' ',#312,POSITIVE_LENGTH_MEASURE(1.0E-006),#313);
#192=CARTESIAN_POINT('',(-10.0,2.22899653195713E-015,-2.8421709430404E-014));
#193=POINT_STYLE(' ',#314,POSITIVE_LENGTH_MEASURE(1.0E-006),#315);
#194=CARTESIAN_POINT('',(-10.0,2.22899653195713E-015,-10.0));
#195=SURFACE_STYLE_USAGE(.BOTH.,#316);
#196=FACE_OUTER_BOUND('',#317,.T.);
#197=CYLINDRICAL_SURFACE('',#318,11.5);
#198=CURVE_STYLE('',#319,POSITIVE_LENGTH_MEASURE(1.0E-006),#320);
#199=CIRCLE('',#321,11.0);
#200=POINT_STYLE(' ',#322,POSITIVE_LENGTH_MEASURE(1.0E-006),#323);
#201=CARTESIAN_POINT('',(6.0,5.2534055128984E-015,2.99999999999997));
#202=CURVE_STYLE('',#324,POSITIVE_LENGTH_MEASURE(1.0E-006),#325);
#203=CIRCLE('',#326,10.0);
#204=SURFACE_STYLE_USAGE(.BOTH.,#327);
#205=FACE_BOUND('',#328,.T.);
#206=FACE_OUTER_BOUND('',#329,.T.);
#207=PLANE('',#330);
#208=CURVE_STYLE('',#331,POSITIVE_LENGTH_MEASURE(1.0E-006),#332);
#209=LINE('',#333,#334);
#210=CURVE_STYLE('',#335,POSITIVE_LENGTH_MEASURE(1.0E-006),#336);
#211=CIRCLE('',#337,11.5);
#212=CURVE_STYLE('',#338,POSITIVE_LENGTH_MEASURE(1.0E-006),#339);
#213=CIRCLE('',#340,6.0);
#214=SURFACE_STYLE_USAGE(.BOTH.,#341);
#215=FACE_OUTER_BOUND('',#342,.T.);
#216=CYLINDRICAL_SURFACE('',#343,11.5);
#217=CURVE_STYLE('',#344,POSITIVE_LENGTH_MEASURE(1.0E-006),#345);
#218=CIRCLE('',#346,11.0);
#219=POINT_STYLE(' ',#347,POSITIVE_LENGTH_MEASURE(1.0E-006),#348);
#220=CARTESIAN_POINT('',(11.5,5.74324805442735E-015,-2.8421709430404E-014));
#221=CURVE_STYLE('',#349,POSITIVE_LENGTH_MEASURE(1.0E-006),#350);
#222=LINE('',#351,#352);
#223=POINT_STYLE(' ',#353,POSITIVE_LENGTH_MEASURE(1.0E-006),#354);
#224=CARTESIAN_POINT('',(11.5,5.89632384865515E-015,2.49999999999997));
#225=SURFACE_STYLE_USAGE(.BOTH.,#355);
#226=FACE_OUTER_BOUND('',#356,.T.);
#227=CYLINDRICAL_SURFACE('',#357,10.0);
#228=CURVE_STYLE('',#358,POSITIVE_LENGTH_MEASURE(1.0E-006),#359);
#229=CIRCLE('',#360,10.0);
#230=CURVE_STYLE('',#361,POSITIVE_LENGTH_MEASURE(1.0E-006),#362);
#231=LINE('',#363,#364);
#232=SURFACE_STYLE_USAGE(.BOTH.,#365);
#233=FACE_OUTER_BOUND('',#366,.T.);
#234=CYLINDRICAL_SURFACE('',#367,10.0);
#235=POINT_STYLE(' ',#368,POSITIVE_LENGTH_MEASURE(1.0E-006),#369);
#236=CARTESIAN_POINT('',(10.0,4.94725392444281E-015,-10.0));
#237=CURVE_STYLE('',#370,POSITIVE_LENGTH_MEASURE(1.0E-006),#371);
#238=LINE('',#372,#373);
#239=SURFACE_STYLE_USAGE(.BOTH.,#374);
#240=FACE_OUTER_BOUND('',#375,.T.);
#241=CONICAL_SURFACE('',#376,11.25,0.78539816339742);
#242=SURFACE_STYLE_USAGE(.BOTH.,#377);
#243=FACE_OUTER_BOUND('',#378,.T.);
#244=CYLINDRICAL_SURFACE('',#379,6.0);
#245=POINT_STYLE(' ',#380,POSITIVE_LENGTH_MEASURE(1.0E-006),#381);
#246=CARTESIAN_POINT('',(-11.5,1.88554975665997E-015,-2.8421709430404E-014));
#247=CURVE_STYLE('',#382,POSITIVE_LENGTH_MEASURE(1.0E-006),#383);
#248=CIRCLE('',#384,11.5);
#249=POINT_STYLE(' ',#385,POSITIVE_LENGTH_MEASURE(1.0E-006),#386);
#250=CARTESIAN_POINT('',(10.0,5.559557101354E-015,-2.8421709430404E-014));
#251=POINT_STYLE(' ',#387,POSITIVE_LENGTH_MEASURE(1.0E-006),#388);
#252=CARTESIAN_POINT('',(-6.0,3.14485459941628E-015,-10.0));
#253=POINT_STYLE(' ',#389,POSITIVE_LENGTH_MEASURE(1.0E-006),#390);
#254=CARTESIAN_POINT('',(6.0,4.45741138291386E-015,-10.0));
#255=POINT_STYLE(' ',#391,POSITIVE_LENGTH_MEASURE(1.0E-006),#392);
#256=CARTESIAN_POINT('',(-11.5,1.88554975665997E-015,2.49999999999997));
#257=CURVE_STYLE('',#393,POSITIVE_LENGTH_MEASURE(1.0E-006),#394);
#258=CIRCLE('',#395,6.0);
#259=CURVE_STYLE('',#396,POSITIVE_LENGTH_MEASURE(1.0E-006),#397);
#260=LINE('',#398,#399);
#261=SURFACE_STYLE_USAGE(.BOTH.,#400);
#262=FACE_BOUND('',#401,.T.);
#263=FACE_OUTER_BOUND('',#402,.T.);
#264=PLANE('',#403);
#265=SURFACE_STYLE_USAGE(.BOTH.,#404);
#266=FACE_OUTER_BOUND('',#405,.T.);
#267=FACE_BOUND('',#406,.T.);
#268=PLANE('',#407);
#269=SURFACE_STYLE_USAGE(.BOTH.,#408);
#270=FACE_OUTER_BOUND('',#409,.T.);
#271=CONICAL_SURFACE('',#410,11.25,0.78539816339742);
#272=CURVE_STYLE('',#411,POSITIVE_LENGTH_MEASURE(1.0E-006),#412);
#273=CIRCLE('',#413,11.5);
#274=SURFACE_STYLE_USAGE(.BOTH.,#414);
#275=CLOSED_SHELL('',(#100,#146,#124,#110,#142,#116,#92,#156,#144,#122,#84));
#276=POINT_STYLE(' ',#415,POSITIVE_LENGTH_MEASURE(1.0E-006),#416);
#277=CARTESIAN_POINT('',(11.0,5.86570868980959E-015,2.99999999999997));
#278=CURVE_STYLE('',#417,POSITIVE_LENGTH_MEASURE(1.0E-006),#418);
#279=CIRCLE('',#419,6.0);
#280=SURFACE_STYLE_USAGE(.BOTH.,#420);
#281=FACE_OUTER_BOUND('',#421,.T.);
#282=CYLINDRICAL_SURFACE('',#422,6.0);
#283=CURVE_STYLE('',#423,POSITIVE_LENGTH_MEASURE(1.0E-006),#424);
#284=CIRCLE('',#425,10.0);
#285=CURVE_STYLE('',#426,POSITIVE_LENGTH_MEASURE(1.0E-006),#427);
#286=LINE('',#428,#429);
#287=POINT_STYLE(' ',#430,POSITIVE_LENGTH_MEASURE(1.0E-006),#431);
#288=CARTESIAN_POINT('',(-11.0,2.00003201509235E-015,2.99999999999997));
#289=POINT_STYLE(' ',#432,POSITIVE_LENGTH_MEASURE(1.0E-006),#433);
#290=CARTESIAN_POINT('',(-6.0,3.14485459941628E-015,2.99999999999997));
#291=CURVE_STYLE('',#434,POSITIVE_LENGTH_MEASURE(1.0E-006),#435);
#292=LINE('',#436,#437);
#293=PRODUCT_CONTEXT('',#58,'mechanical');
#294=PRODUCT_DEFINITION_FORMATION_WITH_SPECIFIED_SOURCE(' ','NONE',#167,.NOT_KNOWN.);
#295=CARTESIAN_POINT('',(0.0,0.0,0.0));
#296=DIRECTION('',(0.0,0.0,1.0));
#297=DIRECTION('',(1.0,0.0,0.0));
#298= (NAMED_UNIT(#175)LENGTH_UNIT()SI_UNIT(.MILLI.,.METRE.));
#299=DRAUGHTING_PRE_DEFINED_CURVE_FONT('continuous');
#300=COLOUR_RGB('',0.509803950786591,0.509803950786591,0.588235318660736);
#301=AXIS2_PLACEMENT_3D('',#439,#440,#441);
#302=DRAUGHTING_PRE_DEFINED_CURVE_FONT('continuous');
#303=COLOUR_RGB('',0.509803950786591,0.509803950786591,0.588235318660736);
#304=AXIS2_PLACEMENT_3D('',#442,#443,#444);
#305=DRAUGHTING_PRE_DEFINED_CURVE_FONT('continuous');
#306=COLOUR_RGB('',0.509803950786591,0.509803950786591,0.588235318660736);
#307=CARTESIAN_POINT('',(-10.0,2.22899653195713E-015,-5.00000000000003));
#308=VECTOR('',#445,1.0);
#309=DRAUGHTING_PRE_DEFINED_CURVE_FONT('continuous');
#310=COLOUR_RGB('',0.509803950786591,0.509803950786591,0.588235318660736);
#311=AXIS2_PLACEMENT_3D('',#446,#447,#448);
#312=PRE_DEFINED_MARKER('');
#313=COLOUR_RGB('',0.509803950786591,0.509803950786591,0.588235318660736);
#314=PRE_DEFINED_MARKER('');
#315=COLOUR_RGB('',0.509803950786591,0.509803950786591,0.588235318660736);
#316=SURFACE_SIDE_STYLE('',(#449));
#317=EDGE_LOOP('',(#450,#451,#452,#453));
#318=AXIS2_PLACEMENT_3D('',#454,#455,#456);
#319=DRAUGHTING_PRE_DEFINED_CURVE_FONT('continuous');
#320=COLOUR_RGB('',0.509803950786591,0.509803950786591,0.588235318660736);
#321=AXIS2_PLACEMENT_3D('',#457,#458,#459);
#322=PRE_DEFINED_MARKER('');
#323=COLOUR_RGB('',0.509803950786591,0.509803950786591,0.588235318660736);
#324=DRAUGHTING_PRE_DEFINED_CURVE_FONT('continuous');
#325=COLOUR_RGB('',0.509803950786591,0.509803950786591,0.588235318660736);
#326=AXIS2_PLACEMENT_3D('',#460,#461,#462);
#327=SURFACE_SIDE_STYLE('',(#463));
#328=EDGE_LOOP('',(#464,#465));
#329=EDGE_LOOP('',(#466,#467));
#330=AXIS2_PLACEMENT_3D('',#468,#469,#470);
#331=DRAUGHTING_PRE_DEFINED_CURVE_FONT('continuous');
#332=COLOUR_RGB('',0.509803950786591,0.509803950786591,0.588235318660736);
#333=CARTESIAN_POINT('',(6.0,5.89242880179368E-015,-3.50000000000003));
#334=VECTOR('',#471,1.0);
#335=DRAUGHTING_PRE_DEFINED_CURVE_FONT('continuous');
#336=COLOUR_RGB('',0.509803950786591,0.509803950786591,0.588235318660736);
#337=AXIS2_PLACEMENT_3D('',#472,#473,#474);
#338=DRAUGHTING_PRE_DEFINED_CURVE_FONT('continuous');
#339=COLOUR_RGB('',0.509803950786591,0.509803950786591,0.588235318660736);
#340=AXIS2_PLACEMENT_3D('',#475,#476,#477);
#341=SURFACE_SIDE_STYLE('',(#478));
#342=EDGE_LOOP('',(#479,#480,#481,#482));
#343=AXIS2_PLACEMENT_3D('',#483,#484,#485);
#344=DRAUGHTING_PRE_DEFINED_CURVE_FONT('continuous');
#345=COLOUR_RGB('',0.509803950786591,0.509803950786591,0.588235318660736);
#346=AXIS2_PLACEMENT_3D('',#486,#487,#488);
#347=PRE_DEFINED_MARKER('');
#348=COLOUR_RGB('',0.509803950786591,0.509803950786591,0.588235318660736);
#349=DRAUGHTING_PRE_DEFINED_CURVE_FONT('continuous');
#350=COLOUR_RGB('',0.509803950786591,0.509803950786591,0.588235318660736);
#351=CARTESIAN_POINT('',(10.0,6.80828686925282E-015,-5.00000000000003));
#352=VECTOR('',#489,1.0);
#353=PRE_DEFINED_MARKER('');
#354=COLOUR_RGB('',0.509803950786591,0.509803950786591,0.588235318660736);
#355=SURFACE_SIDE_STYLE('',(#490));
#356=EDGE_LOOP('',(#491,#492,#493,#494));
#357=AXIS2_PLACEMENT_3D('',#495,#496,#497);
#358=DRAUGHTING_PRE_DEFINED_CURVE_FONT('continuous');
#359=COLOUR_RGB('',0.509803950786591,0.509803950786591,0.588235318660736);
#360=AXIS2_PLACEMENT_3D('',#498,#499,#500);
#361=DRAUGHTING_PRE_DEFINED_CURVE_FONT('continuous');
#362=COLOUR_RGB('',0.509803950786591,0.509803950786591,0.588235318660736);
#363=CARTESIAN_POINT('',(-11.25,1.94279088587616E-015,2.74999999999997));
#364=VECTOR('',#501,1.0);
#365=SURFACE_SIDE_STYLE('',(#502));
#366=EDGE_LOOP('',(#503,#504,#505,#506));
#367=AXIS2_PLACEMENT_3D('',#507,#508,#509);
#368=PRE_DEFINED_MARKER('');
#369=COLOUR_RGB('',0.509803950786591,0.509803950786591,0.588235318660736);
#370=DRAUGHTING_PRE_DEFINED_CURVE_FONT('continuous');
#371=COLOUR_RGB('',0.509803950786591,0.509803950786591,0.588235318660736);
#372=CARTESIAN_POINT('',(11.25,7.0944925153338E-015,2.74999999999997));
#373=VECTOR('',#510,1.0);
#374=SURFACE_SIDE_STYLE('',(#511));
#375=EDGE_LOOP('',(#512,#513,#514,#515));
#376=AXIS2_PLACEMENT_3D('',#516,#517,#518);
#377=SURFACE_SIDE_STYLE('',(#519));
#378=EDGE_LOOP('',(#520,#521,#522,#523));
#379=AXIS2_PLACEMENT_3D('',#524,#525,#526);
#380=PRE_DEFINED_MARKER('');
#381=COLOUR_RGB('',0.509803950786591,0.509803950786591,0.588235318660736);
#382=DRAUGHTING_PRE_DEFINED_CURVE_FONT('continuous');
#383=COLOUR_RGB('',0.509803950786591,0.509803950786591,0.588235318660736);
#384=AXIS2_PLACEMENT_3D('',#527,#528,#529);
#385=PRE_DEFINED_MARKER('');
#386=COLOUR_RGB('',0.509803950786591,0.509803950786591,0.588235318660736);
#387=PRE_DEFINED_MARKER('');
#388=COLOUR_RGB('',0.509803950786591,0.509803950786591,0.588235318660736);
#389=PRE_DEFINED_MARKER('');
#390=COLOUR_RGB('',0.509803950786591,0.509803950786591,0.588235318660736);
#391=PRE_DEFINED_MARKER('');
#392=COLOUR_RGB('',0.509803950786591,0.509803950786591,0.588235318660736);
#393=DRAUGHTING_PRE_DEFINED_CURVE_FONT('continuous');
#394=COLOUR_RGB('',0.509803950786591,0.509803950786591,0.588235318660736);
#395=AXIS2_PLACEMENT_3D('',#530,#531,#532);
#396=DRAUGHTING_PRE_DEFINED_CURVE_FONT('continuous');
#397=COLOUR_RGB('',0.509803950786591,0.509803950786591,0.588235318660736);
#398=CARTESIAN_POINT('',(-6.0,3.14485459941628E-015,-3.50000000000003));
#399=VECTOR('',#533,1.0);
#400=SURFACE_SIDE_STYLE('',(#534));
#401=EDGE_LOOP('',(#535,#536));
#402=EDGE_LOOP('',(#537,#538));
#403=AXIS2_PLACEMENT_3D('',#539,#540,#541);
#404=SURFACE_SIDE_STYLE('',(#542));
#405=EDGE_LOOP('',(#543,#544));
#406=EDGE_LOOP('',(#545,#546));
#407=AXIS2_PLACEMENT_3D('',#547,#548,#549);
#408=SURFACE_SIDE_STYLE('',(#550));
#409=EDGE_LOOP('',(#551,#552,#553,#554));
#410=AXIS2_PLACEMENT_3D('',#555,#556,#557);
#411=DRAUGHTING_PRE_DEFINED_CURVE_FONT('continuous');
#412=COLOUR_RGB('',0.509803950786591,0.509803950786591,0.588235318660736);
#413=AXIS2_PLACEMENT_3D('',#558,#559,#560);
#414=SURFACE_SIDE_STYLE('',(#561));
#415=PRE_DEFINED_MARKER('');
#416=COLOUR_RGB('',0.509803950786591,0.509803950786591,0.588235318660736);
#417=DRAUGHTING_PRE_DEFINED_CURVE_FONT('continuous');
#418=COLOUR_RGB('',0.509803950786591,0.509803950786591,0.588235318660736);
#419=AXIS2_PLACEMENT_3D('',#562,#563,#564);
#420=SURFACE_SIDE_STYLE('',(#565));
#421=EDGE_LOOP('',(#566,#567,#568,#569));
#422=AXIS2_PLACEMENT_3D('',#570,#571,#572);
#423=DRAUGHTING_PRE_DEFINED_CURVE_FONT('continuous');
#424=COLOUR_RGB('',0.509803950786591,0.509803950786591,0.588235318660736);
#425=AXIS2_PLACEMENT_3D('',#573,#574,#575);
#426=DRAUGHTING_PRE_DEFINED_CURVE_FONT('continuous');
#427=COLOUR_RGB('',0.509803950786591,0.509803950786591,0.588235318660736);
#428=CARTESIAN_POINT('',(-11.5,1.88554975665997E-015,1.24999999999997));
#429=VECTOR('',#576,1.0);
#430=PRE_DEFINED_MARKER('');
#431=COLOUR_RGB('',0.509803950786591,0.509803950786591,0.588235318660736);
#432=PRE_DEFINED_MARKER('');
#433=COLOUR_RGB('',0.509803950786591,0.509803950786591,0.588235318660736);
#434=DRAUGHTING_PRE_DEFINED_CURVE_FONT('continuous');
#435=COLOUR_RGB('',0.509803950786591,0.509803950786591,0.588235318660736);
#436=CARTESIAN_POINT('',(11.5,7.15173364454999E-015,1.24999999999997));
#437=VECTOR('',#577,1.0);
#439=CARTESIAN_POINT('',(0.0,4.51864170060498E-015,-10.0));
#440=DIRECTION('',(0.0,0.0,-1.0));
#441=DIRECTION('',(1.0,1.06503881482546E-016,0.0));
#442=CARTESIAN_POINT('',(0.0,4.51864170060498E-015,-10.0));
#443=DIRECTION('',(0.0,0.0,-1.0));
#444=DIRECTION('',(1.0,1.06503881482546E-016,0.0));
#445=DIRECTION('',(-0.0,-0.0,1.0));
#446=CARTESIAN_POINT('',(0.0,4.51864170060498E-015,2.49999999999997));
#447=DIRECTION('',(0.0,0.0,-1.0));
#448=DIRECTION('',(1.0,1.06503881482546E-016,0.0));
#449=SURFACE_STYLE_FILL_AREA(#578);
#450=ORIENTED_EDGE('',*,*,#166,.T.);
#451=ORIENTED_EDGE('',*,*,#96,.F.);
#452=ORIENTED_EDGE('',*,*,#160,.T.);
#453=ORIENTED_EDGE('',*,*,#148,.T.);
#454=CARTESIAN_POINT('',(0.0,4.51864170060498E-015,1.24999999999997));
#455=DIRECTION('',(-0.0,-0.0,1.0));
#456=DIRECTION('',(1.0,1.06503881482546E-016,0.0));
#457=CARTESIAN_POINT('',(0.0,4.51864170060498E-015,2.99999999999997));
#458=DIRECTION('',(0.0,0.0,-1.0));
#459=DIRECTION('',(1.0,1.06503881482546E-016,0.0));
#460=CARTESIAN_POINT('',(0.0,4.51864170060498E-015,-2.8421709430404E-014));
#461=DIRECTION('',(0.0,0.0,-1.0));
#462=DIRECTION('',(1.0,1.06503881482546E-016,0.0));
#463=SURFACE_STYLE_FILL_AREA(#579);
#464=ORIENTED_EDGE('',*,*,#72,.F.);
#465=ORIENTED_EDGE('',*,*,#138,.F.);
#466=ORIENTED_EDGE('',*,*,#74,.T.);
#467=ORIENTED_EDGE('',*,*,#158,.T.);
#468=CARTESIAN_POINT('',(8.00000000000001,4.70233265367833E-015,-10.0));
#469=DIRECTION('',(0.0,0.0,-1.0));
#470=DIRECTION('',(1.0,1.22460635382238E-016,0.0));
#471=DIRECTION('',(-0.0,-0.0,-1.0));
#472=CARTESIAN_POINT('',(0.0,4.51864170060498E-015,-2.8421709430404E-014));
#473=DIRECTION('',(0.0,0.0,-1.0));
#474=DIRECTION('',(1.0,1.06503881482546E-016,0.0));
#475=CARTESIAN_POINT('',(0.0,4.51864170060498E-015,2.99999999999997));
#476=DIRECTION('',(0.0,0.0,-1.0));
#477=DIRECTION('',(1.0,1.06503881482546E-016,0.0));
#478=SURFACE_STYLE_FILL_AREA(#580);
#479=ORIENTED_EDGE('',*,*,#166,.F.);
#480=ORIENTED_EDGE('',*,*,#78,.T.);
#481=ORIENTED_EDGE('',*,*,#160,.F.);
#482=ORIENTED_EDGE('',*,*,#128,.F.);
#483=CARTESIAN_POINT('',(0.0,4.51864170060498E-015,1.24999999999997));
#484=DIRECTION('',(-0.0,-0.0,1.0));
#485=DIRECTION('',(1.0,1.06503881482546E-016,0.0));
#486=CARTESIAN_POINT('',(0.0,4.51864170060498E-015,2.99999999999997));
#487=DIRECTION('',(0.0,0.0,-1.0));
#488=DIRECTION('',(1.0,1.06503881482546E-016,0.0));
#489=DIRECTION('',(0.0,0.0,-1.0));
#490=SURFACE_STYLE_FILL_AREA(#581);
#491=ORIENTED_EDGE('',*,*,#106,.F.);
#492=ORIENTED_EDGE('',*,*,#90,.T.);
#493=ORIENTED_EDGE('',*,*,#76,.F.);
#494=ORIENTED_EDGE('',*,*,#74,.F.);
#495=CARTESIAN_POINT('',(0.0,4.51864170060498E-015,-5.00000000000003));
#496=DIRECTION('',(-0.0,-0.0,1.0));
#497=DIRECTION('',(1.0,1.06503881482546E-016,0.0));
#498=CARTESIAN_POINT('',(0.0,4.51864170060498E-015,-2.8421709430404E-014));
#499=DIRECTION('',(0.0,0.0,-1.0));
#500=DIRECTION('',(1.0,1.06503881482546E-016,0.0));
#501=DIRECTION('',(0.707106781186527,1.61902362526186E-016,0.707106781186568));
#502=SURFACE_STYLE_FILL_AREA(#582);
#503=ORIENTED_EDGE('',*,*,#106,.T.);
#504=ORIENTED_EDGE('',*,*,#158,.F.);
#505=ORIENTED_EDGE('',*,*,#76,.T.);
#506=ORIENTED_EDGE('',*,*,#112,.T.);
#507=CARTESIAN_POINT('',(0.0,4.51864170060498E-015,-5.00000000000003));
#508=DIRECTION('',(-0.0,-0.0,1.0));
#509=DIRECTION('',(1.0,1.06503881482546E-016,0.0));
#510=DIRECTION('',(0.707106781186527,1.61902362526186E-016,-0.707106781186568));
#511=SURFACE_STYLE_FILL_AREA(#583);
#512=ORIENTED_EDGE('',*,*,#120,.T.);
#513=ORIENTED_EDGE('',*,*,#148,.F.);
#514=ORIENTED_EDGE('',*,*,#114,.T.);
#515=ORIENTED_EDGE('',*,*,#102,.T.);
#516=CARTESIAN_POINT('',(0.0,4.51864170060498E-015,2.74999999999997));
#517=DIRECTION('',(0.0,-0.0,-1.0));
#518=DIRECTION('',(1.0,1.06503881482546E-016,0.0));
#519=SURFACE_STYLE_FILL_AREA(#584);
#520=ORIENTED_EDGE('',*,*,#94,.F.);
#521=ORIENTED_EDGE('',*,*,#154,.F.);
#522=ORIENTED_EDGE('',*,*,#140,.F.);
#523=ORIENTED_EDGE('',*,*,#138,.T.);
#524=CARTESIAN_POINT('',(0.0,4.51864170060498E-015,-3.50000000000003));
#525=DIRECTION('',(-0.0,-0.0,1.0));
#526=DIRECTION('',(1.0,1.06503881482546E-016,0.0));
#527=CARTESIAN_POINT('',(0.0,4.51864170060498E-015,-2.8421709430404E-014));
#528=DIRECTION('',(0.0,0.0,-1.0));
#529=DIRECTION('',(1.0,1.06503881482546E-016,0.0));
#530=CARTESIAN_POINT('',(0.0,4.51864170060498E-015,-10.0));
#531=DIRECTION('',(0.0,0.0,-1.0));
#532=DIRECTION('',(1.0,1.06503881482546E-016,0.0));
#533=DIRECTION('',(-0.0,-0.0,1.0));
#534=SURFACE_STYLE_FILL_AREA(#585);
#535=ORIENTED_EDGE('',*,*,#90,.F.);
#536=ORIENTED_EDGE('',*,*,#112,.F.);
#537=ORIENTED_EDGE('',*,*,#128,.T.);
#538=ORIENTED_EDGE('',*,*,#96,.T.);
#539=CARTESIAN_POINT('',(10.75,5.65140257789068E-015,-2.8421709430404E-014));
#540=DIRECTION('',(0.0,0.0,-1.0));
#541=DIRECTION('',(1.0,1.22460635382238E-016,0.0));
#542=SURFACE_STYLE_FILL_AREA(#586);
#543=ORIENTED_EDGE('',*,*,#86,.F.);
#544=ORIENTED_EDGE('',*,*,#102,.F.);
#545=ORIENTED_EDGE('',*,*,#98,.T.);
#546=ORIENTED_EDGE('',*,*,#154,.T.);
#547=CARTESIAN_POINT('',(8.50000000000001,5.559557101354E-015,2.99999999999997));
#548=DIRECTION('',(0.0,0.0,1.0));
#549=DIRECTION('',(-1.0,-1.22460635382238E-016,0.0));
#550=SURFACE_STYLE_FILL_AREA(#587);
#551=ORIENTED_EDGE('',*,*,#120,.F.);
#552=ORIENTED_EDGE('',*,*,#86,.T.);
#553=ORIENTED_EDGE('',*,*,#114,.F.);
#554=ORIENTED_EDGE('',*,*,#78,.F.);
#555=CARTESIAN_POINT('',(0.0,4.51864170060498E-015,2.74999999999997));
#556=DIRECTION('',(0.0,-0.0,-1.0));
#557=DIRECTION('',(1.0,1.06503881482546E-016,0.0));
#558=CARTESIAN_POINT('',(0.0,4.51864170060498E-015,2.49999999999997));
#559=DIRECTION('',(0.0,0.0,-1.0));
#560=DIRECTION('',(1.0,1.06503881482546E-016,0.0));
#561=SURFACE_STYLE_FILL_AREA(#588);
#562=CARTESIAN_POINT('',(0.0,4.51864170060498E-015,2.99999999999997));
#563=DIRECTION('',(0.0,0.0,-1.0));
#564=DIRECTION('',(1.0,1.06503881482546E-016,0.0));
#565=SURFACE_STYLE_FILL_AREA(#589);
#566=ORIENTED_EDGE('',*,*,#94,.T.);
#567=ORIENTED_EDGE('',*,*,#72,.T.);
#568=ORIENTED_EDGE('',*,*,#140,.T.);
#569=ORIENTED_EDGE('',*,*,#98,.F.);
#570=CARTESIAN_POINT('',(0.0,4.51864170060498E-015,-3.50000000000003));
#571=DIRECTION('',(-0.0,-0.0,1.0));
#572=DIRECTION('',(1.0,1.06503881482546E-016,0.0));
#573=CARTESIAN_POINT('',(0.0,4.51864170060498E-015,-10.0));
#574=DIRECTION('',(0.0,0.0,-1.0));
#575=DIRECTION('',(1.0,1.06503881482546E-016,0.0));
#576=DIRECTION('',(-0.0,-0.0,1.0));
#577=DIRECTION('',(0.0,0.0,-1.0));
#578=FILL_AREA_STYLE('',(#590));
#579=FILL_AREA_STYLE('',(#591));
#580=FILL_AREA_STYLE('',(#592));
#581=FILL_AREA_STYLE('',(#593));
#582=FILL_AREA_STYLE('',(#594));
#583=FILL_AREA_STYLE('',(#595));
#584=FILL_AREA_STYLE('',(#596));
#585=FILL_AREA_STYLE('',(#597));
#586=FILL_AREA_STYLE('',(#598));
#587=FILL_AREA_STYLE('',(#599));
#588=FILL_AREA_STYLE('',(#600));
#589=FILL_AREA_STYLE('',(#601));
#590=FILL_AREA_STYLE_COLOUR('',#602);
#591=FILL_AREA_STYLE_COLOUR('',#603);
#592=FILL_AREA_STYLE_COLOUR('',#604);
#593=FILL_AREA_STYLE_COLOUR('',#605);
#594=FILL_AREA_STYLE_COLOUR('',#606);
#595=FILL_AREA_STYLE_COLOUR('',#607);
#596=FILL_AREA_STYLE_COLOUR('',#608);
#597=FILL_AREA_STYLE_COLOUR('',#609);
#598=FILL_AREA_STYLE_COLOUR('',#610);
#599=FILL_AREA_STYLE_COLOUR('',#611);
#600=FILL_AREA_STYLE_COLOUR('',#612);
#601=FILL_AREA_STYLE_COLOUR('',#613);
#602=COLOUR_RGB('',0.509803950786591,0.509803950786591,0.588235318660736);
#603=COLOUR_RGB('',0.509803950786591,0.509803950786591,0.588235318660736);
#604=COLOUR_RGB('',0.509803950786591,0.509803950786591,0.588235318660736);
#605=COLOUR_RGB('',0.509803950786591,0.509803950786591,0.588235318660736);
#606=COLOUR_RGB('',0.509803950786591,0.509803950786591,0.588235318660736);
#607=COLOUR_RGB('',0.509803950786591,0.509803950786591,0.588235318660736);
#608=COLOUR_RGB('',0.509803950786591,0.509803950786591,0.588235318660736);
#609=COLOUR_RGB('',0.509803950786591,0.509803950786591,0.588235318660736);
#610=COLOUR_RGB('',0.509803950786591,0.509803950786591,0.588235318660736);
#611=COLOUR_RGB('',0.509803950786591,0.509803950786591,0.588235318660736);
#612=COLOUR_RGB('',0.509803950786591,0.509803950786591,0.588235318660736);
#613=COLOUR_RGB('',0.509803950786591,0.509803950786591,0.588235318660736);
ENDSEC;
END-ISO-10303-21;
