ISO-10303-21;
HEADER;
FILE_DESCRIPTION(('STEP AP214'),'1');
FILE_NAME(' ','  ',('TraceParts'),('TraceParts S.A.'),'XStep 1.0',' ',' ');
FILE_SCHEMA(('automotive_design'));
ENDSEC;
DATA;
#1=MECHANICAL_DESIGN_GEOMETRIC_PRESENTATION_REPRESENTATION(' ',(#10,#11,#12,#13,#14,#15,#16,#17,#18,#19,#20,#21,#22,#23,#24,#25,#26,#27,#28,#29,#30,#31,#32,#33,#34,#35,#36,#37,#38,#39,#40,#41,#42,#43,#44,#45,#46,#47,#48,#49,#50,#51,#52,#53,#54,#55,#56,#57),#6);
#2=PRODUCT_DEFINITION_CONTEXT('',#58,'design');
#3=APPLICATION_PROTOCOL_DEFINITION('INTERNATIONAL STANDARD','automotive_design',1994,#58);
#4=PRODUCT_CATEGORY_RELATIONSHIP('NONE','NONE',#59,#60);
#5=SHAPE_DEFINITION_REPRESENTATION(#61,#62);
#6= (GEOMETRIC_REPRESENTATION_CONTEXT(3)GLOBAL_UNCERTAINTY_ASSIGNED_CONTEXT((#65))GLOBAL_UNIT_ASSIGNED_CONTEXT((#67,#68,#69))REPRESENTATION_CONTEXT('NONE','WORKSPACE'));
#10=STYLED_ITEM('',(#71),#72);
#11=STYLED_ITEM('',(#73),#74);
#12=STYLED_ITEM('',(#75),#76);
#13=STYLED_ITEM('',(#77),#78);
#14=STYLED_ITEM('',(#79),#80);
#15=STYLED_ITEM('',(#81),#82);
#16=STYLED_ITEM('',(#83),#84);
#17=STYLED_ITEM('',(#85),#86);
#18=STYLED_ITEM('',(#87),#88);
#19=STYLED_ITEM('',(#89),#90);
#20=STYLED_ITEM('',(#91),#92);
#21=STYLED_ITEM('',(#93),#94);
#22=STYLED_ITEM('',(#95),#96);
#23=STYLED_ITEM('',(#97),#98);
#24=STYLED_ITEM('',(#99),#100);
#25=STYLED_ITEM('',(#101),#102);
#26=STYLED_ITEM('',(#103),#104);
#27=STYLED_ITEM('',(#105),#106);
#28=STYLED_ITEM('',(#107),#108);
#29=STYLED_ITEM('',(#109),#110);
#30=STYLED_ITEM('',(#111),#112);
#31=STYLED_ITEM('',(#113),#114);
#32=STYLED_ITEM('',(#115),#116);
#33=STYLED_ITEM('',(#117),#118);
#34=STYLED_ITEM('',(#119),#120);
#35=STYLED_ITEM('',(#121),#122);
#36=STYLED_ITEM('',(#123),#124);
#37=STYLED_ITEM('',(#125),#126);
#38=STYLED_ITEM('',(#127),#128);
#39=STYLED_ITEM('',(#129),#130);
#40=STYLED_ITEM('',(#131),#132);
#41=STYLED_ITEM('',(#133),#134);
#42=STYLED_ITEM('',(#135),#136);
#43=STYLED_ITEM('',(#137),#138);
#44=STYLED_ITEM('',(#139),#140);
#45=STYLED_ITEM('',(#141),#142);
#46=STYLED_ITEM('',(#143),#144);
#47=STYLED_ITEM('',(#145),#146);
#48=STYLED_ITEM('',(#147),#148);
#49=STYLED_ITEM('',(#149),#150);
#50=STYLED_ITEM('',(#151),#152);
#51=STYLED_ITEM('',(#153),#154);
#52=STYLED_ITEM('',(#155),#156);
#53=STYLED_ITEM('',(#157),#158);
#54=STYLED_ITEM('',(#159),#160);
#55=STYLED_ITEM('',(#161),#162);
#56=STYLED_ITEM('',(#163),#164);
#57=STYLED_ITEM('',(#165),#166);
#58=APPLICATION_CONTEXT(' ');
#59=PRODUCT_CATEGORY('part','NONE');
#60=PRODUCT_RELATED_PRODUCT_CATEGORY('detail',' ',(#167));
#61=PRODUCT_DEFINITION_SHAPE('NONE','NONE',#168);
#62=ADVANCED_BREP_SHAPE_REPRESENTATION('1',(#84,#169),#6);
#65=UNCERTAINTY_MEASURE_WITH_UNIT(LENGTH_MEASURE(1.0E-006),#67,'','');
#67= (CONVERSION_BASED_UNIT('MILLIMETRE',#172)LENGTH_UNIT()NAMED_UNIT(#175));
#68= (NAMED_UNIT(#177)PLANE_ANGLE_UNIT()SI_UNIT($,.RADIAN.));
#69= (NAMED_UNIT(#177)SOLID_ANGLE_UNIT()SI_UNIT($,.STERADIAN.));
#71=PRESENTATION_STYLE_ASSIGNMENT((#183));
#72=EDGE_CURVE('',#158,#134,#184,.T.);
#73=PRESENTATION_STYLE_ASSIGNMENT((#185));
#74=VERTEX_POINT('',#186);
#75=PRESENTATION_STYLE_ASSIGNMENT((#187));
#76=EDGE_CURVE('',#156,#120,#188,.T.);
#77=PRESENTATION_STYLE_ASSIGNMENT((#189));
#78=VERTEX_POINT('',#190);
#79=PRESENTATION_STYLE_ASSIGNMENT((#191));
#80=VERTEX_POINT('',#192);
#81=PRESENTATION_STYLE_ASSIGNMENT((#193));
#82=EDGE_CURVE('',#78,#120,#194,.T.);
#83=PRESENTATION_STYLE_ASSIGNMENT((#195));
#84=MANIFOLD_SOLID_BREP('1',#196);
#85=PRESENTATION_STYLE_ASSIGNMENT((#197));
#86=ADVANCED_FACE('',(#198),#199,.T.);
#87=PRESENTATION_STYLE_ASSIGNMENT((#200));
#88=ADVANCED_FACE('',(#201),#202,.T.);
#89=PRESENTATION_STYLE_ASSIGNMENT((#203));
#90=ADVANCED_FACE('',(#204),#205,.F.);
#91=PRESENTATION_STYLE_ASSIGNMENT((#206));
#92=EDGE_CURVE('',#140,#166,#207,.T.);
#93=PRESENTATION_STYLE_ASSIGNMENT((#208));
#94=EDGE_CURVE('',#148,#78,#209,.T.);
#95=PRESENTATION_STYLE_ASSIGNMENT((#210));
#96=EDGE_CURVE('',#78,#148,#211,.T.);
#97=PRESENTATION_STYLE_ASSIGNMENT((#212));
#98=ADVANCED_FACE('',(#213,#214),#215,.T.);
#99=PRESENTATION_STYLE_ASSIGNMENT((#216));
#100=ADVANCED_FACE('',(#217,#218),#219,.T.);
#101=PRESENTATION_STYLE_ASSIGNMENT((#220));
#102=ADVANCED_FACE('',(#221,#222),#223,.T.);
#103=PRESENTATION_STYLE_ASSIGNMENT((#224));
#104=EDGE_CURVE('',#120,#80,#225,.T.);
#105=PRESENTATION_STYLE_ASSIGNMENT((#226));
#106=VERTEX_POINT('',#227);
#107=PRESENTATION_STYLE_ASSIGNMENT((#228));
#108=ADVANCED_FACE('',(#229),#230,.T.);
#109=PRESENTATION_STYLE_ASSIGNMENT((#231));
#110=VERTEX_POINT('',#232);
#111=PRESENTATION_STYLE_ASSIGNMENT((#233));
#112=EDGE_CURVE('',#154,#134,#234,.T.);
#113=PRESENTATION_STYLE_ASSIGNMENT((#235));
#114=ADVANCED_FACE('',(#236),#237,.F.);
#115=PRESENTATION_STYLE_ASSIGNMENT((#238));
#116=EDGE_CURVE('',#110,#140,#239,.T.);
#117=PRESENTATION_STYLE_ASSIGNMENT((#240));
#118=EDGE_CURVE('',#74,#166,#241,.T.);
#119=PRESENTATION_STYLE_ASSIGNMENT((#242));
#120=VERTEX_POINT('',#243);
#121=PRESENTATION_STYLE_ASSIGNMENT((#244));
#122=EDGE_CURVE('',#80,#106,#245,.T.);
#123=PRESENTATION_STYLE_ASSIGNMENT((#246));
#124=EDGE_CURVE('',#140,#110,#247,.T.);
#125=PRESENTATION_STYLE_ASSIGNMENT((#248));
#126=ADVANCED_FACE('',(#249),#250,.T.);
#127=PRESENTATION_STYLE_ASSIGNMENT((#251));
#128=EDGE_CURVE('',#106,#80,#252,.T.);
#129=PRESENTATION_STYLE_ASSIGNMENT((#253));
#130=VERTEX_POINT('',#254);
#131=PRESENTATION_STYLE_ASSIGNMENT((#255));
#132=EDGE_CURVE('',#130,#158,#256,.T.);
#133=PRESENTATION_STYLE_ASSIGNMENT((#257));
#134=VERTEX_POINT('',#258);
#135=PRESENTATION_STYLE_ASSIGNMENT((#259));
#136=ADVANCED_FACE('',(#260),#261,.T.);
#137=PRESENTATION_STYLE_ASSIGNMENT((#262));
#138=EDGE_CURVE('',#134,#154,#263,.T.);
#139=PRESENTATION_STYLE_ASSIGNMENT((#264));
#140=VERTEX_POINT('',#265);
#141=PRESENTATION_STYLE_ASSIGNMENT((#266));
#142=ADVANCED_FACE('',(#267),#268,.T.);
#143=PRESENTATION_STYLE_ASSIGNMENT((#269));
#144=EDGE_CURVE('',#74,#110,#270,.T.);
#145=PRESENTATION_STYLE_ASSIGNMENT((#271));
#146=EDGE_CURVE('',#154,#130,#272,.T.);
#147=PRESENTATION_STYLE_ASSIGNMENT((#273));
#148=VERTEX_POINT('',#274);
#149=PRESENTATION_STYLE_ASSIGNMENT((#275));
#150=EDGE_CURVE('',#106,#156,#276,.T.);
#151=PRESENTATION_STYLE_ASSIGNMENT((#277));
#152=EDGE_CURVE('',#158,#130,#278,.T.);
#153=PRESENTATION_STYLE_ASSIGNMENT((#279));
#154=VERTEX_POINT('',#280);
#155=PRESENTATION_STYLE_ASSIGNMENT((#281));
#156=VERTEX_POINT('',#282);
#157=PRESENTATION_STYLE_ASSIGNMENT((#283));
#158=VERTEX_POINT('',#284);
#159=PRESENTATION_STYLE_ASSIGNMENT((#285));
#160=EDGE_CURVE('',#166,#74,#286,.T.);
#161=PRESENTATION_STYLE_ASSIGNMENT((#287));
#162=EDGE_CURVE('',#156,#148,#288,.T.);
#163=PRESENTATION_STYLE_ASSIGNMENT((#289));
#164=EDGE_CURVE('',#120,#156,#290,.T.);
#165=PRESENTATION_STYLE_ASSIGNMENT((#291));
#166=VERTEX_POINT('',#292);
#167=PRODUCT('1','1','PART-1-DESC',(#293));
#168=PRODUCT_DEFINITION('NONE','NONE',#294,#2);
#169=AXIS2_PLACEMENT_3D('',#295,#296,#297);
#172=LENGTH_MEASURE_WITH_UNIT(LENGTH_MEASURE(1.0),#298);
#175=DIMENSIONAL_EXPONENTS(1.0,0.0,0.0,0.0,0.0,0.0,0.0);
#177=DIMENSIONAL_EXPONENTS(0.0,0.0,0.0,0.0,0.0,0.0,0.0);
#183=CURVE_STYLE('',#299,POSITIVE_LENGTH_MEASURE(1.0E-006),#300);
#184=LINE('',#301,#302);
#185=POINT_STYLE(' ',#303,POSITIVE_LENGTH_MEASURE(1.0E-006),#304);
#186=CARTESIAN_POINT('',(12.5,4.51864170060498E-015,2.99999999999994));
#187=CURVE_STYLE('',#305,POSITIVE_LENGTH_MEASURE(1.0E-006),#306);
#188=CIRCLE('',#307,21.0);
#189=POINT_STYLE(' ',#308,POSITIVE_LENGTH_MEASURE(1.0E-006),#309);
#190=CARTESIAN_POINT('',(20.0,5.43709646597176E-015,2.99999999999994));
#191=POINT_STYLE(' ',#310,POSITIVE_LENGTH_MEASURE(1.0E-006),#311);
#192=CARTESIAN_POINT('',(21.0,5.37586614828064E-015,-5.6843418860808E-014));
#193=CURVE_STYLE('',#312,POSITIVE_LENGTH_MEASURE(1.0E-006),#313);
#194=LINE('',#314,#315);
#195=SURFACE_STYLE_USAGE(.BOTH.,#316);
#196=CLOSED_SHELL('',(#142,#126,#114,#136,#102,#108,#100,#90,#98,#88,#86));
#197=SURFACE_STYLE_USAGE(.BOTH.,#317);
#198=FACE_OUTER_BOUND('',#318,.T.);
#199=CYLINDRICAL_SURFACE('',#319,21.0);
#200=SURFACE_STYLE_USAGE(.BOTH.,#320);
#201=FACE_OUTER_BOUND('',#321,.T.);
#202=CONICAL_SURFACE('',#322,20.5,0.785398163397434);
#203=SURFACE_STYLE_USAGE(.BOTH.,#323);
#204=FACE_OUTER_BOUND('',#324,.T.);
#205=CYLINDRICAL_SURFACE('',#325,12.5);
#206=CURVE_STYLE('',#326,POSITIVE_LENGTH_MEASURE(1.0E-006),#327);
#207=LINE('',#328,#329);
#208=CURVE_STYLE('',#330,POSITIVE_LENGTH_MEASURE(1.0E-006),#331);
#209=CIRCLE('',#332,20.0);
#210=CURVE_STYLE('',#333,POSITIVE_LENGTH_MEASURE(1.0E-006),#334);
#211=CIRCLE('',#335,20.0);
#212=SURFACE_STYLE_USAGE(.BOTH.,#336);
#213=FACE_OUTER_BOUND('',#337,.T.);
#214=FACE_BOUND('',#338,.T.);
#215=PLANE('',#339);
#216=SURFACE_STYLE_USAGE(.BOTH.,#340);
#217=FACE_BOUND('',#341,.T.);
#218=FACE_OUTER_BOUND('',#342,.T.);
#219=PLANE('',#343);
#220=SURFACE_STYLE_USAGE(.BOTH.,#344);
#221=FACE_BOUND('',#345,.T.);
#222=FACE_OUTER_BOUND('',#346,.T.);
#223=PLANE('',#347);
#224=CURVE_STYLE('',#348,POSITIVE_LENGTH_MEASURE(1.0E-006),#349);
#225=LINE('',#350,#351);
#226=POINT_STYLE(' ',#352,POSITIVE_LENGTH_MEASURE(1.0E-006),#353);
#227=CARTESIAN_POINT('',(-21.0,-1.97192260123514E-015,-5.6843418860808E-014));
#228=SURFACE_STYLE_USAGE(.BOTH.,#354);
#229=FACE_OUTER_BOUND('',#355,.T.);
#230=CYLINDRICAL_SURFACE('',#356,19.0);
#231=POINT_STYLE(' ',#357,POSITIVE_LENGTH_MEASURE(1.0E-006),#358);
#232=CARTESIAN_POINT('',(12.5,3.35526566447372E-015,-16.0000000000001));
#233=CURVE_STYLE('',#359,POSITIVE_LENGTH_MEASURE(1.0E-006),#360);
#234=CIRCLE('',#361,19.0);
#235=SURFACE_STYLE_USAGE(.BOTH.,#362);
#236=FACE_OUTER_BOUND('',#363,.T.);
#237=CYLINDRICAL_SURFACE('',#364,12.5);
#238=CURVE_STYLE('',#365,POSITIVE_LENGTH_MEASURE(1.0E-006),#366);
#239=CIRCLE('',#367,12.5);
#240=CURVE_STYLE('',#368,POSITIVE_LENGTH_MEASURE(1.0E-006),#369);
#241=CIRCLE('',#370,12.5);
#242=POINT_STYLE(' ',#371,POSITIVE_LENGTH_MEASURE(1.0E-006),#372);
#243=CARTESIAN_POINT('',(21.0,5.49832678366288E-015,1.99999999999994));
#244=CURVE_STYLE('',#373,POSITIVE_LENGTH_MEASURE(1.0E-006),#374);
#245=CIRCLE('',#375,21.0);
#246=CURVE_STYLE('',#376,POSITIVE_LENGTH_MEASURE(1.0E-006),#377);
#247=CIRCLE('',#378,12.5);
#248=SURFACE_STYLE_USAGE(.BOTH.,#379);
#249=FACE_OUTER_BOUND('',#380,.T.);
#250=CONICAL_SURFACE('',#381,20.5,0.785398163397434);
#251=CURVE_STYLE('',#382,POSITIVE_LENGTH_MEASURE(1.0E-006),#383);
#252=CIRCLE('',#384,21.0);
#253=POINT_STYLE(' ',#385,POSITIVE_LENGTH_MEASURE(1.0E-006),#386);
#254=CARTESIAN_POINT('',(-19.0,-1.49956009080066E-015,-5.6843418860808E-014));
#255=CURVE_STYLE('',#387,POSITIVE_LENGTH_MEASURE(1.0E-006),#388);
#256=CIRCLE('',#389,19.0);
#257=POINT_STYLE(' ',#390,POSITIVE_LENGTH_MEASURE(1.0E-006),#391);
#258=CARTESIAN_POINT('',(19.0,4.15125979445827E-015,-16.0000000000001));
#259=SURFACE_STYLE_USAGE(.BOTH.,#392);
#260=FACE_OUTER_BOUND('',#393,.T.);
#261=CYLINDRICAL_SURFACE('',#394,19.0);
#262=CURVE_STYLE('',#395,POSITIVE_LENGTH_MEASURE(1.0E-006),#396);
#263=CIRCLE('',#397,19.0);
#264=POINT_STYLE(' ',#398,POSITIVE_LENGTH_MEASURE(1.0E-006),#399);
#265=CARTESIAN_POINT('',(-12.5,3.56180681114409E-017,-16.0000000000001));
#266=SURFACE_STYLE_USAGE(.BOTH.,#400);
#267=FACE_OUTER_BOUND('',#401,.T.);
#268=CYLINDRICAL_SURFACE('',#402,21.0);
#269=CURVE_STYLE('',#403,POSITIVE_LENGTH_MEASURE(1.0E-006),#404);
#270=LINE('',#405,#406);
#271=CURVE_STYLE('',#407,POSITIVE_LENGTH_MEASURE(1.0E-006),#408);
#272=LINE('',#409,#410);
#273=POINT_STYLE(' ',#411,POSITIVE_LENGTH_MEASURE(1.0E-006),#412);
#274=CARTESIAN_POINT('',(-20.0,-1.7357413460179E-015,2.99999999999994));
#275=CURVE_STYLE('',#413,POSITIVE_LENGTH_MEASURE(1.0E-006),#414);
#276=LINE('',#415,#416);
#277=CURVE_STYLE('',#417,POSITIVE_LENGTH_MEASURE(1.0E-006),#418);
#278=CIRCLE('',#419,19.0);
#279=POINT_STYLE(' ',#420,POSITIVE_LENGTH_MEASURE(1.0E-006),#421);
#280=CARTESIAN_POINT('',(-19.0,-1.49956009080066E-015,-16.0000000000001));
#281=POINT_STYLE(' ',#422,POSITIVE_LENGTH_MEASURE(1.0E-006),#423);
#282=CARTESIAN_POINT('',(-21.0,-1.97192260123514E-015,1.99999999999994));
#283=POINT_STYLE(' ',#424,POSITIVE_LENGTH_MEASURE(1.0E-006),#425);
#284=CARTESIAN_POINT('',(19.0,5.13094487751617E-015,-5.6843418860808E-014));
#285=CURVE_STYLE('',#426,POSITIVE_LENGTH_MEASURE(1.0E-006),#427);
#286=CIRCLE('',#428,12.5);
#287=CURVE_STYLE('',#429,POSITIVE_LENGTH_MEASURE(1.0E-006),#430);
#288=LINE('',#431,#432);
#289=CURVE_STYLE('',#433,POSITIVE_LENGTH_MEASURE(1.0E-006),#434);
#290=CIRCLE('',#435,21.0);
#291=POINT_STYLE(' ',#436,POSITIVE_LENGTH_MEASURE(1.0E-006),#437);
#292=CARTESIAN_POINT('',(-12.5,3.56180681114409E-017,2.99999999999994));
#293=PRODUCT_CONTEXT('',#58,'mechanical');
#294=PRODUCT_DEFINITION_FORMATION_WITH_SPECIFIED_SOURCE(' ','NONE',#167,.NOT_KNOWN.);
#295=CARTESIAN_POINT('',(0.0,0.0,0.0));
#296=DIRECTION('',(0.0,0.0,1.0));
#297=DIRECTION('',(1.0,0.0,0.0));
#298= (NAMED_UNIT(#175)LENGTH_UNIT()SI_UNIT(.MILLI.,.METRE.));
#299=DRAUGHTING_PRE_DEFINED_CURVE_FONT('continuous');
#300=COLOUR_RGB('',0.509803950786591,0.509803950786591,0.588235318660736);
#301=CARTESIAN_POINT('',(19.0,7.47532760745467E-015,-8.00000000000006));
#302=VECTOR('',#439,1.0);
#303=PRE_DEFINED_MARKER('');
#304=COLOUR_RGB('',0.509803950786591,0.509803950786591,0.588235318660736);
#305=DRAUGHTING_PRE_DEFINED_CURVE_FONT('continuous');
#306=COLOUR_RGB('',0.509803950786591,0.509803950786591,0.588235318660736);
#307=AXIS2_PLACEMENT_3D('',#440,#441,#442);
#308=PRE_DEFINED_MARKER('');
#309=COLOUR_RGB('',0.509803950786591,0.509803950786591,0.588235318660736);
#310=PRE_DEFINED_MARKER('');
#311=COLOUR_RGB('',0.509803950786591,0.509803950786591,0.588235318660736);
#312=DRAUGHTING_PRE_DEFINED_CURVE_FONT('continuous');
#313=COLOUR_RGB('',0.509803950786591,0.509803950786591,0.588235318660736);
#314=CARTESIAN_POINT('',(20.5,7.82959949028053E-015,2.49999999999994));
#315=VECTOR('',#443,1.0);
#316=SURFACE_SIDE_STYLE('',(#444));
#317=SURFACE_SIDE_STYLE('',(#445));
#318=EDGE_LOOP('',(#446,#447,#448,#449));
#319=AXIS2_PLACEMENT_3D('',#450,#451,#452);
#320=SURFACE_SIDE_STYLE('',(#453));
#321=EDGE_LOOP('',(#454,#455,#456,#457));
#322=AXIS2_PLACEMENT_3D('',#458,#459,#460);
#323=SURFACE_SIDE_STYLE('',(#461));
#324=EDGE_LOOP('',(#462,#463,#464,#465));
#325=AXIS2_PLACEMENT_3D('',#466,#467,#468);
#326=DRAUGHTING_PRE_DEFINED_CURVE_FONT('continuous');
#327=COLOUR_RGB('',0.509803950786591,0.509803950786591,0.588235318660736);
#328=CARTESIAN_POINT('',(-12.5,3.56180681114409E-017,-6.50000000000006));
#329=VECTOR('',#469,1.0);
#330=DRAUGHTING_PRE_DEFINED_CURVE_FONT('continuous');
#331=COLOUR_RGB('',0.509803950786591,0.509803950786591,0.588235318660736);
#332=AXIS2_PLACEMENT_3D('',#470,#471,#472);
#333=DRAUGHTING_PRE_DEFINED_CURVE_FONT('continuous');
#334=COLOUR_RGB('',0.509803950786591,0.509803950786591,0.588235318660736);
#335=AXIS2_PLACEMENT_3D('',#473,#474,#475);
#336=SURFACE_SIDE_STYLE('',(#476));
#337=EDGE_LOOP('',(#477,#478));
#338=EDGE_LOOP('',(#479,#480));
#339=AXIS2_PLACEMENT_3D('',#481,#482,#483);
#340=SURFACE_SIDE_STYLE('',(#484));
#341=EDGE_LOOP('',(#485,#486));
#342=EDGE_LOOP('',(#487,#488));
#343=AXIS2_PLACEMENT_3D('',#489,#490,#491);
#344=SURFACE_SIDE_STYLE('',(#492));
#345=EDGE_LOOP('',(#493,#494));
#346=EDGE_LOOP('',(#495,#496));
#347=AXIS2_PLACEMENT_3D('',#497,#498,#499);
#348=DRAUGHTING_PRE_DEFINED_CURVE_FONT('continuous');
#349=COLOUR_RGB('',0.509803950786591,0.509803950786591,0.588235318660736);
#350=CARTESIAN_POINT('',(21.0,7.94769011788915E-015,0.999999999999943));
#351=VECTOR('',#500,1.0);
#352=PRE_DEFINED_MARKER('');
#353=COLOUR_RGB('',0.509803950786591,0.509803950786591,0.588235318660736);
#354=SURFACE_SIDE_STYLE('',(#501));
#355=EDGE_LOOP('',(#502,#503,#504,#505));
#356=AXIS2_PLACEMENT_3D('',#506,#507,#508);
#357=PRE_DEFINED_MARKER('');
#358=COLOUR_RGB('',0.509803950786591,0.509803950786591,0.588235318660736);
#359=DRAUGHTING_PRE_DEFINED_CURVE_FONT('continuous');
#360=COLOUR_RGB('',0.509803950786591,0.509803950786591,0.588235318660736);
#361=AXIS2_PLACEMENT_3D('',#509,#510,#511);
#362=SURFACE_SIDE_STYLE('',(#512));
#363=EDGE_LOOP('',(#513,#514,#515,#516));
#364=AXIS2_PLACEMENT_3D('',#517,#518,#519);
#365=DRAUGHTING_PRE_DEFINED_CURVE_FONT('continuous');
#366=COLOUR_RGB('',0.509803950786591,0.509803950786591,0.588235318660736);
#367=AXIS2_PLACEMENT_3D('',#520,#521,#522);
#368=DRAUGHTING_PRE_DEFINED_CURVE_FONT('continuous');
#369=COLOUR_RGB('',0.509803950786591,0.509803950786591,0.588235318660736);
#370=AXIS2_PLACEMENT_3D('',#523,#524,#525);
#371=PRE_DEFINED_MARKER('');
#372=COLOUR_RGB('',0.509803950786591,0.509803950786591,0.588235318660736);
#373=DRAUGHTING_PRE_DEFINED_CURVE_FONT('continuous');
#374=COLOUR_RGB('',0.509803950786591,0.509803950786591,0.588235318660736);
#375=AXIS2_PLACEMENT_3D('',#526,#527,#528);
#376=DRAUGHTING_PRE_DEFINED_CURVE_FONT('continuous');
#377=COLOUR_RGB('',0.509803950786591,0.509803950786591,0.588235318660736);
#378=AXIS2_PLACEMENT_3D('',#529,#530,#531);
#379=SURFACE_SIDE_STYLE('',(#532));
#380=EDGE_LOOP('',(#533,#534,#535,#536));
#381=AXIS2_PLACEMENT_3D('',#537,#538,#539);
#382=DRAUGHTING_PRE_DEFINED_CURVE_FONT('continuous');
#383=COLOUR_RGB('',0.509803950786591,0.509803950786591,0.588235318660736);
#384=AXIS2_PLACEMENT_3D('',#540,#541,#542);
#385=PRE_DEFINED_MARKER('');
#386=COLOUR_RGB('',0.509803950786591,0.509803950786591,0.588235318660736);
#387=DRAUGHTING_PRE_DEFINED_CURVE_FONT('continuous');
#388=COLOUR_RGB('',0.509803950786591,0.509803950786591,0.588235318660736);
#389=AXIS2_PLACEMENT_3D('',#543,#544,#545);
#390=PRE_DEFINED_MARKER('');
#391=COLOUR_RGB('',0.509803950786591,0.509803950786591,0.588235318660736);
#392=SURFACE_SIDE_STYLE('',(#546));
#393=EDGE_LOOP('',(#547,#548,#549,#550));
#394=AXIS2_PLACEMENT_3D('',#551,#552,#553);
#395=DRAUGHTING_PRE_DEFINED_CURVE_FONT('continuous');
#396=COLOUR_RGB('',0.509803950786591,0.509803950786591,0.588235318660736);
#397=AXIS2_PLACEMENT_3D('',#554,#555,#556);
#398=PRE_DEFINED_MARKER('');
#399=COLOUR_RGB('',0.509803950786591,0.509803950786591,0.588235318660736);
#400=SURFACE_SIDE_STYLE('',(#557));
#401=EDGE_LOOP('',(#558,#559,#560,#561));
#402=AXIS2_PLACEMENT_3D('',#562,#563,#564);
#403=DRAUGHTING_PRE_DEFINED_CURVE_FONT('continuous');
#404=COLOUR_RGB('',0.509803950786591,0.509803950786591,0.588235318660736);
#405=CARTESIAN_POINT('',(12.5,5.94014944854257E-015,-6.50000000000006));
#406=VECTOR('',#565,1.0);
#407=DRAUGHTING_PRE_DEFINED_CURVE_FONT('continuous');
#408=COLOUR_RGB('',0.509803950786591,0.509803950786591,0.588235318660736);
#409=CARTESIAN_POINT('',(-19.0,-1.49956009080066E-015,-8.00000000000006));
#410=VECTOR('',#566,1.0);
#411=PRE_DEFINED_MARKER('');
#412=COLOUR_RGB('',0.509803950786591,0.509803950786591,0.588235318660736);
#413=DRAUGHTING_PRE_DEFINED_CURVE_FONT('continuous');
#414=COLOUR_RGB('',0.509803950786591,0.509803950786591,0.588235318660736);
#415=CARTESIAN_POINT('',(-21.0,-1.97192260123514E-015,0.999999999999943));
#416=VECTOR('',#567,1.0);
#417=DRAUGHTING_PRE_DEFINED_CURVE_FONT('continuous');
#418=COLOUR_RGB('',0.509803950786591,0.509803950786591,0.588235318660736);
#419=AXIS2_PLACEMENT_3D('',#568,#569,#570);
#420=PRE_DEFINED_MARKER('');
#421=COLOUR_RGB('',0.509803950786591,0.509803950786591,0.588235318660736);
#422=PRE_DEFINED_MARKER('');
#423=COLOUR_RGB('',0.509803950786591,0.509803950786591,0.588235318660736);
#424=PRE_DEFINED_MARKER('');
#425=COLOUR_RGB('',0.509803950786591,0.509803950786591,0.588235318660736);
#426=DRAUGHTING_PRE_DEFINED_CURVE_FONT('continuous');
#427=COLOUR_RGB('',0.509803950786591,0.509803950786591,0.588235318660736);
#428=AXIS2_PLACEMENT_3D('',#571,#572,#573);
#429=DRAUGHTING_PRE_DEFINED_CURVE_FONT('continuous');
#430=COLOUR_RGB('',0.509803950786591,0.509803950786591,0.588235318660736);
#431=CARTESIAN_POINT('',(-20.5,-1.85383197362652E-015,2.49999999999994));
#432=VECTOR('',#574,1.0);
#433=DRAUGHTING_PRE_DEFINED_CURVE_FONT('continuous');
#434=COLOUR_RGB('',0.509803950786591,0.509803950786591,0.588235318660736);
#435=AXIS2_PLACEMENT_3D('',#575,#576,#577);
#436=PRE_DEFINED_MARKER('');
#437=COLOUR_RGB('',0.509803950786591,0.509803950786591,0.588235318660736);
#439=DIRECTION('',(0.0,0.0,-1.0));
#440=CARTESIAN_POINT('',(0.0,2.98788375832701E-015,1.99999999999994));
#441=DIRECTION('',(0.0,0.0,-1.0));
#442=DIRECTION('',(1.0,1.13720619835007E-016,0.0));
#443=DIRECTION('',(0.707106781186537,1.67005367153262E-016,-0.707106781186558));
#444=SURFACE_STYLE_FILL_AREA(#578);
#445=SURFACE_STYLE_FILL_AREA(#579);
#446=ORIENTED_EDGE('',*,*,#104,.T.);
#447=ORIENTED_EDGE('',*,*,#128,.F.);
#448=ORIENTED_EDGE('',*,*,#150,.T.);
#449=ORIENTED_EDGE('',*,*,#76,.T.);
#450=CARTESIAN_POINT('',(0.0,2.98788375832701E-015,0.999999999999943));
#451=DIRECTION('',(-0.0,-0.0,1.0));
#452=DIRECTION('',(1.0,1.13720619835007E-016,0.0));
#453=SURFACE_STYLE_FILL_AREA(#580);
#454=ORIENTED_EDGE('',*,*,#82,.T.);
#455=ORIENTED_EDGE('',*,*,#76,.F.);
#456=ORIENTED_EDGE('',*,*,#162,.T.);
#457=ORIENTED_EDGE('',*,*,#94,.T.);
#458=CARTESIAN_POINT('',(0.0,2.98788375832701E-015,2.49999999999994));
#459=DIRECTION('',(0.0,-0.0,-1.0));
#460=DIRECTION('',(1.0,1.13720619835007E-016,0.0));
#461=SURFACE_STYLE_FILL_AREA(#581);
#462=ORIENTED_EDGE('',*,*,#144,.T.);
#463=ORIENTED_EDGE('',*,*,#116,.T.);
#464=ORIENTED_EDGE('',*,*,#92,.T.);
#465=ORIENTED_EDGE('',*,*,#118,.F.);
#466=CARTESIAN_POINT('',(0.0,2.98788375832701E-015,-6.50000000000006));
#467=DIRECTION('',(-0.0,-0.0,1.0));
#468=DIRECTION('',(1.0,1.13720619835007E-016,0.0));
#469=DIRECTION('',(-0.0,-0.0,1.0));
#470=CARTESIAN_POINT('',(0.0,2.98788375832701E-015,2.99999999999994));
#471=DIRECTION('',(0.0,0.0,-1.0));
#472=DIRECTION('',(1.0,1.13720619835007E-016,0.0));
#473=CARTESIAN_POINT('',(0.0,2.98788375832701E-015,2.99999999999994));
#474=DIRECTION('',(0.0,0.0,-1.0));
#475=DIRECTION('',(1.0,1.13720619835007E-016,0.0));
#476=SURFACE_STYLE_FILL_AREA(#582);
#477=ORIENTED_EDGE('',*,*,#96,.F.);
#478=ORIENTED_EDGE('',*,*,#94,.F.);
#479=ORIENTED_EDGE('',*,*,#118,.T.);
#480=ORIENTED_EDGE('',*,*,#160,.T.);
#481=CARTESIAN_POINT('',(16.25,4.97786908328837E-015,2.99999999999994));
#482=DIRECTION('',(0.0,0.0,1.0));
#483=DIRECTION('',(-1.0,-1.22460635382238E-016,0.0));
#484=SURFACE_STYLE_FILL_AREA(#583);
#485=ORIENTED_EDGE('',*,*,#116,.F.);
#486=ORIENTED_EDGE('',*,*,#124,.F.);
#487=ORIENTED_EDGE('',*,*,#138,.T.);
#488=ORIENTED_EDGE('',*,*,#112,.T.);
#489=CARTESIAN_POINT('',(15.75,3.75326272946599E-015,-16.0000000000001));
#490=DIRECTION('',(0.0,0.0,-1.0));
#491=DIRECTION('',(1.0,1.22460635382238E-016,0.0));
#492=SURFACE_STYLE_FILL_AREA(#584);
#493=ORIENTED_EDGE('',*,*,#152,.F.);
#494=ORIENTED_EDGE('',*,*,#132,.F.);
#495=ORIENTED_EDGE('',*,*,#122,.T.);
#496=ORIENTED_EDGE('',*,*,#128,.T.);
#497=CARTESIAN_POINT('',(20.0,5.2534055128984E-015,-5.6843418860808E-014));
#498=DIRECTION('',(0.0,0.0,-1.0));
#499=DIRECTION('',(1.0,1.22460635382238E-016,0.0));
#500=DIRECTION('',(0.0,0.0,-1.0));
#501=SURFACE_STYLE_FILL_AREA(#585);
#502=ORIENTED_EDGE('',*,*,#72,.T.);
#503=ORIENTED_EDGE('',*,*,#112,.F.);
#504=ORIENTED_EDGE('',*,*,#146,.T.);
#505=ORIENTED_EDGE('',*,*,#132,.T.);
#506=CARTESIAN_POINT('',(0.0,2.98788375832701E-015,-8.00000000000006));
#507=DIRECTION('',(-0.0,-0.0,1.0));
#508=DIRECTION('',(1.0,1.13720619835007E-016,0.0));
#509=CARTESIAN_POINT('',(0.0,2.98788375832701E-015,-16.0000000000001));
#510=DIRECTION('',(0.0,0.0,-1.0));
#511=DIRECTION('',(1.0,1.13720619835007E-016,0.0));
#512=SURFACE_STYLE_FILL_AREA(#586);
#513=ORIENTED_EDGE('',*,*,#144,.F.);
#514=ORIENTED_EDGE('',*,*,#160,.F.);
#515=ORIENTED_EDGE('',*,*,#92,.F.);
#516=ORIENTED_EDGE('',*,*,#124,.T.);
#517=CARTESIAN_POINT('',(0.0,2.98788375832701E-015,-6.50000000000006));
#518=DIRECTION('',(-0.0,-0.0,1.0));
#519=DIRECTION('',(1.0,1.13720619835007E-016,0.0));
#520=CARTESIAN_POINT('',(0.0,2.98788375832701E-015,-16.0000000000001));
#521=DIRECTION('',(0.0,0.0,-1.0));
#522=DIRECTION('',(1.0,1.13720619835007E-016,0.0));
#523=CARTESIAN_POINT('',(0.0,2.98788375832701E-015,2.99999999999994));
#524=DIRECTION('',(0.0,0.0,-1.0));
#525=DIRECTION('',(1.0,1.13720619835007E-016,0.0));
#526=CARTESIAN_POINT('',(0.0,2.98788375832701E-015,-5.6843418860808E-014));
#527=DIRECTION('',(0.0,0.0,-1.0));
#528=DIRECTION('',(1.0,1.13720619835007E-016,0.0));
#529=CARTESIAN_POINT('',(0.0,2.98788375832701E-015,-16.0000000000001));
#530=DIRECTION('',(0.0,0.0,-1.0));
#531=DIRECTION('',(1.0,1.13720619835007E-016,0.0));
#532=SURFACE_STYLE_FILL_AREA(#587);
#533=ORIENTED_EDGE('',*,*,#82,.F.);
#534=ORIENTED_EDGE('',*,*,#96,.T.);
#535=ORIENTED_EDGE('',*,*,#162,.F.);
#536=ORIENTED_EDGE('',*,*,#164,.F.);
#537=CARTESIAN_POINT('',(0.0,2.98788375832701E-015,2.49999999999994));
#538=DIRECTION('',(0.0,-0.0,-1.0));
#539=DIRECTION('',(1.0,1.13720619835007E-016,0.0));
#540=CARTESIAN_POINT('',(0.0,2.98788375832701E-015,-5.6843418860808E-014));
#541=DIRECTION('',(0.0,0.0,-1.0));
#542=DIRECTION('',(1.0,1.13720619835007E-016,0.0));
#543=CARTESIAN_POINT('',(0.0,2.98788375832701E-015,-5.6843418860808E-014));
#544=DIRECTION('',(0.0,0.0,-1.0));
#545=DIRECTION('',(1.0,1.13720619835007E-016,0.0));
#546=SURFACE_STYLE_FILL_AREA(#588);
#547=ORIENTED_EDGE('',*,*,#72,.F.);
#548=ORIENTED_EDGE('',*,*,#152,.T.);
#549=ORIENTED_EDGE('',*,*,#146,.F.);
#550=ORIENTED_EDGE('',*,*,#138,.F.);
#551=CARTESIAN_POINT('',(0.0,2.98788375832701E-015,-8.00000000000006));
#552=DIRECTION('',(-0.0,-0.0,1.0));
#553=DIRECTION('',(1.0,1.13720619835007E-016,0.0));
#554=CARTESIAN_POINT('',(0.0,2.98788375832701E-015,-16.0000000000001));
#555=DIRECTION('',(0.0,0.0,-1.0));
#556=DIRECTION('',(1.0,1.13720619835007E-016,0.0));
#557=SURFACE_STYLE_FILL_AREA(#589);
#558=ORIENTED_EDGE('',*,*,#104,.F.);
#559=ORIENTED_EDGE('',*,*,#164,.T.);
#560=ORIENTED_EDGE('',*,*,#150,.F.);
#561=ORIENTED_EDGE('',*,*,#122,.F.);
#562=CARTESIAN_POINT('',(0.0,2.98788375832701E-015,0.999999999999943));
#563=DIRECTION('',(-0.0,-0.0,1.0));
#564=DIRECTION('',(1.0,1.13720619835007E-016,0.0));
#565=DIRECTION('',(-0.0,-0.0,-1.0));
#566=DIRECTION('',(-0.0,-0.0,1.0));
#567=DIRECTION('',(-0.0,-0.0,1.0));
#568=CARTESIAN_POINT('',(0.0,2.98788375832701E-015,-5.6843418860808E-014));
#569=DIRECTION('',(0.0,0.0,-1.0));
#570=DIRECTION('',(1.0,1.13720619835007E-016,0.0));
#571=CARTESIAN_POINT('',(0.0,2.98788375832701E-015,2.99999999999994));
#572=DIRECTION('',(0.0,0.0,-1.0));
#573=DIRECTION('',(1.0,1.13720619835007E-016,0.0));
#574=DIRECTION('',(0.707106781186537,1.67005367153262E-016,0.707106781186558));
#575=CARTESIAN_POINT('',(0.0,2.98788375832701E-015,1.99999999999994));
#576=DIRECTION('',(0.0,0.0,-1.0));
#577=DIRECTION('',(1.0,1.13720619835007E-016,0.0));
#578=FILL_AREA_STYLE('',(#590));
#579=FILL_AREA_STYLE('',(#591));
#580=FILL_AREA_STYLE('',(#592));
#581=FILL_AREA_STYLE('',(#593));
#582=FILL_AREA_STYLE('',(#594));
#583=FILL_AREA_STYLE('',(#595));
#584=FILL_AREA_STYLE('',(#596));
#585=FILL_AREA_STYLE('',(#597));
#586=FILL_AREA_STYLE('',(#598));
#587=FILL_AREA_STYLE('',(#599));
#588=FILL_AREA_STYLE('',(#600));
#589=FILL_AREA_STYLE('',(#601));
#590=FILL_AREA_STYLE_COLOUR('',#602);
#591=FILL_AREA_STYLE_COLOUR('',#603);
#592=FILL_AREA_STYLE_COLOUR('',#604);
#593=FILL_AREA_STYLE_COLOUR('',#605);
#594=FILL_AREA_STYLE_COLOUR('',#606);
#595=FILL_AREA_STYLE_COLOUR('',#607);
#596=FILL_AREA_STYLE_COLOUR('',#608);
#597=FILL_AREA_STYLE_COLOUR('',#609);
#598=FILL_AREA_STYLE_COLOUR('',#610);
#599=FILL_AREA_STYLE_COLOUR('',#611);
#600=FILL_AREA_STYLE_COLOUR('',#612);
#601=FILL_AREA_STYLE_COLOUR('',#613);
#602=COLOUR_RGB('',0.509803950786591,0.509803950786591,0.588235318660736);
#603=COLOUR_RGB('',0.509803950786591,0.509803950786591,0.588235318660736);
#604=COLOUR_RGB('',0.509803950786591,0.509803950786591,0.588235318660736);
#605=COLOUR_RGB('',0.509803950786591,0.509803950786591,0.588235318660736);
#606=COLOUR_RGB('',0.509803950786591,0.509803950786591,0.588235318660736);
#607=COLOUR_RGB('',0.509803950786591,0.509803950786591,0.588235318660736);
#608=COLOUR_RGB('',0.509803950786591,0.509803950786591,0.588235318660736);
#609=COLOUR_RGB('',0.509803950786591,0.509803950786591,0.588235318660736);
#610=COLOUR_RGB('',0.509803950786591,0.509803950786591,0.588235318660736);
#611=COLOUR_RGB('',0.509803950786591,0.509803950786591,0.588235318660736);
#612=COLOUR_RGB('',0.509803950786591,0.509803950786591,0.588235318660736);
#613=COLOUR_RGB('',0.509803950786591,0.509803950786591,0.588235318660736);
ENDSEC;
END-ISO-10303-21;
