ISO-10303-21;
HEADER;
FILE_DESCRIPTION(('STEP AP214'),'1');
FILE_NAME(' ','  ',('TraceParts'),('TraceParts S.A.'),'XStep 1.0',' ',' ');
FILE_SCHEMA(('automotive_design'));
ENDSEC;
DATA;
#1=MECHANICAL_DESIGN_GEOMETRIC_PRESENTATION_REPRESENTATION(' ',(#10,#11,#12,#13,#14,#15,#16,#17,#18,#19,#20,#21,#22,#23,#24,#25,#26,#27,#28,#29,#30,#31,#32,#33,#34,#35,#36,#37,#38,#39,#40,#41,#42,#43,#44,#45,#46,#47,#48,#49,#50,#51,#52,#53,#54,#55,#56,#57),#6);
#2=PRODUCT_DEFINITION_CONTEXT('',#58,'design');
#3=APPLICATION_PROTOCOL_DEFINITION('INTERNATIONAL STANDARD','automotive_design',1994,#58);
#4=PRODUCT_CATEGORY_RELATIONSHIP('NONE','NONE',#59,#60);
#5=SHAPE_DEFINITION_REPRESENTATION(#61,#62);
#6= (GEOMETRIC_REPRESENTATION_CONTEXT(3)GLOBAL_UNCERTAINTY_ASSIGNED_CONTEXT((#65))GLOBAL_UNIT_ASSIGNED_CONTEXT((#67,#68,#69))REPRESENTATION_CONTEXT('NONE','WORKSPACE'));
#10=STYLED_ITEM('',(#71),#72);
#11=STYLED_ITEM('',(#73),#74);
#12=STYLED_ITEM('',(#75),#76);
#13=STYLED_ITEM('',(#77),#78);
#14=STYLED_ITEM('',(#79),#80);
#15=STYLED_ITEM('',(#81),#82);
#16=STYLED_ITEM('',(#83),#84);
#17=STYLED_ITEM('',(#85),#86);
#18=STYLED_ITEM('',(#87),#88);
#19=STYLED_ITEM('',(#89),#90);
#20=STYLED_ITEM('',(#91),#92);
#21=STYLED_ITEM('',(#93),#94);
#22=STYLED_ITEM('',(#95),#96);
#23=STYLED_ITEM('',(#97),#98);
#24=STYLED_ITEM('',(#99),#100);
#25=STYLED_ITEM('',(#101),#102);
#26=STYLED_ITEM('',(#103),#104);
#27=STYLED_ITEM('',(#105),#106);
#28=STYLED_ITEM('',(#107),#108);
#29=STYLED_ITEM('',(#109),#110);
#30=STYLED_ITEM('',(#111),#112);
#31=STYLED_ITEM('',(#113),#114);
#32=STYLED_ITEM('',(#115),#116);
#33=STYLED_ITEM('',(#117),#118);
#34=STYLED_ITEM('',(#119),#120);
#35=STYLED_ITEM('',(#121),#122);
#36=STYLED_ITEM('',(#123),#124);
#37=STYLED_ITEM('',(#125),#126);
#38=STYLED_ITEM('',(#127),#128);
#39=STYLED_ITEM('',(#129),#130);
#40=STYLED_ITEM('',(#131),#132);
#41=STYLED_ITEM('',(#133),#134);
#42=STYLED_ITEM('',(#135),#136);
#43=STYLED_ITEM('',(#137),#138);
#44=STYLED_ITEM('',(#139),#140);
#45=STYLED_ITEM('',(#141),#142);
#46=STYLED_ITEM('',(#143),#144);
#47=STYLED_ITEM('',(#145),#146);
#48=STYLED_ITEM('',(#147),#148);
#49=STYLED_ITEM('',(#149),#150);
#50=STYLED_ITEM('',(#151),#152);
#51=STYLED_ITEM('',(#153),#154);
#52=STYLED_ITEM('',(#155),#156);
#53=STYLED_ITEM('',(#157),#158);
#54=STYLED_ITEM('',(#159),#160);
#55=STYLED_ITEM('',(#161),#162);
#56=STYLED_ITEM('',(#163),#164);
#57=STYLED_ITEM('',(#165),#166);
#58=APPLICATION_CONTEXT(' ');
#59=PRODUCT_CATEGORY('part','NONE');
#60=PRODUCT_RELATED_PRODUCT_CATEGORY('detail',' ',(#167));
#61=PRODUCT_DEFINITION_SHAPE('NONE','NONE',#168);
#62=ADVANCED_BREP_SHAPE_REPRESENTATION('1',(#134,#169),#6);
#65=UNCERTAINTY_MEASURE_WITH_UNIT(LENGTH_MEASURE(1.0E-006),#67,'','');
#67= (CONVERSION_BASED_UNIT('MILLIMETRE',#172)LENGTH_UNIT()NAMED_UNIT(#175));
#68= (NAMED_UNIT(#177)PLANE_ANGLE_UNIT()SI_UNIT($,.RADIAN.));
#69= (NAMED_UNIT(#177)SOLID_ANGLE_UNIT()SI_UNIT($,.STERADIAN.));
#71=PRESENTATION_STYLE_ASSIGNMENT((#183));
#72=EDGE_CURVE('',#116,#90,#184,.T.);
#73=PRESENTATION_STYLE_ASSIGNMENT((#185));
#74=VERTEX_POINT('',#186);
#75=PRESENTATION_STYLE_ASSIGNMENT((#187));
#76=ADVANCED_FACE('',(#188,#189),#190,.T.);
#77=PRESENTATION_STYLE_ASSIGNMENT((#191));
#78=EDGE_CURVE('',#82,#88,#192,.T.);
#79=PRESENTATION_STYLE_ASSIGNMENT((#193));
#80=ADVANCED_FACE('',(#194),#195,.T.);
#81=PRESENTATION_STYLE_ASSIGNMENT((#196));
#82=VERTEX_POINT('',#197);
#83=PRESENTATION_STYLE_ASSIGNMENT((#198));
#84=EDGE_CURVE('',#74,#156,#199,.T.);
#85=PRESENTATION_STYLE_ASSIGNMENT((#200));
#86=EDGE_CURVE('',#156,#74,#201,.T.);
#87=PRESENTATION_STYLE_ASSIGNMENT((#202));
#88=VERTEX_POINT('',#203);
#89=PRESENTATION_STYLE_ASSIGNMENT((#204));
#90=VERTEX_POINT('',#205);
#91=PRESENTATION_STYLE_ASSIGNMENT((#206));
#92=ADVANCED_FACE('',(#207),#208,.T.);
#93=PRESENTATION_STYLE_ASSIGNMENT((#209));
#94=EDGE_CURVE('',#90,#116,#210,.T.);
#95=PRESENTATION_STYLE_ASSIGNMENT((#211));
#96=ADVANCED_FACE('',(#212),#213,.T.);
#97=PRESENTATION_STYLE_ASSIGNMENT((#214));
#98=EDGE_CURVE('',#88,#82,#215,.T.);
#99=PRESENTATION_STYLE_ASSIGNMENT((#216));
#100=VERTEX_POINT('',#217);
#101=PRESENTATION_STYLE_ASSIGNMENT((#218));
#102=VERTEX_POINT('',#219);
#103=PRESENTATION_STYLE_ASSIGNMENT((#220));
#104=EDGE_CURVE('',#74,#100,#221,.T.);
#105=PRESENTATION_STYLE_ASSIGNMENT((#222));
#106=ADVANCED_FACE('',(#223),#224,.F.);
#107=PRESENTATION_STYLE_ASSIGNMENT((#225));
#108=EDGE_CURVE('',#148,#132,#226,.T.);
#109=PRESENTATION_STYLE_ASSIGNMENT((#227));
#110=EDGE_CURVE('',#100,#128,#228,.T.);
#111=PRESENTATION_STYLE_ASSIGNMENT((#229));
#112=ADVANCED_FACE('',(#230,#231),#232,.T.);
#113=PRESENTATION_STYLE_ASSIGNMENT((#233));
#114=ADVANCED_FACE('',(#234),#235,.F.);
#115=PRESENTATION_STYLE_ASSIGNMENT((#236));
#116=VERTEX_POINT('',#237);
#117=PRESENTATION_STYLE_ASSIGNMENT((#238));
#118=EDGE_CURVE('',#128,#156,#239,.T.);
#119=PRESENTATION_STYLE_ASSIGNMENT((#240));
#120=EDGE_CURVE('',#102,#116,#241,.T.);
#121=PRESENTATION_STYLE_ASSIGNMENT((#242));
#122=EDGE_CURVE('',#102,#140,#243,.T.);
#123=PRESENTATION_STYLE_ASSIGNMENT((#244));
#124=EDGE_CURVE('',#88,#90,#245,.T.);
#125=PRESENTATION_STYLE_ASSIGNMENT((#246));
#126=ADVANCED_FACE('',(#247),#248,.T.);
#127=PRESENTATION_STYLE_ASSIGNMENT((#249));
#128=VERTEX_POINT('',#250);
#129=PRESENTATION_STYLE_ASSIGNMENT((#251));
#130=EDGE_CURVE('',#136,#150,#252,.T.);
#131=PRESENTATION_STYLE_ASSIGNMENT((#253));
#132=VERTEX_POINT('',#254);
#133=PRESENTATION_STYLE_ASSIGNMENT((#255));
#134=MANIFOLD_SOLID_BREP('1',#256);
#135=PRESENTATION_STYLE_ASSIGNMENT((#257));
#136=VERTEX_POINT('',#258);
#137=PRESENTATION_STYLE_ASSIGNMENT((#259));
#138=ADVANCED_FACE('',(#260,#261),#262,.T.);
#139=PRESENTATION_STYLE_ASSIGNMENT((#263));
#140=VERTEX_POINT('',#264);
#141=PRESENTATION_STYLE_ASSIGNMENT((#265));
#142=EDGE_CURVE('',#132,#148,#266,.T.);
#143=PRESENTATION_STYLE_ASSIGNMENT((#267));
#144=EDGE_CURVE('',#148,#136,#268,.T.);
#145=PRESENTATION_STYLE_ASSIGNMENT((#269));
#146=EDGE_CURVE('',#140,#102,#270,.T.);
#147=PRESENTATION_STYLE_ASSIGNMENT((#271));
#148=VERTEX_POINT('',#272);
#149=PRESENTATION_STYLE_ASSIGNMENT((#273));
#150=VERTEX_POINT('',#274);
#151=PRESENTATION_STYLE_ASSIGNMENT((#275));
#152=ADVANCED_FACE('',(#276),#277,.T.);
#153=PRESENTATION_STYLE_ASSIGNMENT((#278));
#154=EDGE_CURVE('',#116,#82,#279,.T.);
#155=PRESENTATION_STYLE_ASSIGNMENT((#280));
#156=VERTEX_POINT('',#281);
#157=PRESENTATION_STYLE_ASSIGNMENT((#282));
#158=EDGE_CURVE('',#90,#140,#283,.T.);
#159=PRESENTATION_STYLE_ASSIGNMENT((#284));
#160=EDGE_CURVE('',#150,#136,#285,.T.);
#161=PRESENTATION_STYLE_ASSIGNMENT((#286));
#162=ADVANCED_FACE('',(#287),#288,.T.);
#163=PRESENTATION_STYLE_ASSIGNMENT((#289));
#164=EDGE_CURVE('',#150,#132,#290,.T.);
#165=PRESENTATION_STYLE_ASSIGNMENT((#291));
#166=EDGE_CURVE('',#128,#100,#292,.T.);
#167=PRODUCT('1','1','PART-1-DESC',(#293));
#168=PRODUCT_DEFINITION('NONE','NONE',#294,#2);
#169=AXIS2_PLACEMENT_3D('',#295,#296,#297);
#172=LENGTH_MEASURE_WITH_UNIT(LENGTH_MEASURE(1.0),#298);
#175=DIMENSIONAL_EXPONENTS(1.0,0.0,0.0,0.0,0.0,0.0,0.0);
#177=DIMENSIONAL_EXPONENTS(0.0,0.0,0.0,0.0,0.0,0.0,0.0);
#183=CURVE_STYLE('',#299,POSITIVE_LENGTH_MEASURE(1.0E-006),#300);
#184=CIRCLE('',#301,14.0);
#185=POINT_STYLE(' ',#302,POSITIVE_LENGTH_MEASURE(1.0E-006),#303);
#186=CARTESIAN_POINT('',(7.99808999999996,5.03764089481208E-015,2.99999999999994));
#187=SURFACE_STYLE_USAGE(.BOTH.,#304);
#188=FACE_OUTER_BOUND('',#305,.T.);
#189=FACE_BOUND('',#306,.T.);
#190=PLANE('',#307);
#191=CURVE_STYLE('',#308,POSITIVE_LENGTH_MEASURE(1.0E-006),#309);
#192=CIRCLE('',#310,13.0);
#193=SURFACE_STYLE_USAGE(.BOTH.,#311);
#194=FACE_OUTER_BOUND('',#312,.T.);
#195=CONICAL_SURFACE('',#313,13.5,0.785398163397434);
#196=POINT_STYLE(' ',#314,POSITIVE_LENGTH_MEASURE(1.0E-006),#315);
#197=CARTESIAN_POINT('',(-13.0,1.04464349480057E-015,2.99999999999994));
#198=CURVE_STYLE('',#316,POSITIVE_LENGTH_MEASURE(1.0E-006),#317);
#199=CIRCLE('',#318,7.99808999999996);
#200=CURVE_STYLE('',#319,POSITIVE_LENGTH_MEASURE(1.0E-006),#320);
#201=CIRCLE('',#321,7.99808999999996);
#202=POINT_STYLE(' ',#322,POSITIVE_LENGTH_MEASURE(1.0E-006),#323);
#203=CARTESIAN_POINT('',(13.0,5.65017797153686E-015,2.99999999999994));
#204=POINT_STYLE(' ',#324,POSITIVE_LENGTH_MEASURE(1.0E-006),#325);
#205=CARTESIAN_POINT('',(14.0,5.71140828922797E-015,1.99999999999994));
#206=SURFACE_STYLE_USAGE(.BOTH.,#326);
#207=FACE_OUTER_BOUND('',#327,.T.);
#208=CYLINDRICAL_SURFACE('',#328,14.0);
#209=CURVE_STYLE('',#329,POSITIVE_LENGTH_MEASURE(1.0E-006),#330);
#210=CIRCLE('',#331,14.0);
#211=SURFACE_STYLE_USAGE(.BOTH.,#332);
#212=FACE_OUTER_BOUND('',#333,.T.);
#213=CYLINDRICAL_SURFACE('',#334,12.5);
#214=CURVE_STYLE('',#335,POSITIVE_LENGTH_MEASURE(1.0E-006),#336);
#215=CIRCLE('',#337,13.0);
#216=POINT_STYLE(' ',#338,POSITIVE_LENGTH_MEASURE(1.0E-006),#339);
#217=CARTESIAN_POINT('',(5.75999999999999,3.72264757062043E-015,-14.0000000000001));
#218=POINT_STYLE(' ',#340,POSITIVE_LENGTH_MEASURE(1.0E-006),#341);
#219=CARTESIAN_POINT('',(-14.0,8.12832247356945E-016,-5.6843418860808E-014));
#220=CURVE_STYLE('',#342,POSITIVE_LENGTH_MEASURE(1.0E-006),#343);
#221=LINE('',#344,#345);
#222=SURFACE_STYLE_USAGE(.BOTH.,#346);
#223=FACE_OUTER_BOUND('',#347,.T.);
#224=CONICAL_SURFACE('',#348,6.87904499999998,0.130899551717701);
#225=CURVE_STYLE('',#349,POSITIVE_LENGTH_MEASURE(1.0E-006),#350);
#226=CIRCLE('',#351,12.5);
#227=CURVE_STYLE('',#352,POSITIVE_LENGTH_MEASURE(1.0E-006),#353);
#228=CIRCLE('',#354,5.75999999999999);
#229=SURFACE_STYLE_USAGE(.BOTH.,#355);
#230=FACE_BOUND('',#356,.T.);
#231=FACE_OUTER_BOUND('',#357,.T.);
#232=PLANE('',#358);
#233=SURFACE_STYLE_USAGE(.BOTH.,#359);
#234=FACE_OUTER_BOUND('',#360,.T.);
#235=CONICAL_SURFACE('',#361,6.87904499999998,0.130899551717701);
#236=POINT_STYLE(' ',#362,POSITIVE_LENGTH_MEASURE(1.0E-006),#363);
#237=CARTESIAN_POINT('',(-14.0,8.12832247356945E-016,1.99999999999994));
#238=CURVE_STYLE('',#364,POSITIVE_LENGTH_MEASURE(1.0E-006),#365);
#239=LINE('',#366,#367);
#240=CURVE_STYLE('',#368,POSITIVE_LENGTH_MEASURE(1.0E-006),#369);
#241=LINE('',#370,#371);
#242=CURVE_STYLE('',#372,POSITIVE_LENGTH_MEASURE(1.0E-006),#373);
#243=CIRCLE('',#374,14.0);
#244=CURVE_STYLE('',#375,POSITIVE_LENGTH_MEASURE(1.0E-006),#376);
#245=LINE('',#377,#378);
#246=SURFACE_STYLE_USAGE(.BOTH.,#379);
#247=FACE_OUTER_BOUND('',#380,.T.);
#248=CYLINDRICAL_SURFACE('',#381,14.0);
#249=POINT_STYLE(' ',#382,POSITIVE_LENGTH_MEASURE(1.0E-006),#383);
#250=CARTESIAN_POINT('',(-5.75999999999999,2.72295692629246E-015,-14.0000000000001));
#251=CURVE_STYLE('',#384,POSITIVE_LENGTH_MEASURE(1.0E-006),#385);
#252=CIRCLE('',#386,12.5);
#253=POINT_STYLE(' ',#387,POSITIVE_LENGTH_MEASURE(1.0E-006),#388);
#254=CARTESIAN_POINT('',(12.5,4.54803225309672E-015,-14.0000000000001));
#255=SURFACE_STYLE_USAGE(.BOTH.,#389);
#256=CLOSED_SHELL('',(#126,#152,#114,#162,#138,#96,#112,#106,#76,#80,#92));
#257=POINT_STYLE(' ',#390,POSITIVE_LENGTH_MEASURE(1.0E-006),#391);
#258=CARTESIAN_POINT('',(-12.5,1.16054911852238E-015,-5.6843418860808E-014));
#259=SURFACE_STYLE_USAGE(.BOTH.,#392);
#260=FACE_BOUND('',#393,.T.);
#261=FACE_OUTER_BOUND('',#394,.T.);
#262=PLANE('',#395);
#263=POINT_STYLE(' ',#396,POSITIVE_LENGTH_MEASURE(1.0E-006),#397);
#264=CARTESIAN_POINT('',(14.0,5.58894765384574E-015,-5.6843418860808E-014));
#265=CURVE_STYLE('',#398,POSITIVE_LENGTH_MEASURE(1.0E-006),#399);
#266=CIRCLE('',#400,12.5);
#267=CURVE_STYLE('',#401,POSITIVE_LENGTH_MEASURE(1.0E-006),#402);
#268=LINE('',#403,#404);
#269=CURVE_STYLE('',#405,POSITIVE_LENGTH_MEASURE(1.0E-006),#406);
#270=CIRCLE('',#407,14.0);
#271=POINT_STYLE(' ',#408,POSITIVE_LENGTH_MEASURE(1.0E-006),#409);
#272=CARTESIAN_POINT('',(-12.5,1.16054911852238E-015,-14.0000000000001));
#273=POINT_STYLE(' ',#410,POSITIVE_LENGTH_MEASURE(1.0E-006),#411);
#274=CARTESIAN_POINT('',(12.5,5.40525670077238E-015,-5.6843418860808E-014));
#275=SURFACE_STYLE_USAGE(.BOTH.,#412);
#276=FACE_OUTER_BOUND('',#413,.T.);
#277=CONICAL_SURFACE('',#414,13.5,0.785398163397434);
#278=CURVE_STYLE('',#415,POSITIVE_LENGTH_MEASURE(1.0E-006),#416);
#279=LINE('',#417,#418);
#280=POINT_STYLE(' ',#419,POSITIVE_LENGTH_MEASURE(1.0E-006),#420);
#281=CARTESIAN_POINT('',(-7.99808999999996,2.20414249150135E-015,2.99999999999994));
#282=CURVE_STYLE('',#421,POSITIVE_LENGTH_MEASURE(1.0E-006),#422);
#283=LINE('',#423,#424);
#284=CURVE_STYLE('',#425,POSITIVE_LENGTH_MEASURE(1.0E-006),#426);
#285=CIRCLE('',#427,12.5);
#286=SURFACE_STYLE_USAGE(.BOTH.,#428);
#287=FACE_OUTER_BOUND('',#429,.T.);
#288=CYLINDRICAL_SURFACE('',#430,12.5);
#289=CURVE_STYLE('',#431,POSITIVE_LENGTH_MEASURE(1.0E-006),#432);
#290=LINE('',#433,#434);
#291=CURVE_STYLE('',#435,POSITIVE_LENGTH_MEASURE(1.0E-006),#436);
#292=CIRCLE('',#437,5.75999999999999);
#293=PRODUCT_CONTEXT('',#58,'mechanical');
#294=PRODUCT_DEFINITION_FORMATION_WITH_SPECIFIED_SOURCE(' ','NONE',#167,.NOT_KNOWN.);
#295=CARTESIAN_POINT('',(0.0,0.0,0.0));
#296=DIRECTION('',(0.0,0.0,1.0));
#297=DIRECTION('',(1.0,0.0,0.0));
#298= (NAMED_UNIT(#175)LENGTH_UNIT()SI_UNIT(.MILLI.,.METRE.));
#299=DRAUGHTING_PRE_DEFINED_CURVE_FONT('continuous');
#300=COLOUR_RGB('',0.509803950786591,0.509803950786591,0.588235318660736);
#301=AXIS2_PLACEMENT_3D('',#439,#440,#441);
#302=PRE_DEFINED_MARKER('');
#303=COLOUR_RGB('',0.509803950786591,0.509803950786591,0.588235318660736);
#304=SURFACE_SIDE_STYLE('',(#442));
#305=EDGE_LOOP('',(#443,#444));
#306=EDGE_LOOP('',(#445,#446));
#307=AXIS2_PLACEMENT_3D('',#447,#448,#449);
#308=DRAUGHTING_PRE_DEFINED_CURVE_FONT('continuous');
#309=COLOUR_RGB('',0.509803950786591,0.509803950786591,0.588235318660736);
#310=AXIS2_PLACEMENT_3D('',#450,#451,#452);
#311=SURFACE_SIDE_STYLE('',(#453));
#312=EDGE_LOOP('',(#454,#455,#456,#457));
#313=AXIS2_PLACEMENT_3D('',#458,#459,#460);
#314=PRE_DEFINED_MARKER('');
#315=COLOUR_RGB('',0.509803950786591,0.509803950786591,0.588235318660736);
#316=DRAUGHTING_PRE_DEFINED_CURVE_FONT('continuous');
#317=COLOUR_RGB('',0.509803950786591,0.509803950786591,0.588235318660736);
#318=AXIS2_PLACEMENT_3D('',#461,#462,#463);
#319=DRAUGHTING_PRE_DEFINED_CURVE_FONT('continuous');
#320=COLOUR_RGB('',0.509803950786591,0.509803950786591,0.588235318660736);
#321=AXIS2_PLACEMENT_3D('',#464,#465,#466);
#322=PRE_DEFINED_MARKER('');
#323=COLOUR_RGB('',0.509803950786591,0.509803950786591,0.588235318660736);
#324=PRE_DEFINED_MARKER('');
#325=COLOUR_RGB('',0.509803950786591,0.509803950786591,0.588235318660736);
#326=SURFACE_SIDE_STYLE('',(#467));
#327=EDGE_LOOP('',(#468,#469,#470,#471));
#328=AXIS2_PLACEMENT_3D('',#472,#473,#474);
#329=DRAUGHTING_PRE_DEFINED_CURVE_FONT('continuous');
#330=COLOUR_RGB('',0.509803950786591,0.509803950786591,0.588235318660736);
#331=AXIS2_PLACEMENT_3D('',#475,#476,#477);
#332=SURFACE_SIDE_STYLE('',(#478));
#333=EDGE_LOOP('',(#479,#480,#481,#482));
#334=AXIS2_PLACEMENT_3D('',#483,#484,#485);
#335=DRAUGHTING_PRE_DEFINED_CURVE_FONT('continuous');
#336=COLOUR_RGB('',0.509803950786591,0.509803950786591,0.588235318660736);
#337=AXIS2_PLACEMENT_3D('',#486,#487,#488);
#338=PRE_DEFINED_MARKER('');
#339=COLOUR_RGB('',0.509803950786591,0.509803950786591,0.588235318660736);
#340=PRE_DEFINED_MARKER('');
#341=COLOUR_RGB('',0.509803950786591,0.509803950786591,0.588235318660736);
#342=DRAUGHTING_PRE_DEFINED_CURVE_FONT('continuous');
#343=COLOUR_RGB('',0.509803950786591,0.509803950786591,0.588235318660736);
#344=CARTESIAN_POINT('',(6.87904499999998,5.65282971423863E-015,-5.50000000000006));
#345=VECTOR('',#489,1.0);
#346=SURFACE_SIDE_STYLE('',(#490));
#347=EDGE_LOOP('',(#491,#492,#493,#494));
#348=AXIS2_PLACEMENT_3D('',#495,#496,#497);
#349=DRAUGHTING_PRE_DEFINED_CURVE_FONT('continuous');
#350=COLOUR_RGB('',0.509803950786591,0.509803950786591,0.588235318660736);
#351=AXIS2_PLACEMENT_3D('',#498,#499,#500);
#352=DRAUGHTING_PRE_DEFINED_CURVE_FONT('continuous');
#353=COLOUR_RGB('',0.509803950786591,0.509803950786591,0.588235318660736);
#354=AXIS2_PLACEMENT_3D('',#501,#502,#503);
#355=SURFACE_SIDE_STYLE('',(#504));
#356=EDGE_LOOP('',(#505,#506));
#357=EDGE_LOOP('',(#507,#508));
#358=AXIS2_PLACEMENT_3D('',#509,#510,#511);
#359=SURFACE_SIDE_STYLE('',(#512));
#360=EDGE_LOOP('',(#513,#514,#515,#516));
#361=AXIS2_PLACEMENT_3D('',#517,#518,#519);
#362=PRE_DEFINED_MARKER('');
#363=COLOUR_RGB('',0.509803950786591,0.509803950786591,0.588235318660736);
#364=DRAUGHTING_PRE_DEFINED_CURVE_FONT('continuous');
#365=COLOUR_RGB('',0.509803950786591,0.509803950786591,0.588235318660736);
#366=CARTESIAN_POINT('',(-6.87904499999998,2.4635497088969E-015,-5.50000000000006));
#367=VECTOR('',#520,1.0);
#368=DRAUGHTING_PRE_DEFINED_CURVE_FONT('continuous');
#369=COLOUR_RGB('',0.509803950786591,0.509803950786591,0.588235318660736);
#370=CARTESIAN_POINT('',(-14.0,8.12832247356945E-016,0.999999999999943));
#371=VECTOR('',#521,1.0);
#372=DRAUGHTING_PRE_DEFINED_CURVE_FONT('continuous');
#373=COLOUR_RGB('',0.509803950786591,0.509803950786591,0.588235318660736);
#374=AXIS2_PLACEMENT_3D('',#522,#523,#524);
#375=DRAUGHTING_PRE_DEFINED_CURVE_FONT('continuous');
#376=COLOUR_RGB('',0.509803950786591,0.509803950786591,0.588235318660736);
#377=CARTESIAN_POINT('',(13.5,7.18764155205677E-015,2.49999999999994));
#378=VECTOR('',#525,1.0);
#379=SURFACE_SIDE_STYLE('',(#526));
#380=EDGE_LOOP('',(#527,#528,#529,#530));
#381=AXIS2_PLACEMENT_3D('',#531,#532,#533);
#382=PRE_DEFINED_MARKER('');
#383=COLOUR_RGB('',0.509803950786591,0.509803950786591,0.588235318660736);
#384=DRAUGHTING_PRE_DEFINED_CURVE_FONT('continuous');
#385=COLOUR_RGB('',0.509803950786591,0.509803950786591,0.588235318660736);
#386=AXIS2_PLACEMENT_3D('',#534,#535,#536);
#387=PRE_DEFINED_MARKER('');
#388=COLOUR_RGB('',0.509803950786591,0.509803950786591,0.588235318660736);
#389=SURFACE_SIDE_STYLE('',(#537));
#390=PRE_DEFINED_MARKER('');
#391=COLOUR_RGB('',0.509803950786591,0.509803950786591,0.588235318660736);
#392=SURFACE_SIDE_STYLE('',(#538));
#393=EDGE_LOOP('',(#539,#540));
#394=EDGE_LOOP('',(#541,#542));
#395=AXIS2_PLACEMENT_3D('',#543,#544,#545);
#396=PRE_DEFINED_MARKER('');
#397=COLOUR_RGB('',0.509803950786591,0.509803950786591,0.588235318660736);
#398=DRAUGHTING_PRE_DEFINED_CURVE_FONT('continuous');
#399=COLOUR_RGB('',0.509803950786591,0.509803950786591,0.588235318660736);
#400=AXIS2_PLACEMENT_3D('',#546,#547,#548);
#401=DRAUGHTING_PRE_DEFINED_CURVE_FONT('continuous');
#402=COLOUR_RGB('',0.509803950786591,0.509803950786591,0.588235318660736);
#403=CARTESIAN_POINT('',(-12.5,1.16054911852238E-015,-7.00000000000006));
#404=VECTOR('',#549,1.0);
#405=DRAUGHTING_PRE_DEFINED_CURVE_FONT('continuous');
#406=COLOUR_RGB('',0.509803950786591,0.509803950786591,0.588235318660736);
#407=AXIS2_PLACEMENT_3D('',#550,#551,#552);
#408=PRE_DEFINED_MARKER('');
#409=COLOUR_RGB('',0.509803950786591,0.509803950786591,0.588235318660736);
#410=PRE_DEFINED_MARKER('');
#411=COLOUR_RGB('',0.509803950786591,0.509803950786591,0.588235318660736);
#412=SURFACE_SIDE_STYLE('',(#553));
#413=EDGE_LOOP('',(#554,#555,#556,#557));
#414=AXIS2_PLACEMENT_3D('',#558,#559,#560);
#415=DRAUGHTING_PRE_DEFINED_CURVE_FONT('continuous');
#416=COLOUR_RGB('',0.509803950786591,0.509803950786591,0.588235318660736);
#417=CARTESIAN_POINT('',(-13.5,9.28737871078756E-016,2.49999999999994));
#418=VECTOR('',#561,1.0);
#419=PRE_DEFINED_MARKER('');
#420=COLOUR_RGB('',0.509803950786591,0.509803950786591,0.588235318660736);
#421=DRAUGHTING_PRE_DEFINED_CURVE_FONT('continuous');
#422=COLOUR_RGB('',0.509803950786591,0.509803950786591,0.588235318660736);
#423=CARTESIAN_POINT('',(14.0,7.30354717577858E-015,0.999999999999943));
#424=VECTOR('',#562,1.0);
#425=DRAUGHTING_PRE_DEFINED_CURVE_FONT('continuous');
#426=COLOUR_RGB('',0.509803950786591,0.509803950786591,0.588235318660736);
#427=AXIS2_PLACEMENT_3D('',#563,#564,#565);
#428=SURFACE_SIDE_STYLE('',(#566));
#429=EDGE_LOOP('',(#567,#568,#569,#570));
#430=AXIS2_PLACEMENT_3D('',#571,#572,#573);
#431=DRAUGHTING_PRE_DEFINED_CURVE_FONT('continuous');
#432=COLOUR_RGB('',0.509803950786591,0.509803950786591,0.588235318660736);
#433=CARTESIAN_POINT('',(12.5,6.95583030461315E-015,-7.00000000000006));
#434=VECTOR('',#574,1.0);
#435=DRAUGHTING_PRE_DEFINED_CURVE_FONT('continuous');
#436=COLOUR_RGB('',0.509803950786591,0.509803950786591,0.588235318660736);
#437=AXIS2_PLACEMENT_3D('',#575,#576,#577);
#439=CARTESIAN_POINT('',(0.0,4.05818971156776E-015,1.99999999999994));
#440=DIRECTION('',(0.0,0.0,-1.0));
#441=DIRECTION('',(1.0,1.09350612061392E-016,0.0));
#442=SURFACE_STYLE_FILL_AREA(#578);
#443=ORIENTED_EDGE('',*,*,#98,.F.);
#444=ORIENTED_EDGE('',*,*,#78,.F.);
#445=ORIENTED_EDGE('',*,*,#84,.T.);
#446=ORIENTED_EDGE('',*,*,#86,.T.);
#447=CARTESIAN_POINT('',(10.499045,5.34390943317447E-015,2.99999999999994));
#448=DIRECTION('',(0.0,0.0,1.0));
#449=DIRECTION('',(-1.0,-1.22460635382238E-016,0.0));
#450=CARTESIAN_POINT('',(0.0,4.05818971156776E-015,2.99999999999994));
#451=DIRECTION('',(0.0,0.0,-1.0));
#452=DIRECTION('',(1.0,1.09350612061392E-016,0.0));
#453=SURFACE_STYLE_FILL_AREA(#579);
#454=ORIENTED_EDGE('',*,*,#124,.T.);
#455=ORIENTED_EDGE('',*,*,#72,.F.);
#456=ORIENTED_EDGE('',*,*,#154,.T.);
#457=ORIENTED_EDGE('',*,*,#78,.T.);
#458=CARTESIAN_POINT('',(0.0,4.05818971156776E-015,2.49999999999994));
#459=DIRECTION('',(0.0,-0.0,-1.0));
#460=DIRECTION('',(1.0,1.09350612061392E-016,0.0));
#461=CARTESIAN_POINT('',(0.0,4.05818971156776E-015,2.99999999999994));
#462=DIRECTION('',(0.0,0.0,-1.0));
#463=DIRECTION('',(1.0,1.09350612061392E-016,0.0));
#464=CARTESIAN_POINT('',(0.0,4.05818971156776E-015,2.99999999999994));
#465=DIRECTION('',(0.0,0.0,-1.0));
#466=DIRECTION('',(1.0,1.09350612061392E-016,0.0));
#467=SURFACE_STYLE_FILL_AREA(#580);
#468=ORIENTED_EDGE('',*,*,#158,.T.);
#469=ORIENTED_EDGE('',*,*,#122,.F.);
#470=ORIENTED_EDGE('',*,*,#120,.T.);
#471=ORIENTED_EDGE('',*,*,#72,.T.);
#472=CARTESIAN_POINT('',(0.0,4.05818971156776E-015,0.999999999999943));
#473=DIRECTION('',(-0.0,-0.0,1.0));
#474=DIRECTION('',(1.0,1.09350612061392E-016,0.0));
#475=CARTESIAN_POINT('',(0.0,4.05818971156776E-015,1.99999999999994));
#476=DIRECTION('',(0.0,0.0,-1.0));
#477=DIRECTION('',(1.0,1.09350612061392E-016,0.0));
#478=SURFACE_STYLE_FILL_AREA(#581);
#479=ORIENTED_EDGE('',*,*,#164,.T.);
#480=ORIENTED_EDGE('',*,*,#108,.F.);
#481=ORIENTED_EDGE('',*,*,#144,.T.);
#482=ORIENTED_EDGE('',*,*,#130,.T.);
#483=CARTESIAN_POINT('',(0.0,4.05818971156776E-015,-7.00000000000006));
#484=DIRECTION('',(-0.0,-0.0,1.0));
#485=DIRECTION('',(1.0,1.09350612061392E-016,0.0));
#486=CARTESIAN_POINT('',(0.0,4.05818971156776E-015,2.99999999999994));
#487=DIRECTION('',(0.0,0.0,-1.0));
#488=DIRECTION('',(1.0,1.09350612061392E-016,0.0));
#489=DIRECTION('',(-0.130526051254562,-3.02574067652113E-017,-0.991444879932259));
#490=SURFACE_STYLE_FILL_AREA(#582);
#491=ORIENTED_EDGE('',*,*,#104,.T.);
#492=ORIENTED_EDGE('',*,*,#110,.T.);
#493=ORIENTED_EDGE('',*,*,#118,.T.);
#494=ORIENTED_EDGE('',*,*,#84,.F.);
#495=CARTESIAN_POINT('',(0.0,4.05818971156776E-015,-5.50000000000006));
#496=DIRECTION('',(-0.0,-0.0,1.0));
#497=DIRECTION('',(1.0,1.09350612061392E-016,0.0));
#498=CARTESIAN_POINT('',(0.0,4.05818971156776E-015,-14.0000000000001));
#499=DIRECTION('',(0.0,0.0,-1.0));
#500=DIRECTION('',(1.0,1.09350612061392E-016,0.0));
#501=CARTESIAN_POINT('',(0.0,4.05818971156776E-015,-14.0000000000001));
#502=DIRECTION('',(0.0,0.0,-1.0));
#503=DIRECTION('',(1.0,1.09350612061392E-016,0.0));
#504=SURFACE_STYLE_FILL_AREA(#583);
#505=ORIENTED_EDGE('',*,*,#110,.F.);
#506=ORIENTED_EDGE('',*,*,#166,.F.);
#507=ORIENTED_EDGE('',*,*,#142,.T.);
#508=ORIENTED_EDGE('',*,*,#108,.T.);
#509=CARTESIAN_POINT('',(9.13000000000001,4.13533991185858E-015,-14.0000000000001));
#510=DIRECTION('',(0.0,0.0,-1.0));
#511=DIRECTION('',(1.0,1.22460635382238E-016,0.0));
#512=SURFACE_STYLE_FILL_AREA(#584);
#513=ORIENTED_EDGE('',*,*,#104,.F.);
#514=ORIENTED_EDGE('',*,*,#86,.F.);
#515=ORIENTED_EDGE('',*,*,#118,.F.);
#516=ORIENTED_EDGE('',*,*,#166,.T.);
#517=CARTESIAN_POINT('',(0.0,4.05818971156776E-015,-5.50000000000006));
#518=DIRECTION('',(-0.0,-0.0,1.0));
#519=DIRECTION('',(1.0,1.09350612061392E-016,0.0));
#520=DIRECTION('',(-0.130526051254562,-3.02574067652113E-017,0.991444879932259));
#521=DIRECTION('',(-0.0,-0.0,1.0));
#522=CARTESIAN_POINT('',(0.0,4.05818971156776E-015,-5.6843418860808E-014));
#523=DIRECTION('',(0.0,0.0,-1.0));
#524=DIRECTION('',(1.0,1.09350612061392E-016,0.0));
#525=DIRECTION('',(0.707106781186537,1.63915305022701E-016,-0.707106781186558));
#526=SURFACE_STYLE_FILL_AREA(#585);
#527=ORIENTED_EDGE('',*,*,#158,.F.);
#528=ORIENTED_EDGE('',*,*,#94,.T.);
#529=ORIENTED_EDGE('',*,*,#120,.F.);
#530=ORIENTED_EDGE('',*,*,#146,.F.);
#531=CARTESIAN_POINT('',(0.0,4.05818971156776E-015,0.999999999999943));
#532=DIRECTION('',(-0.0,-0.0,1.0));
#533=DIRECTION('',(1.0,1.09350612061392E-016,0.0));
#534=CARTESIAN_POINT('',(0.0,4.05818971156776E-015,-5.6843418860808E-014));
#535=DIRECTION('',(0.0,0.0,-1.0));
#536=DIRECTION('',(1.0,1.09350612061392E-016,0.0));
#537=SURFACE_STYLE_FILL_AREA(#586);
#538=SURFACE_STYLE_FILL_AREA(#587);
#539=ORIENTED_EDGE('',*,*,#160,.F.);
#540=ORIENTED_EDGE('',*,*,#130,.F.);
#541=ORIENTED_EDGE('',*,*,#146,.T.);
#542=ORIENTED_EDGE('',*,*,#122,.T.);
#543=CARTESIAN_POINT('',(13.25,5.49710217730906E-015,-5.6843418860808E-014));
#544=DIRECTION('',(0.0,0.0,-1.0));
#545=DIRECTION('',(1.0,1.22460635382238E-016,0.0));
#546=CARTESIAN_POINT('',(0.0,4.05818971156776E-015,-14.0000000000001));
#547=DIRECTION('',(0.0,0.0,-1.0));
#548=DIRECTION('',(1.0,1.09350612061392E-016,0.0));
#549=DIRECTION('',(-0.0,-0.0,1.0));
#550=CARTESIAN_POINT('',(0.0,4.05818971156776E-015,-5.6843418860808E-014));
#551=DIRECTION('',(0.0,0.0,-1.0));
#552=DIRECTION('',(1.0,1.09350612061392E-016,0.0));
#553=SURFACE_STYLE_FILL_AREA(#588);
#554=ORIENTED_EDGE('',*,*,#124,.F.);
#555=ORIENTED_EDGE('',*,*,#98,.T.);
#556=ORIENTED_EDGE('',*,*,#154,.F.);
#557=ORIENTED_EDGE('',*,*,#94,.F.);
#558=CARTESIAN_POINT('',(0.0,4.05818971156776E-015,2.49999999999994));
#559=DIRECTION('',(0.0,-0.0,-1.0));
#560=DIRECTION('',(1.0,1.09350612061392E-016,0.0));
#561=DIRECTION('',(0.707106781186537,1.63915305022701E-016,0.707106781186558));
#562=DIRECTION('',(0.0,0.0,-1.0));
#563=CARTESIAN_POINT('',(0.0,4.05818971156776E-015,-5.6843418860808E-014));
#564=DIRECTION('',(0.0,0.0,-1.0));
#565=DIRECTION('',(1.0,1.09350612061392E-016,0.0));
#566=SURFACE_STYLE_FILL_AREA(#589);
#567=ORIENTED_EDGE('',*,*,#164,.F.);
#568=ORIENTED_EDGE('',*,*,#160,.T.);
#569=ORIENTED_EDGE('',*,*,#144,.F.);
#570=ORIENTED_EDGE('',*,*,#142,.F.);
#571=CARTESIAN_POINT('',(0.0,4.05818971156776E-015,-7.00000000000006));
#572=DIRECTION('',(-0.0,-0.0,1.0));
#573=DIRECTION('',(1.0,1.09350612061392E-016,0.0));
#574=DIRECTION('',(0.0,0.0,-1.0));
#575=CARTESIAN_POINT('',(0.0,4.05818971156776E-015,-14.0000000000001));
#576=DIRECTION('',(0.0,0.0,-1.0));
#577=DIRECTION('',(1.0,1.09350612061392E-016,0.0));
#578=FILL_AREA_STYLE('',(#590));
#579=FILL_AREA_STYLE('',(#591));
#580=FILL_AREA_STYLE('',(#592));
#581=FILL_AREA_STYLE('',(#593));
#582=FILL_AREA_STYLE('',(#594));
#583=FILL_AREA_STYLE('',(#595));
#584=FILL_AREA_STYLE('',(#596));
#585=FILL_AREA_STYLE('',(#597));
#586=FILL_AREA_STYLE('',(#598));
#587=FILL_AREA_STYLE('',(#599));
#588=FILL_AREA_STYLE('',(#600));
#589=FILL_AREA_STYLE('',(#601));
#590=FILL_AREA_STYLE_COLOUR('',#602);
#591=FILL_AREA_STYLE_COLOUR('',#603);
#592=FILL_AREA_STYLE_COLOUR('',#604);
#593=FILL_AREA_STYLE_COLOUR('',#605);
#594=FILL_AREA_STYLE_COLOUR('',#606);
#595=FILL_AREA_STYLE_COLOUR('',#607);
#596=FILL_AREA_STYLE_COLOUR('',#608);
#597=FILL_AREA_STYLE_COLOUR('',#609);
#598=FILL_AREA_STYLE_COLOUR('',#610);
#599=FILL_AREA_STYLE_COLOUR('',#611);
#600=FILL_AREA_STYLE_COLOUR('',#612);
#601=FILL_AREA_STYLE_COLOUR('',#613);
#602=COLOUR_RGB('',0.509803950786591,0.509803950786591,0.588235318660736);
#603=COLOUR_RGB('',0.509803950786591,0.509803950786591,0.588235318660736);
#604=COLOUR_RGB('',0.509803950786591,0.509803950786591,0.588235318660736);
#605=COLOUR_RGB('',0.509803950786591,0.509803950786591,0.588235318660736);
#606=COLOUR_RGB('',0.509803950786591,0.509803950786591,0.588235318660736);
#607=COLOUR_RGB('',0.509803950786591,0.509803950786591,0.588235318660736);
#608=COLOUR_RGB('',0.509803950786591,0.509803950786591,0.588235318660736);
#609=COLOUR_RGB('',0.509803950786591,0.509803950786591,0.588235318660736);
#610=COLOUR_RGB('',0.509803950786591,0.509803950786591,0.588235318660736);
#611=COLOUR_RGB('',0.509803950786591,0.509803950786591,0.588235318660736);
#612=COLOUR_RGB('',0.509803950786591,0.509803950786591,0.588235318660736);
#613=COLOUR_RGB('',0.509803950786591,0.509803950786591,0.588235318660736);
ENDSEC;
END-ISO-10303-21;
