ISO-10303-21;
HEADER;
FILE_DESCRIPTION(('STEP AP214'),'1');
FILE_NAME(' ','  ',('TraceParts'),('TraceParts S.A.'),'XStep 1.0',' ',' ');
FILE_SCHEMA(('automotive_design'));
ENDSEC;
DATA;
#1=MECHANICAL_DESIGN_GEOMETRIC_PRESENTATION_REPRESENTATION(' ',(#10,#11,#12,#13,#14,#15,#16,#17,#18,#19,#20,#21,#22,#23,#24,#25,#26,#27,#28,#29,#30,#31,#32,#33,#34,#35,#36,#37,#38,#39,#40,#41,#42,#43,#44,#45,#46,#47,#48,#49,#50,#51,#52),#6);
#2=PRODUCT_DEFINITION_CONTEXT('',#53,'design');
#3=APPLICATION_PROTOCOL_DEFINITION('INTERNATIONAL STANDARD','automotive_design',1994,#53);
#4=PRODUCT_CATEGORY_RELATIONSHIP('NONE','NONE',#54,#55);
#5=SHAPE_DEFINITION_REPRESENTATION(#56,#57);
#6= (GEOMETRIC_REPRESENTATION_CONTEXT(3)GLOBAL_UNCERTAINTY_ASSIGNED_CONTEXT((#60))GLOBAL_UNIT_ASSIGNED_CONTEXT((#62,#63,#64))REPRESENTATION_CONTEXT('NONE','WORKSPACE'));
#10=STYLED_ITEM('',(#66),#67);
#11=STYLED_ITEM('',(#68),#69);
#12=STYLED_ITEM('',(#70),#71);
#13=STYLED_ITEM('',(#72),#73);
#14=STYLED_ITEM('',(#74),#75);
#15=STYLED_ITEM('',(#76),#77);
#16=STYLED_ITEM('',(#78),#79);
#17=STYLED_ITEM('',(#80),#81);
#18=STYLED_ITEM('',(#82),#83);
#19=STYLED_ITEM('',(#84),#85);
#20=STYLED_ITEM('',(#86),#87);
#21=STYLED_ITEM('',(#88),#89);
#22=STYLED_ITEM('',(#90),#91);
#23=STYLED_ITEM('',(#92),#93);
#24=STYLED_ITEM('',(#94),#95);
#25=STYLED_ITEM('',(#96),#97);
#26=STYLED_ITEM('',(#98),#99);
#27=STYLED_ITEM('',(#100),#101);
#28=STYLED_ITEM('',(#102),#103);
#29=STYLED_ITEM('',(#104),#105);
#30=STYLED_ITEM('',(#106),#107);
#31=STYLED_ITEM('',(#108),#109);
#32=STYLED_ITEM('',(#110),#111);
#33=STYLED_ITEM('',(#112),#113);
#34=STYLED_ITEM('',(#114),#115);
#35=STYLED_ITEM('',(#116),#117);
#36=STYLED_ITEM('',(#118),#119);
#37=STYLED_ITEM('',(#120),#121);
#38=STYLED_ITEM('',(#122),#123);
#39=STYLED_ITEM('',(#124),#125);
#40=STYLED_ITEM('',(#126),#127);
#41=STYLED_ITEM('',(#128),#129);
#42=STYLED_ITEM('',(#130),#131);
#43=STYLED_ITEM('',(#132),#133);
#44=STYLED_ITEM('',(#134),#135);
#45=STYLED_ITEM('',(#136),#137);
#46=STYLED_ITEM('',(#138),#139);
#47=STYLED_ITEM('',(#140),#141);
#48=STYLED_ITEM('',(#142),#143);
#49=STYLED_ITEM('',(#144),#145);
#50=STYLED_ITEM('',(#146),#147);
#51=STYLED_ITEM('',(#148),#149);
#52=STYLED_ITEM('',(#150),#151);
#53=APPLICATION_CONTEXT(' ');
#54=PRODUCT_CATEGORY('part','NONE');
#55=PRODUCT_RELATED_PRODUCT_CATEGORY('detail',' ',(#152));
#56=PRODUCT_DEFINITION_SHAPE('NONE','NONE',#153);
#57=ADVANCED_BREP_SHAPE_REPRESENTATION('1',(#154,#155),#6);
#60=UNCERTAINTY_MEASURE_WITH_UNIT(LENGTH_MEASURE(1.0E-006),#62,'','');
#62= (CONVERSION_BASED_UNIT('MILLIMETRE',#158)LENGTH_UNIT()NAMED_UNIT(#161));
#63= (NAMED_UNIT(#163)PLANE_ANGLE_UNIT()SI_UNIT($,.RADIAN.));
#64= (NAMED_UNIT(#163)SOLID_ANGLE_UNIT()SI_UNIT($,.STERADIAN.));
#66=PRESENTATION_STYLE_ASSIGNMENT((#169));
#67=ADVANCED_FACE('',(#170),#171,.T.);
#68=PRESENTATION_STYLE_ASSIGNMENT((#172));
#69=EDGE_CURVE('',#87,#137,#173,.T.);
#70=PRESENTATION_STYLE_ASSIGNMENT((#174));
#71=ADVANCED_FACE('',(#175,#176),#177,.T.);
#72=PRESENTATION_STYLE_ASSIGNMENT((#178));
#73=VERTEX_POINT('',#179);
#74=PRESENTATION_STYLE_ASSIGNMENT((#180));
#75=VERTEX_POINT('',#181);
#76=PRESENTATION_STYLE_ASSIGNMENT((#182));
#77=EDGE_CURVE('',#87,#75,#183,.T.);
#78=PRESENTATION_STYLE_ASSIGNMENT((#184));
#79=EDGE_CURVE('',#145,#105,#185,.T.);
#80=PRESENTATION_STYLE_ASSIGNMENT((#186));
#81=EDGE_CURVE('',#105,#73,#187,.T.);
#82=PRESENTATION_STYLE_ASSIGNMENT((#188));
#83=VERTEX_POINT('',#189);
#84=PRESENTATION_STYLE_ASSIGNMENT((#190));
#85=VERTEX_POINT('',#191);
#86=PRESENTATION_STYLE_ASSIGNMENT((#192));
#87=VERTEX_POINT('',#193);
#88=PRESENTATION_STYLE_ASSIGNMENT((#194));
#89=ADVANCED_FACE('',(#195),#196,.T.);
#90=PRESENTATION_STYLE_ASSIGNMENT((#197));
#91=ADVANCED_FACE('',(#198),#199,.T.);
#92=PRESENTATION_STYLE_ASSIGNMENT((#200));
#93=VERTEX_POINT('',#201);
#94=PRESENTATION_STYLE_ASSIGNMENT((#202));
#95=VERTEX_POINT('',#203);
#96=PRESENTATION_STYLE_ASSIGNMENT((#204));
#97=EDGE_CURVE('',#95,#93,#205,.T.);
#98=PRESENTATION_STYLE_ASSIGNMENT((#206));
#99=EDGE_CURVE('',#85,#83,#207,.T.);
#100=PRESENTATION_STYLE_ASSIGNMENT((#208));
#101=EDGE_CURVE('',#141,#75,#209,.T.);
#102=PRESENTATION_STYLE_ASSIGNMENT((#210));
#103=ADVANCED_FACE('',(#211),#212,.T.);
#104=PRESENTATION_STYLE_ASSIGNMENT((#213));
#105=VERTEX_POINT('',#214);
#106=PRESENTATION_STYLE_ASSIGNMENT((#215));
#107=EDGE_CURVE('',#75,#141,#216,.T.);
#108=PRESENTATION_STYLE_ASSIGNMENT((#217));
#109=VERTEX_POINT('',#218);
#110=PRESENTATION_STYLE_ASSIGNMENT((#219));
#111=EDGE_CURVE('',#137,#93,#220,.T.);
#112=PRESENTATION_STYLE_ASSIGNMENT((#221));
#113=EDGE_CURVE('',#73,#109,#222,.T.);
#114=PRESENTATION_STYLE_ASSIGNMENT((#223));
#115=EDGE_CURVE('',#141,#137,#224,.T.);
#116=PRESENTATION_STYLE_ASSIGNMENT((#225));
#117=EDGE_CURVE('',#93,#95,#226,.T.);
#118=PRESENTATION_STYLE_ASSIGNMENT((#227));
#119=EDGE_CURVE('',#137,#87,#228,.T.);
#120=PRESENTATION_STYLE_ASSIGNMENT((#229));
#121=EDGE_CURVE('',#105,#145,#230,.T.);
#122=PRESENTATION_STYLE_ASSIGNMENT((#231));
#123=ADVANCED_FACE('',(#232),#233,.T.);
#124=PRESENTATION_STYLE_ASSIGNMENT((#234));
#125=ADVANCED_FACE('',(#235),#236,.T.);
#126=PRESENTATION_STYLE_ASSIGNMENT((#237));
#127=ADVANCED_FACE('',(#238),#239,.T.);
#128=PRESENTATION_STYLE_ASSIGNMENT((#240));
#129=ADVANCED_FACE('',(#241),#242,.T.);
#130=PRESENTATION_STYLE_ASSIGNMENT((#243));
#131=EDGE_CURVE('',#83,#85,#244,.T.);
#132=PRESENTATION_STYLE_ASSIGNMENT((#245));
#133=EDGE_CURVE('',#145,#85,#246,.T.);
#134=PRESENTATION_STYLE_ASSIGNMENT((#247));
#135=EDGE_CURVE('',#83,#105,#248,.T.);
#136=PRESENTATION_STYLE_ASSIGNMENT((#249));
#137=VERTEX_POINT('',#250);
#138=PRESENTATION_STYLE_ASSIGNMENT((#251));
#139=ADVANCED_FACE('',(#252),#253,.T.);
#140=PRESENTATION_STYLE_ASSIGNMENT((#254));
#141=VERTEX_POINT('',#255);
#142=PRESENTATION_STYLE_ASSIGNMENT((#256));
#143=EDGE_CURVE('',#95,#87,#257,.T.);
#144=PRESENTATION_STYLE_ASSIGNMENT((#258));
#145=VERTEX_POINT('',#259);
#146=PRESENTATION_STYLE_ASSIGNMENT((#260));
#147=EDGE_CURVE('',#109,#145,#261,.T.);
#148=PRESENTATION_STYLE_ASSIGNMENT((#262));
#149=EDGE_CURVE('',#109,#73,#263,.T.);
#150=PRESENTATION_STYLE_ASSIGNMENT((#264));
#151=ADVANCED_FACE('',(#265),#266,.T.);
#152=PRODUCT('1','1','PART-1-DESC',(#267));
#153=PRODUCT_DEFINITION('NONE','NONE',#268,#2);
#154=MANIFOLD_SOLID_BREP('1',#269);
#155=AXIS2_PLACEMENT_3D('',#270,#271,#272);
#158=LENGTH_MEASURE_WITH_UNIT(LENGTH_MEASURE(1.0),#273);
#161=DIMENSIONAL_EXPONENTS(1.0,0.0,0.0,0.0,0.0,0.0,0.0);
#163=DIMENSIONAL_EXPONENTS(0.0,0.0,0.0,0.0,0.0,0.0,0.0);
#169=SURFACE_STYLE_USAGE(.BOTH.,#274);
#170=FACE_OUTER_BOUND('',#275,.T.);
#171=CONICAL_SURFACE('',#276,1.9,0.197395559849881);
#172=CURVE_STYLE('',#277,POSITIVE_LENGTH_MEASURE(1.0E-006),#278);
#173=CIRCLE('',#279,3.0);
#174=SURFACE_STYLE_USAGE(.BOTH.,#280);
#175=FACE_BOUND('',#281,.T.);
#176=FACE_OUTER_BOUND('',#282,.T.);
#177=PLANE('',#283);
#178=POINT_STYLE(' ',#284,POSITIVE_LENGTH_MEASURE(1.0E-006),#285);
#179=CARTESIAN_POINT('',(1.8,-3.67381906146713E-016,-6.0));
#180=POINT_STYLE(' ',#286,POSITIVE_LENGTH_MEASURE(1.0E-006),#287);
#181=CARTESIAN_POINT('',(3.0,0.0,0.0));
#182=CURVE_STYLE('',#288,POSITIVE_LENGTH_MEASURE(1.0E-006),#289);
#183=LINE('',#290,#291);
#184=CURVE_STYLE('',#292,POSITIVE_LENGTH_MEASURE(1.0E-006),#293);
#185=CIRCLE('',#294,2.0);
#186=CURVE_STYLE('',#295,POSITIVE_LENGTH_MEASURE(1.0E-006),#296);
#187=LINE('',#297,#298);
#188=POINT_STYLE(' ',#299,POSITIVE_LENGTH_MEASURE(1.0E-006),#300);
#189=CARTESIAN_POINT('',(2.0,0.0,0.0));
#190=POINT_STYLE(' ',#301,POSITIVE_LENGTH_MEASURE(1.0E-006),#302);
#191=CARTESIAN_POINT('',(-2.0,-2.44921270764475E-016,1.49966072182214E-032));
#192=POINT_STYLE(' ',#303,POSITIVE_LENGTH_MEASURE(1.0E-006),#304);
#193=CARTESIAN_POINT('',(3.0,2.75536429610035E-016,4.5));
#194=SURFACE_STYLE_USAGE(.BOTH.,#305);
#195=FACE_OUTER_BOUND('',#306,.T.);
#196=CYLINDRICAL_SURFACE('',#307,3.0);
#197=SURFACE_STYLE_USAGE(.BOTH.,#308);
#198=FACE_OUTER_BOUND('',#309,.T.);
#199=PLANE('',#310);
#200=POINT_STYLE(' ',#311,POSITIVE_LENGTH_MEASURE(1.0E-006),#312);
#201=CARTESIAN_POINT('',(-2.5,0.0,5.0));
#202=POINT_STYLE(' ',#313,POSITIVE_LENGTH_MEASURE(1.0E-006),#314);
#203=CARTESIAN_POINT('',(2.5,3.06151588455594E-016,5.0));
#204=CURVE_STYLE('',#315,POSITIVE_LENGTH_MEASURE(1.0E-006),#316);
#205=CIRCLE('',#317,2.5);
#206=CURVE_STYLE('',#318,POSITIVE_LENGTH_MEASURE(1.0E-006),#319);
#207=CIRCLE('',#320,2.0);
#208=CURVE_STYLE('',#321,POSITIVE_LENGTH_MEASURE(1.0E-006),#322);
#209=CIRCLE('',#323,3.0);
#210=SURFACE_STYLE_USAGE(.BOTH.,#324);
#211=FACE_OUTER_BOUND('',#325,.T.);
#212=CONICAL_SURFACE('',#326,1.9,0.197395559849881);
#213=POINT_STYLE(' ',#327,POSITIVE_LENGTH_MEASURE(1.0E-006),#328);
#214=CARTESIAN_POINT('',(2.0,-3.06151588455594E-016,-5.0));
#215=CURVE_STYLE('',#329,POSITIVE_LENGTH_MEASURE(1.0E-006),#330);
#216=CIRCLE('',#331,3.0);
#217=POINT_STYLE(' ',#332,POSITIVE_LENGTH_MEASURE(1.0E-006),#333);
#218=CARTESIAN_POINT('',(-1.8,-5.87811049834741E-016,-6.0));
#219=CURVE_STYLE('',#334,POSITIVE_LENGTH_MEASURE(1.0E-006),#335);
#220=LINE('',#336,#337);
#221=CURVE_STYLE('',#338,POSITIVE_LENGTH_MEASURE(1.0E-006),#339);
#222=CIRCLE('',#340,1.8);
#223=CURVE_STYLE('',#341,POSITIVE_LENGTH_MEASURE(1.0E-006),#342);
#224=LINE('',#343,#344);
#225=CURVE_STYLE('',#345,POSITIVE_LENGTH_MEASURE(1.0E-006),#346);
#226=CIRCLE('',#347,2.5);
#227=CURVE_STYLE('',#348,POSITIVE_LENGTH_MEASURE(1.0E-006),#349);
#228=CIRCLE('',#350,3.0);
#229=CURVE_STYLE('',#351,POSITIVE_LENGTH_MEASURE(1.0E-006),#352);
#230=CIRCLE('',#353,2.0);
#231=SURFACE_STYLE_USAGE(.BOTH.,#354);
#232=FACE_OUTER_BOUND('',#355,.T.);
#233=CYLINDRICAL_SURFACE('',#356,2.0);
#234=SURFACE_STYLE_USAGE(.BOTH.,#357);
#235=FACE_OUTER_BOUND('',#358,.T.);
#236=CONICAL_SURFACE('',#359,2.75,0.785398163397448);
#237=SURFACE_STYLE_USAGE(.BOTH.,#360);
#238=FACE_OUTER_BOUND('',#361,.T.);
#239=CONICAL_SURFACE('',#362,2.75,0.785398163397448);
#240=SURFACE_STYLE_USAGE(.BOTH.,#363);
#241=FACE_OUTER_BOUND('',#364,.T.);
#242=CYLINDRICAL_SURFACE('',#365,3.0);
#243=CURVE_STYLE('',#366,POSITIVE_LENGTH_MEASURE(1.0E-006),#367);
#244=CIRCLE('',#368,2.0);
#245=CURVE_STYLE('',#369,POSITIVE_LENGTH_MEASURE(1.0E-006),#370);
#246=LINE('',#371,#372);
#247=CURVE_STYLE('',#373,POSITIVE_LENGTH_MEASURE(1.0E-006),#374);
#248=LINE('',#375,#376);
#249=POINT_STYLE(' ',#377,POSITIVE_LENGTH_MEASURE(1.0E-006),#378);
#250=CARTESIAN_POINT('',(-3.0,-9.18454765366783E-017,4.5));
#251=SURFACE_STYLE_USAGE(.BOTH.,#379);
#252=FACE_OUTER_BOUND('',#380,.T.);
#253=PLANE('',#381);
#254=POINT_STYLE(' ',#382,POSITIVE_LENGTH_MEASURE(1.0E-006),#383);
#255=CARTESIAN_POINT('',(-3.0,-3.67381906146713E-016,2.24949108273321E-032));
#256=CURVE_STYLE('',#384,POSITIVE_LENGTH_MEASURE(1.0E-006),#385);
#257=LINE('',#386,#387);
#258=POINT_STYLE(' ',#388,POSITIVE_LENGTH_MEASURE(1.0E-006),#389);
#259=CARTESIAN_POINT('',(-2.0,-5.5107285922007E-016,-5.0));
#260=CURVE_STYLE('',#390,POSITIVE_LENGTH_MEASURE(1.0E-006),#391);
#261=LINE('',#392,#393);
#262=CURVE_STYLE('',#394,POSITIVE_LENGTH_MEASURE(1.0E-006),#395);
#263=CIRCLE('',#396,1.8);
#264=SURFACE_STYLE_USAGE(.BOTH.,#397);
#265=FACE_OUTER_BOUND('',#398,.T.);
#266=CYLINDRICAL_SURFACE('',#399,2.0);
#267=PRODUCT_CONTEXT('',#53,'mechanical');
#268=PRODUCT_DEFINITION_FORMATION_WITH_SPECIFIED_SOURCE(' ','NONE',#152,.NOT_KNOWN.);
#269=CLOSED_SHELL('',(#67,#123,#89,#127,#139,#125,#129,#71,#151,#103,#91));
#270=CARTESIAN_POINT('',(0.0,0.0,0.0));
#271=DIRECTION('',(0.0,0.0,1.0));
#272=DIRECTION('',(1.0,0.0,0.0));
#273= (NAMED_UNIT(#161)LENGTH_UNIT()SI_UNIT(.MILLI.,.METRE.));
#274=SURFACE_SIDE_STYLE('',(#401));
#275=EDGE_LOOP('',(#402,#403,#404,#405));
#276=AXIS2_PLACEMENT_3D('',#406,#407,#408);
#277=DRAUGHTING_PRE_DEFINED_CURVE_FONT('continuous');
#278=COLOUR_RGB('',0.509803950786591,0.509803950786591,0.588235318660736);
#279=AXIS2_PLACEMENT_3D('',#409,#410,#411);
#280=SURFACE_SIDE_STYLE('',(#412));
#281=EDGE_LOOP('',(#413,#414));
#282=EDGE_LOOP('',(#415,#416));
#283=AXIS2_PLACEMENT_3D('',#417,#418,#419);
#284=PRE_DEFINED_MARKER('');
#285=COLOUR_RGB('',0.509803950786591,0.509803950786591,0.588235318660736);
#286=PRE_DEFINED_MARKER('');
#287=COLOUR_RGB('',0.509803950786591,0.509803950786591,0.588235318660736);
#288=DRAUGHTING_PRE_DEFINED_CURVE_FONT('continuous');
#289=COLOUR_RGB('',0.509803950786591,0.509803950786591,0.588235318660736);
#290=CARTESIAN_POINT('',(3.0,5.05150120951731E-016,2.25));
#291=VECTOR('',#420,1.0);
#292=DRAUGHTING_PRE_DEFINED_CURVE_FONT('continuous');
#293=COLOUR_RGB('',0.509803950786591,0.509803950786591,0.588235318660736);
#294=AXIS2_PLACEMENT_3D('',#421,#422,#423);
#295=DRAUGHTING_PRE_DEFINED_CURVE_FONT('continuous');
#296=COLOUR_RGB('',0.509803950786591,0.509803950786591,0.588235318660736);
#297=CARTESIAN_POINT('',(1.9,-1.04091540074902E-016,-5.5));
#298=VECTOR('',#424,1.0);
#299=PRE_DEFINED_MARKER('');
#300=COLOUR_RGB('',0.509803950786591,0.509803950786591,0.588235318660736);
#301=PRE_DEFINED_MARKER('');
#302=COLOUR_RGB('',0.509803950786591,0.509803950786591,0.588235318660736);
#303=PRE_DEFINED_MARKER('');
#304=COLOUR_RGB('',0.509803950786591,0.509803950786591,0.588235318660736);
#305=SURFACE_SIDE_STYLE('',(#425));
#306=EDGE_LOOP('',(#426,#427,#428,#429));
#307=AXIS2_PLACEMENT_3D('',#430,#431,#432);
#308=SURFACE_SIDE_STYLE('',(#433));
#309=EDGE_LOOP('',(#434,#435));
#310=AXIS2_PLACEMENT_3D('',#436,#437,#438);
#311=PRE_DEFINED_MARKER('');
#312=COLOUR_RGB('',0.509803950786591,0.509803950786591,0.588235318660736);
#313=PRE_DEFINED_MARKER('');
#314=COLOUR_RGB('',0.509803950786591,0.509803950786591,0.588235318660736);
#315=DRAUGHTING_PRE_DEFINED_CURVE_FONT('continuous');
#316=COLOUR_RGB('',0.509803950786591,0.509803950786591,0.588235318660736);
#317=AXIS2_PLACEMENT_3D('',#439,#440,#441);
#318=DRAUGHTING_PRE_DEFINED_CURVE_FONT('continuous');
#319=COLOUR_RGB('',0.509803950786591,0.509803950786591,0.588235318660736);
#320=AXIS2_PLACEMENT_3D('',#442,#443,#444);
#321=DRAUGHTING_PRE_DEFINED_CURVE_FONT('continuous');
#322=COLOUR_RGB('',0.509803950786591,0.509803950786591,0.588235318660736);
#323=AXIS2_PLACEMENT_3D('',#445,#446,#447);
#324=SURFACE_SIDE_STYLE('',(#448));
#325=EDGE_LOOP('',(#449,#450,#451,#452));
#326=AXIS2_PLACEMENT_3D('',#453,#454,#455);
#327=PRE_DEFINED_MARKER('');
#328=COLOUR_RGB('',0.509803950786591,0.509803950786591,0.588235318660736);
#329=DRAUGHTING_PRE_DEFINED_CURVE_FONT('continuous');
#330=COLOUR_RGB('',0.509803950786591,0.509803950786591,0.588235318660736);
#331=AXIS2_PLACEMENT_3D('',#456,#457,#458);
#332=PRE_DEFINED_MARKER('');
#333=COLOUR_RGB('',0.509803950786591,0.509803950786591,0.588235318660736);
#334=DRAUGHTING_PRE_DEFINED_CURVE_FONT('continuous');
#335=COLOUR_RGB('',0.509803950786591,0.509803950786591,0.588235318660736);
#336=CARTESIAN_POINT('',(-2.75,-4.59227382683391E-017,4.75));
#337=VECTOR('',#459,1.0);
#338=DRAUGHTING_PRE_DEFINED_CURVE_FONT('continuous');
#339=COLOUR_RGB('',0.509803950786591,0.509803950786591,0.588235318660736);
#340=AXIS2_PLACEMENT_3D('',#460,#461,#462);
#341=DRAUGHTING_PRE_DEFINED_CURVE_FONT('continuous');
#342=COLOUR_RGB('',0.509803950786591,0.509803950786591,0.588235318660736);
#343=CARTESIAN_POINT('',(-3.0,-2.29613691341696E-016,2.25));
#344=VECTOR('',#463,1.0);
#345=DRAUGHTING_PRE_DEFINED_CURVE_FONT('continuous');
#346=COLOUR_RGB('',0.509803950786591,0.509803950786591,0.588235318660736);
#347=AXIS2_PLACEMENT_3D('',#464,#465,#466);
#348=DRAUGHTING_PRE_DEFINED_CURVE_FONT('continuous');
#349=COLOUR_RGB('',0.509803950786591,0.509803950786591,0.588235318660736);
#350=AXIS2_PLACEMENT_3D('',#467,#468,#469);
#351=DRAUGHTING_PRE_DEFINED_CURVE_FONT('continuous');
#352=COLOUR_RGB('',0.509803950786591,0.509803950786591,0.588235318660736);
#353=AXIS2_PLACEMENT_3D('',#470,#471,#472);
#354=SURFACE_SIDE_STYLE('',(#473));
#355=EDGE_LOOP('',(#474,#475,#476,#477));
#356=AXIS2_PLACEMENT_3D('',#478,#479,#480);
#357=SURFACE_SIDE_STYLE('',(#481));
#358=EDGE_LOOP('',(#482,#483,#484,#485));
#359=AXIS2_PLACEMENT_3D('',#486,#487,#488);
#360=SURFACE_SIDE_STYLE('',(#489));
#361=EDGE_LOOP('',(#490,#491,#492,#493));
#362=AXIS2_PLACEMENT_3D('',#494,#495,#496);
#363=SURFACE_SIDE_STYLE('',(#497));
#364=EDGE_LOOP('',(#498,#499,#500,#501));
#365=AXIS2_PLACEMENT_3D('',#502,#503,#504);
#366=DRAUGHTING_PRE_DEFINED_CURVE_FONT('continuous');
#367=COLOUR_RGB('',0.509803950786591,0.509803950786591,0.588235318660736);
#368=AXIS2_PLACEMENT_3D('',#505,#506,#507);
#369=DRAUGHTING_PRE_DEFINED_CURVE_FONT('continuous');
#370=COLOUR_RGB('',0.509803950786591,0.509803950786591,0.588235318660736);
#371=CARTESIAN_POINT('',(-2.0,-3.97997064992273E-016,-2.5));
#372=VECTOR('',#508,1.0);
#373=DRAUGHTING_PRE_DEFINED_CURVE_FONT('continuous');
#374=COLOUR_RGB('',0.509803950786591,0.509803950786591,0.588235318660736);
#375=CARTESIAN_POINT('',(2.0,9.18454765366783E-017,-2.5));
#376=VECTOR('',#509,1.0);
#377=PRE_DEFINED_MARKER('');
#378=COLOUR_RGB('',0.509803950786591,0.509803950786591,0.588235318660736);
#379=SURFACE_SIDE_STYLE('',(#510));
#380=EDGE_LOOP('',(#511,#512));
#381=AXIS2_PLACEMENT_3D('',#513,#514,#515);
#382=PRE_DEFINED_MARKER('');
#383=COLOUR_RGB('',0.509803950786591,0.509803950786591,0.588235318660736);
#384=DRAUGHTING_PRE_DEFINED_CURVE_FONT('continuous');
#385=COLOUR_RGB('',0.509803950786591,0.509803950786591,0.588235318660736);
#386=CARTESIAN_POINT('',(2.75,6.27610756333968E-016,4.75));
#387=VECTOR('',#516,1.0);
#388=PRE_DEFINED_MARKER('');
#389=COLOUR_RGB('',0.509803950786591,0.509803950786591,0.588235318660736);
#390=DRAUGHTING_PRE_DEFINED_CURVE_FONT('continuous');
#391=COLOUR_RGB('',0.509803950786591,0.509803950786591,0.588235318660736);
#392=CARTESIAN_POINT('',(-1.9,-5.69441954527405E-016,-5.5));
#393=VECTOR('',#517,1.0);
#394=DRAUGHTING_PRE_DEFINED_CURVE_FONT('continuous');
#395=COLOUR_RGB('',0.509803950786591,0.509803950786591,0.588235318660736);
#396=AXIS2_PLACEMENT_3D('',#518,#519,#520);
#397=SURFACE_SIDE_STYLE('',(#521));
#398=EDGE_LOOP('',(#522,#523,#524,#525));
#399=AXIS2_PLACEMENT_3D('',#526,#527,#528);
#401=SURFACE_STYLE_FILL_AREA(#529);
#402=ORIENTED_EDGE('',*,*,#81,.F.);
#403=ORIENTED_EDGE('',*,*,#121,.T.);
#404=ORIENTED_EDGE('',*,*,#147,.F.);
#405=ORIENTED_EDGE('',*,*,#113,.F.);
#406=CARTESIAN_POINT('',(0.0,-3.36766747301154E-016,-5.5));
#407=DIRECTION('',(-0.0,6.12303176911189E-017,1.0));
#408=DIRECTION('',(1.0,0.0,0.0));
#409=CARTESIAN_POINT('',(0.0,2.75536429610035E-016,4.5));
#410=DIRECTION('',(0.0,-6.12303176911189E-017,-1.0));
#411=DIRECTION('',(1.0,0.0,0.0));
#412=SURFACE_STYLE_FILL_AREA(#530);
#413=ORIENTED_EDGE('',*,*,#131,.F.);
#414=ORIENTED_EDGE('',*,*,#99,.F.);
#415=ORIENTED_EDGE('',*,*,#107,.T.);
#416=ORIENTED_EDGE('',*,*,#101,.T.);
#417=CARTESIAN_POINT('',(2.5,0.0,0.0));
#418=DIRECTION('',(0.0,-6.12303176911189E-017,-1.0));
#419=DIRECTION('',(1.0,0.0,0.0));
#420=DIRECTION('',(0.0,-6.12303176911189E-017,-1.0));
#421=CARTESIAN_POINT('',(0.0,-3.06151588455594E-016,-5.0));
#422=DIRECTION('',(0.0,-6.12303176911189E-017,-1.0));
#423=DIRECTION('',(1.0,0.0,0.0));
#424=DIRECTION('',(-0.196116135138184,-8.40577728120578E-017,-0.98058067569092));
#425=SURFACE_STYLE_FILL_AREA(#531);
#426=ORIENTED_EDGE('',*,*,#77,.F.);
#427=ORIENTED_EDGE('',*,*,#69,.T.);
#428=ORIENTED_EDGE('',*,*,#115,.F.);
#429=ORIENTED_EDGE('',*,*,#107,.F.);
#430=CARTESIAN_POINT('',(0.0,1.37768214805017E-016,2.25));
#431=DIRECTION('',(-0.0,6.12303176911189E-017,1.0));
#432=DIRECTION('',(1.0,0.0,0.0));
#433=SURFACE_STYLE_FILL_AREA(#532);
#434=ORIENTED_EDGE('',*,*,#113,.T.);
#435=ORIENTED_EDGE('',*,*,#149,.T.);
#436=CARTESIAN_POINT('',(0.9,-3.67381906146713E-016,-6.0));
#437=DIRECTION('',(0.0,-6.12303176911189E-017,-1.0));
#438=DIRECTION('',(1.0,0.0,0.0));
#439=CARTESIAN_POINT('',(0.0,3.06151588455594E-016,5.0));
#440=DIRECTION('',(0.0,-6.12303176911189E-017,-1.0));
#441=DIRECTION('',(1.0,0.0,0.0));
#442=CARTESIAN_POINT('',(0.0,0.0,0.0));
#443=DIRECTION('',(0.0,-6.12303176911189E-017,-1.0));
#444=DIRECTION('',(1.0,0.0,0.0));
#445=CARTESIAN_POINT('',(0.0,0.0,0.0));
#446=DIRECTION('',(0.0,-6.12303176911189E-017,-1.0));
#447=DIRECTION('',(1.0,0.0,0.0));
#448=SURFACE_STYLE_FILL_AREA(#533);
#449=ORIENTED_EDGE('',*,*,#81,.T.);
#450=ORIENTED_EDGE('',*,*,#149,.F.);
#451=ORIENTED_EDGE('',*,*,#147,.T.);
#452=ORIENTED_EDGE('',*,*,#79,.T.);
#453=CARTESIAN_POINT('',(0.0,-3.36766747301154E-016,-5.5));
#454=DIRECTION('',(-0.0,6.12303176911189E-017,1.0));
#455=DIRECTION('',(1.0,0.0,0.0));
#456=CARTESIAN_POINT('',(0.0,0.0,0.0));
#457=DIRECTION('',(0.0,-6.12303176911189E-017,-1.0));
#458=DIRECTION('',(1.0,0.0,0.0));
#459=DIRECTION('',(0.707106781186548,1.2988911856079E-016,0.707106781186548));
#460=CARTESIAN_POINT('',(0.0,-3.67381906146713E-016,-6.0));
#461=DIRECTION('',(0.0,-6.12303176911189E-017,-1.0));
#462=DIRECTION('',(1.0,0.0,0.0));
#463=DIRECTION('',(-0.0,6.12303176911189E-017,1.0));
#464=CARTESIAN_POINT('',(0.0,3.06151588455594E-016,5.0));
#465=DIRECTION('',(0.0,-6.12303176911189E-017,-1.0));
#466=DIRECTION('',(1.0,0.0,0.0));
#467=CARTESIAN_POINT('',(0.0,2.75536429610035E-016,4.5));
#468=DIRECTION('',(0.0,-6.12303176911189E-017,-1.0));
#469=DIRECTION('',(1.0,0.0,0.0));
#470=CARTESIAN_POINT('',(0.0,-3.06151588455594E-016,-5.0));
#471=DIRECTION('',(0.0,-6.12303176911189E-017,-1.0));
#472=DIRECTION('',(1.0,0.0,0.0));
#473=SURFACE_STYLE_FILL_AREA(#534);
#474=ORIENTED_EDGE('',*,*,#135,.F.);
#475=ORIENTED_EDGE('',*,*,#131,.T.);
#476=ORIENTED_EDGE('',*,*,#133,.F.);
#477=ORIENTED_EDGE('',*,*,#121,.F.);
#478=CARTESIAN_POINT('',(0.0,-1.53075794227797E-016,-2.5));
#479=DIRECTION('',(-0.0,6.12303176911189E-017,1.0));
#480=DIRECTION('',(1.0,0.0,0.0));
#481=SURFACE_STYLE_FILL_AREA(#535);
#482=ORIENTED_EDGE('',*,*,#143,.T.);
#483=ORIENTED_EDGE('',*,*,#119,.F.);
#484=ORIENTED_EDGE('',*,*,#111,.T.);
#485=ORIENTED_EDGE('',*,*,#117,.T.);
#486=CARTESIAN_POINT('',(0.0,2.90844009032815E-016,4.75));
#487=DIRECTION('',(0.0,-6.12303176911189E-017,-1.0));
#488=DIRECTION('',(1.0,0.0,0.0));
#489=SURFACE_STYLE_FILL_AREA(#536);
#490=ORIENTED_EDGE('',*,*,#143,.F.);
#491=ORIENTED_EDGE('',*,*,#97,.T.);
#492=ORIENTED_EDGE('',*,*,#111,.F.);
#493=ORIENTED_EDGE('',*,*,#69,.F.);
#494=CARTESIAN_POINT('',(0.0,2.90844009032815E-016,4.75));
#495=DIRECTION('',(0.0,-6.12303176911189E-017,-1.0));
#496=DIRECTION('',(1.0,0.0,0.0));
#497=SURFACE_STYLE_FILL_AREA(#537);
#498=ORIENTED_EDGE('',*,*,#77,.T.);
#499=ORIENTED_EDGE('',*,*,#101,.F.);
#500=ORIENTED_EDGE('',*,*,#115,.T.);
#501=ORIENTED_EDGE('',*,*,#119,.T.);
#502=CARTESIAN_POINT('',(0.0,1.37768214805017E-016,2.25));
#503=DIRECTION('',(-0.0,6.12303176911189E-017,1.0));
#504=DIRECTION('',(1.0,0.0,0.0));
#505=CARTESIAN_POINT('',(0.0,0.0,0.0));
#506=DIRECTION('',(0.0,-6.12303176911189E-017,-1.0));
#507=DIRECTION('',(1.0,0.0,0.0));
#508=DIRECTION('',(-0.0,6.12303176911189E-017,1.0));
#509=DIRECTION('',(0.0,-6.12303176911189E-017,-1.0));
#510=SURFACE_STYLE_FILL_AREA(#538);
#511=ORIENTED_EDGE('',*,*,#97,.F.);
#512=ORIENTED_EDGE('',*,*,#117,.F.);
#513=CARTESIAN_POINT('',(1.25,3.06151588455594E-016,5.0));
#514=DIRECTION('',(0.0,6.12303176911189E-017,1.0));
#515=DIRECTION('',(-1.0,0.0,0.0));
#516=DIRECTION('',(0.707106781186548,4.32963728535968E-017,-0.707106781186548));
#517=DIRECTION('',(-0.196116135138184,3.60247597765962E-017,0.98058067569092));
#518=CARTESIAN_POINT('',(0.0,-3.67381906146713E-016,-6.0));
#519=DIRECTION('',(0.0,-6.12303176911189E-017,-1.0));
#520=DIRECTION('',(1.0,0.0,0.0));
#521=SURFACE_STYLE_FILL_AREA(#539);
#522=ORIENTED_EDGE('',*,*,#135,.T.);
#523=ORIENTED_EDGE('',*,*,#79,.F.);
#524=ORIENTED_EDGE('',*,*,#133,.T.);
#525=ORIENTED_EDGE('',*,*,#99,.T.);
#526=CARTESIAN_POINT('',(0.0,-1.53075794227797E-016,-2.5));
#527=DIRECTION('',(-0.0,6.12303176911189E-017,1.0));
#528=DIRECTION('',(1.0,0.0,0.0));
#529=FILL_AREA_STYLE('',(#540));
#530=FILL_AREA_STYLE('',(#541));
#531=FILL_AREA_STYLE('',(#542));
#532=FILL_AREA_STYLE('',(#543));
#533=FILL_AREA_STYLE('',(#544));
#534=FILL_AREA_STYLE('',(#545));
#535=FILL_AREA_STYLE('',(#546));
#536=FILL_AREA_STYLE('',(#547));
#537=FILL_AREA_STYLE('',(#548));
#538=FILL_AREA_STYLE('',(#549));
#539=FILL_AREA_STYLE('',(#550));
#540=FILL_AREA_STYLE_COLOUR('',#551);
#541=FILL_AREA_STYLE_COLOUR('',#552);
#542=FILL_AREA_STYLE_COLOUR('',#553);
#543=FILL_AREA_STYLE_COLOUR('',#554);
#544=FILL_AREA_STYLE_COLOUR('',#555);
#545=FILL_AREA_STYLE_COLOUR('',#556);
#546=FILL_AREA_STYLE_COLOUR('',#557);
#547=FILL_AREA_STYLE_COLOUR('',#558);
#548=FILL_AREA_STYLE_COLOUR('',#559);
#549=FILL_AREA_STYLE_COLOUR('',#560);
#550=FILL_AREA_STYLE_COLOUR('',#561);
#551=COLOUR_RGB('',0.509803950786591,0.509803950786591,0.588235318660736);
#552=COLOUR_RGB('',0.509803950786591,0.509803950786591,0.588235318660736);
#553=COLOUR_RGB('',0.509803950786591,0.509803950786591,0.588235318660736);
#554=COLOUR_RGB('',0.509803950786591,0.509803950786591,0.588235318660736);
#555=COLOUR_RGB('',0.509803950786591,0.509803950786591,0.588235318660736);
#556=COLOUR_RGB('',0.509803950786591,0.509803950786591,0.588235318660736);
#557=COLOUR_RGB('',0.509803950786591,0.509803950786591,0.588235318660736);
#558=COLOUR_RGB('',0.509803950786591,0.509803950786591,0.588235318660736);
#559=COLOUR_RGB('',0.509803950786591,0.509803950786591,0.588235318660736);
#560=COLOUR_RGB('',0.509803950786591,0.509803950786591,0.588235318660736);
#561=COLOUR_RGB('',0.509803950786591,0.509803950786591,0.588235318660736);
ENDSEC;
END-ISO-10303-21;
