ISO-10303-21;
HEADER;
FILE_DESCRIPTION(('STEP AP214'),'1');
FILE_NAME(' ','  ',('TraceParts'),('TraceParts S.A.'),'XStep 1.0',' ',' ');
FILE_SCHEMA(('automotive_design'));
ENDSEC;
DATA;
#1=MECHANICAL_DESIGN_GEOMETRIC_PRESENTATION_REPRESENTATION(' ',(#10,#11,#12,#13,#14,#15,#16,#17,#18,#19,#20,#21,#22,#23,#24,#25,#26,#27,#28,#29,#30,#31,#32,#33,#34,#35,#36,#37,#38,#39,#40,#41,#42,#43,#44,#45,#46,#47,#48,#49,#50,#51,#52),#6);
#2=PRODUCT_DEFINITION_CONTEXT('',#53,'design');
#3=APPLICATION_PROTOCOL_DEFINITION('INTERNATIONAL STANDARD','automotive_design',1994,#53);
#4=PRODUCT_CATEGORY_RELATIONSHIP('NONE','NONE',#54,#55);
#5=SHAPE_DEFINITION_REPRESENTATION(#56,#57);
#6= (GEOMETRIC_REPRESENTATION_CONTEXT(3)GLOBAL_UNCERTAINTY_ASSIGNED_CONTEXT((#60))GLOBAL_UNIT_ASSIGNED_CONTEXT((#62,#63,#64))REPRESENTATION_CONTEXT('NONE','WORKSPACE'));
#10=STYLED_ITEM('',(#66),#67);
#11=STYLED_ITEM('',(#68),#69);
#12=STYLED_ITEM('',(#70),#71);
#13=STYLED_ITEM('',(#72),#73);
#14=STYLED_ITEM('',(#74),#75);
#15=STYLED_ITEM('',(#76),#77);
#16=STYLED_ITEM('',(#78),#79);
#17=STYLED_ITEM('',(#80),#81);
#18=STYLED_ITEM('',(#82),#83);
#19=STYLED_ITEM('',(#84),#85);
#20=STYLED_ITEM('',(#86),#87);
#21=STYLED_ITEM('',(#88),#89);
#22=STYLED_ITEM('',(#90),#91);
#23=STYLED_ITEM('',(#92),#93);
#24=STYLED_ITEM('',(#94),#95);
#25=STYLED_ITEM('',(#96),#97);
#26=STYLED_ITEM('',(#98),#99);
#27=STYLED_ITEM('',(#100),#101);
#28=STYLED_ITEM('',(#102),#103);
#29=STYLED_ITEM('',(#104),#105);
#30=STYLED_ITEM('',(#106),#107);
#31=STYLED_ITEM('',(#108),#109);
#32=STYLED_ITEM('',(#110),#111);
#33=STYLED_ITEM('',(#112),#113);
#34=STYLED_ITEM('',(#114),#115);
#35=STYLED_ITEM('',(#116),#117);
#36=STYLED_ITEM('',(#118),#119);
#37=STYLED_ITEM('',(#120),#121);
#38=STYLED_ITEM('',(#122),#123);
#39=STYLED_ITEM('',(#124),#125);
#40=STYLED_ITEM('',(#126),#127);
#41=STYLED_ITEM('',(#128),#129);
#42=STYLED_ITEM('',(#130),#131);
#43=STYLED_ITEM('',(#132),#133);
#44=STYLED_ITEM('',(#134),#135);
#45=STYLED_ITEM('',(#136),#137);
#46=STYLED_ITEM('',(#138),#139);
#47=STYLED_ITEM('',(#140),#141);
#48=STYLED_ITEM('',(#142),#143);
#49=STYLED_ITEM('',(#144),#145);
#50=STYLED_ITEM('',(#146),#147);
#51=STYLED_ITEM('',(#148),#149);
#52=STYLED_ITEM('',(#150),#151);
#53=APPLICATION_CONTEXT(' ');
#54=PRODUCT_CATEGORY('part','NONE');
#55=PRODUCT_RELATED_PRODUCT_CATEGORY('detail',' ',(#152));
#56=PRODUCT_DEFINITION_SHAPE('NONE','NONE',#153);
#57=ADVANCED_BREP_SHAPE_REPRESENTATION('1',(#154,#155),#6);
#60=UNCERTAINTY_MEASURE_WITH_UNIT(LENGTH_MEASURE(1.0E-006),#62,'','');
#62= (CONVERSION_BASED_UNIT('MILLIMETRE',#158)LENGTH_UNIT()NAMED_UNIT(#161));
#63= (NAMED_UNIT(#163)PLANE_ANGLE_UNIT()SI_UNIT($,.RADIAN.));
#64= (NAMED_UNIT(#163)SOLID_ANGLE_UNIT()SI_UNIT($,.STERADIAN.));
#66=PRESENTATION_STYLE_ASSIGNMENT((#169));
#67=EDGE_CURVE('',#103,#115,#170,.T.);
#68=PRESENTATION_STYLE_ASSIGNMENT((#171));
#69=EDGE_CURVE('',#133,#151,#172,.T.);
#70=PRESENTATION_STYLE_ASSIGNMENT((#173));
#71=ADVANCED_FACE('',(#174),#175,.T.);
#72=PRESENTATION_STYLE_ASSIGNMENT((#176));
#73=EDGE_CURVE('',#131,#103,#177,.T.);
#74=PRESENTATION_STYLE_ASSIGNMENT((#178));
#75=ADVANCED_FACE('',(#179),#180,.T.);
#76=PRESENTATION_STYLE_ASSIGNMENT((#181));
#77=VERTEX_POINT('',#182);
#78=PRESENTATION_STYLE_ASSIGNMENT((#183));
#79=VERTEX_POINT('',#184);
#80=PRESENTATION_STYLE_ASSIGNMENT((#185));
#81=ADVANCED_FACE('',(#186),#187,.T.);
#82=PRESENTATION_STYLE_ASSIGNMENT((#188));
#83=EDGE_CURVE('',#115,#103,#189,.T.);
#84=PRESENTATION_STYLE_ASSIGNMENT((#190));
#85=ADVANCED_FACE('',(#191),#192,.T.);
#86=PRESENTATION_STYLE_ASSIGNMENT((#193));
#87=EDGE_CURVE('',#79,#107,#194,.T.);
#88=PRESENTATION_STYLE_ASSIGNMENT((#195));
#89=ADVANCED_FACE('',(#196),#197,.T.);
#90=PRESENTATION_STYLE_ASSIGNMENT((#198));
#91=VERTEX_POINT('',#199);
#92=PRESENTATION_STYLE_ASSIGNMENT((#200));
#93=ADVANCED_FACE('',(#201),#202,.T.);
#94=PRESENTATION_STYLE_ASSIGNMENT((#203));
#95=VERTEX_POINT('',#204);
#96=PRESENTATION_STYLE_ASSIGNMENT((#205));
#97=EDGE_CURVE('',#95,#113,#206,.T.);
#98=PRESENTATION_STYLE_ASSIGNMENT((#207));
#99=EDGE_CURVE('',#95,#119,#208,.T.);
#100=PRESENTATION_STYLE_ASSIGNMENT((#209));
#101=EDGE_CURVE('',#119,#107,#210,.T.);
#102=PRESENTATION_STYLE_ASSIGNMENT((#211));
#103=VERTEX_POINT('',#212);
#104=PRESENTATION_STYLE_ASSIGNMENT((#213));
#105=ADVANCED_FACE('',(#214),#215,.T.);
#106=PRESENTATION_STYLE_ASSIGNMENT((#216));
#107=VERTEX_POINT('',#217);
#108=PRESENTATION_STYLE_ASSIGNMENT((#218));
#109=EDGE_CURVE('',#115,#77,#219,.T.);
#110=PRESENTATION_STYLE_ASSIGNMENT((#220));
#111=EDGE_CURVE('',#107,#113,#221,.T.);
#112=PRESENTATION_STYLE_ASSIGNMENT((#222));
#113=VERTEX_POINT('',#223);
#114=PRESENTATION_STYLE_ASSIGNMENT((#224));
#115=VERTEX_POINT('',#225);
#116=PRESENTATION_STYLE_ASSIGNMENT((#226));
#117=EDGE_CURVE('',#131,#77,#227,.T.);
#118=PRESENTATION_STYLE_ASSIGNMENT((#228));
#119=VERTEX_POINT('',#229);
#120=PRESENTATION_STYLE_ASSIGNMENT((#230));
#121=EDGE_CURVE('',#151,#133,#231,.T.);
#122=PRESENTATION_STYLE_ASSIGNMENT((#232));
#123=EDGE_CURVE('',#113,#95,#233,.T.);
#124=PRESENTATION_STYLE_ASSIGNMENT((#234));
#125=EDGE_CURVE('',#133,#131,#235,.T.);
#126=PRESENTATION_STYLE_ASSIGNMENT((#236));
#127=ADVANCED_FACE('',(#237),#238,.T.);
#128=PRESENTATION_STYLE_ASSIGNMENT((#239));
#129=EDGE_CURVE('',#79,#91,#240,.T.);
#130=PRESENTATION_STYLE_ASSIGNMENT((#241));
#131=VERTEX_POINT('',#242);
#132=PRESENTATION_STYLE_ASSIGNMENT((#243));
#133=VERTEX_POINT('',#244);
#134=PRESENTATION_STYLE_ASSIGNMENT((#245));
#135=EDGE_CURVE('',#119,#91,#246,.T.);
#136=PRESENTATION_STYLE_ASSIGNMENT((#247));
#137=ADVANCED_FACE('',(#248,#249),#250,.T.);
#138=PRESENTATION_STYLE_ASSIGNMENT((#251));
#139=EDGE_CURVE('',#77,#131,#252,.T.);
#140=PRESENTATION_STYLE_ASSIGNMENT((#253));
#141=EDGE_CURVE('',#91,#79,#254,.T.);
#142=PRESENTATION_STYLE_ASSIGNMENT((#255));
#143=ADVANCED_FACE('',(#256),#257,.T.);
#144=PRESENTATION_STYLE_ASSIGNMENT((#258));
#145=ADVANCED_FACE('',(#259),#260,.T.);
#146=PRESENTATION_STYLE_ASSIGNMENT((#261));
#147=EDGE_CURVE('',#107,#119,#262,.T.);
#148=PRESENTATION_STYLE_ASSIGNMENT((#263));
#149=EDGE_CURVE('',#77,#151,#264,.T.);
#150=PRESENTATION_STYLE_ASSIGNMENT((#265));
#151=VERTEX_POINT('',#266);
#152=PRODUCT('1','1','PART-1-DESC',(#267));
#153=PRODUCT_DEFINITION('NONE','NONE',#268,#2);
#154=MANIFOLD_SOLID_BREP('1',#269);
#155=AXIS2_PLACEMENT_3D('',#270,#271,#272);
#158=LENGTH_MEASURE_WITH_UNIT(LENGTH_MEASURE(1.0),#273);
#161=DIMENSIONAL_EXPONENTS(1.0,0.0,0.0,0.0,0.0,0.0,0.0);
#163=DIMENSIONAL_EXPONENTS(0.0,0.0,0.0,0.0,0.0,0.0,0.0);
#169=CURVE_STYLE('',#274,POSITIVE_LENGTH_MEASURE(1.0E-006),#275);
#170=CIRCLE('',#276,4.2);
#171=CURVE_STYLE('',#277,POSITIVE_LENGTH_MEASURE(1.0E-006),#278);
#172=CIRCLE('',#279,5.0);
#173=SURFACE_STYLE_USAGE(.BOTH.,#280);
#174=FACE_OUTER_BOUND('',#281,.T.);
#175=CONICAL_SURFACE('',#282,2.85,0.197395559849881);
#176=CURVE_STYLE('',#283,POSITIVE_LENGTH_MEASURE(1.0E-006),#284);
#177=LINE('',#285,#286);
#178=SURFACE_STYLE_USAGE(.BOTH.,#287);
#179=FACE_OUTER_BOUND('',#288,.T.);
#180=PLANE('',#289);
#181=POINT_STYLE(' ',#290,POSITIVE_LENGTH_MEASURE(1.0E-006),#291);
#182=CARTESIAN_POINT('',(5.0,4.40858287376056E-016,7.2));
#183=POINT_STYLE(' ',#292,POSITIVE_LENGTH_MEASURE(1.0E-006),#293);
#184=CARTESIAN_POINT('',(-2.7,-8.20486257060993E-016,-8.0));
#185=SURFACE_STYLE_USAGE(.BOTH.,#294);
#186=FACE_OUTER_BOUND('',#295,.T.);
#187=CONICAL_SURFACE('',#296,4.6,0.785398163397448);
#188=CURVE_STYLE('',#297,POSITIVE_LENGTH_MEASURE(1.0E-006),#298);
#189=CIRCLE('',#299,4.2);
#190=SURFACE_STYLE_USAGE(.BOTH.,#300);
#191=FACE_OUTER_BOUND('',#301,.T.);
#192=PLANE('',#302);
#193=CURVE_STYLE('',#303,POSITIVE_LENGTH_MEASURE(1.0E-006),#304);
#194=LINE('',#305,#306);
#195=SURFACE_STYLE_USAGE(.BOTH.,#307);
#196=FACE_OUTER_BOUND('',#308,.T.);
#197=CYLINDRICAL_SURFACE('',#309,3.0);
#198=POINT_STYLE(' ',#310,POSITIVE_LENGTH_MEASURE(1.0E-006),#311);
#199=CARTESIAN_POINT('',(2.7,-4.89842541528951E-016,-8.0));
#200=SURFACE_STYLE_USAGE(.BOTH.,#312);
#201=FACE_OUTER_BOUND('',#313,.T.);
#202=CYLINDRICAL_SURFACE('',#314,5.0);
#203=POINT_STYLE(' ',#315,POSITIVE_LENGTH_MEASURE(1.0E-006),#316);
#204=CARTESIAN_POINT('',(3.0,0.0,0.0));
#205=CURVE_STYLE('',#317,POSITIVE_LENGTH_MEASURE(1.0E-006),#318);
#206=CIRCLE('',#319,3.0);
#207=CURVE_STYLE('',#320,POSITIVE_LENGTH_MEASURE(1.0E-006),#321);
#208=LINE('',#322,#323);
#209=CURVE_STYLE('',#324,POSITIVE_LENGTH_MEASURE(1.0E-006),#325);
#210=CIRCLE('',#326,3.0);
#211=POINT_STYLE(' ',#327,POSITIVE_LENGTH_MEASURE(1.0E-006),#328);
#212=CARTESIAN_POINT('',(-4.2,-2.44921270764478E-017,8.0));
#213=SURFACE_STYLE_USAGE(.BOTH.,#329);
#214=FACE_OUTER_BOUND('',#330,.T.);
#215=CONICAL_SURFACE('',#331,4.6,0.785398163397448);
#216=POINT_STYLE(' ',#332,POSITIVE_LENGTH_MEASURE(1.0E-006),#333);
#217=CARTESIAN_POINT('',(-3.0,-7.65378971138986E-016,-6.5));
#218=CURVE_STYLE('',#334,POSITIVE_LENGTH_MEASURE(1.0E-006),#335);
#219=LINE('',#336,#337);
#220=CURVE_STYLE('',#338,POSITIVE_LENGTH_MEASURE(1.0E-006),#339);
#221=LINE('',#340,#341);
#222=POINT_STYLE(' ',#342,POSITIVE_LENGTH_MEASURE(1.0E-006),#343);
#223=CARTESIAN_POINT('',(-3.0,-3.67381906146713E-016,2.24949108273321E-032));
#224=POINT_STYLE(' ',#344,POSITIVE_LENGTH_MEASURE(1.0E-006),#345);
#225=CARTESIAN_POINT('',(4.2,4.89842541528951E-016,8.0));
#226=CURVE_STYLE('',#346,POSITIVE_LENGTH_MEASURE(1.0E-006),#347);
#227=CIRCLE('',#348,5.0);
#228=POINT_STYLE(' ',#349,POSITIVE_LENGTH_MEASURE(1.0E-006),#350);
#229=CARTESIAN_POINT('',(3.0,-3.97997064992273E-016,-6.5));
#230=CURVE_STYLE('',#351,POSITIVE_LENGTH_MEASURE(1.0E-006),#352);
#231=CIRCLE('',#353,5.0);
#232=CURVE_STYLE('',#354,POSITIVE_LENGTH_MEASURE(1.0E-006),#355);
#233=CIRCLE('',#356,3.0);
#234=CURVE_STYLE('',#357,POSITIVE_LENGTH_MEASURE(1.0E-006),#358);
#235=LINE('',#359,#360);
#236=SURFACE_STYLE_USAGE(.BOTH.,#361);
#237=FACE_OUTER_BOUND('',#362,.T.);
#238=CONICAL_SURFACE('',#363,2.85,0.197395559849881);
#239=CURVE_STYLE('',#364,POSITIVE_LENGTH_MEASURE(1.0E-006),#365);
#240=CIRCLE('',#366,2.7);
#241=POINT_STYLE(' ',#367,POSITIVE_LENGTH_MEASURE(1.0E-006),#368);
#242=CARTESIAN_POINT('',(-5.0,-1.71444889535133E-016,7.2));
#243=POINT_STYLE(' ',#369,POSITIVE_LENGTH_MEASURE(1.0E-006),#370);
#244=CARTESIAN_POINT('',(-5.0,-6.12303176911189E-016,3.74915180455534E-032));
#245=CURVE_STYLE('',#371,POSITIVE_LENGTH_MEASURE(1.0E-006),#372);
#246=LINE('',#373,#374);
#247=SURFACE_STYLE_USAGE(.BOTH.,#375);
#248=FACE_BOUND('',#376,.T.);
#249=FACE_OUTER_BOUND('',#377,.T.);
#250=PLANE('',#378);
#251=CURVE_STYLE('',#379,POSITIVE_LENGTH_MEASURE(1.0E-006),#380);
#252=CIRCLE('',#381,5.0);
#253=CURVE_STYLE('',#382,POSITIVE_LENGTH_MEASURE(1.0E-006),#383);
#254=CIRCLE('',#384,2.7);
#255=SURFACE_STYLE_USAGE(.BOTH.,#385);
#256=FACE_OUTER_BOUND('',#386,.T.);
#257=CYLINDRICAL_SURFACE('',#387,5.0);
#258=SURFACE_STYLE_USAGE(.BOTH.,#388);
#259=FACE_OUTER_BOUND('',#389,.T.);
#260=CYLINDRICAL_SURFACE('',#390,3.0);
#261=CURVE_STYLE('',#391,POSITIVE_LENGTH_MEASURE(1.0E-006),#392);
#262=CIRCLE('',#393,3.0);
#263=CURVE_STYLE('',#394,POSITIVE_LENGTH_MEASURE(1.0E-006),#395);
#264=LINE('',#396,#397);
#265=POINT_STYLE(' ',#398,POSITIVE_LENGTH_MEASURE(1.0E-006),#399);
#266=CARTESIAN_POINT('',(5.0,0.0,0.0));
#267=PRODUCT_CONTEXT('',#53,'mechanical');
#268=PRODUCT_DEFINITION_FORMATION_WITH_SPECIFIED_SOURCE(' ','NONE',#152,.NOT_KNOWN.);
#269=CLOSED_SHELL('',(#127,#89,#143,#105,#85,#81,#93,#137,#145,#71,#75));
#270=CARTESIAN_POINT('',(0.0,0.0,0.0));
#271=DIRECTION('',(0.0,0.0,1.0));
#272=DIRECTION('',(1.0,0.0,0.0));
#273= (NAMED_UNIT(#161)LENGTH_UNIT()SI_UNIT(.MILLI.,.METRE.));
#274=DRAUGHTING_PRE_DEFINED_CURVE_FONT('continuous');
#275=COLOUR_RGB('',0.509803950786591,0.509803950786591,0.588235318660736);
#276=AXIS2_PLACEMENT_3D('',#401,#402,#403);
#277=DRAUGHTING_PRE_DEFINED_CURVE_FONT('continuous');
#278=COLOUR_RGB('',0.509803950786591,0.509803950786591,0.588235318660736);
#279=AXIS2_PLACEMENT_3D('',#404,#405,#406);
#280=SURFACE_SIDE_STYLE('',(#407));
#281=EDGE_LOOP('',(#408,#409,#410,#411));
#282=AXIS2_PLACEMENT_3D('',#412,#413,#414);
#283=DRAUGHTING_PRE_DEFINED_CURVE_FONT('continuous');
#284=COLOUR_RGB('',0.509803950786591,0.509803950786591,0.588235318660736);
#285=CARTESIAN_POINT('',(-4.6,-9.79685083057903E-017,7.6));
#286=VECTOR('',#415,1.0);
#287=SURFACE_SIDE_STYLE('',(#416));
#288=EDGE_LOOP('',(#417,#418));
#289=AXIS2_PLACEMENT_3D('',#419,#420,#421);
#290=PRE_DEFINED_MARKER('');
#291=COLOUR_RGB('',0.509803950786591,0.509803950786591,0.588235318660736);
#292=PRE_DEFINED_MARKER('');
#293=COLOUR_RGB('',0.509803950786591,0.509803950786591,0.588235318660736);
#294=SURFACE_SIDE_STYLE('',(#422));
#295=EDGE_LOOP('',(#423,#424,#425,#426));
#296=AXIS2_PLACEMENT_3D('',#427,#428,#429);
#297=DRAUGHTING_PRE_DEFINED_CURVE_FONT('continuous');
#298=COLOUR_RGB('',0.509803950786591,0.509803950786591,0.588235318660736);
#299=AXIS2_PLACEMENT_3D('',#430,#431,#432);
#300=SURFACE_SIDE_STYLE('',(#433));
#301=EDGE_LOOP('',(#434,#435));
#302=AXIS2_PLACEMENT_3D('',#436,#437,#438);
#303=DRAUGHTING_PRE_DEFINED_CURVE_FONT('continuous');
#304=COLOUR_RGB('',0.509803950786591,0.509803950786591,0.588235318660736);
#305=CARTESIAN_POINT('',(-2.85,-7.92932614099989E-016,-7.25));
#306=VECTOR('',#439,1.0);
#307=SURFACE_SIDE_STYLE('',(#440));
#308=EDGE_LOOP('',(#441,#442,#443,#444));
#309=AXIS2_PLACEMENT_3D('',#445,#446,#447);
#310=PRE_DEFINED_MARKER('');
#311=COLOUR_RGB('',0.509803950786591,0.509803950786591,0.588235318660736);
#312=SURFACE_SIDE_STYLE('',(#448));
#313=EDGE_LOOP('',(#449,#450,#451,#452));
#314=AXIS2_PLACEMENT_3D('',#453,#454,#455);
#315=PRE_DEFINED_MARKER('');
#316=COLOUR_RGB('',0.509803950786591,0.509803950786591,0.588235318660736);
#317=DRAUGHTING_PRE_DEFINED_CURVE_FONT('continuous');
#318=COLOUR_RGB('',0.509803950786591,0.509803950786591,0.588235318660736);
#319=AXIS2_PLACEMENT_3D('',#456,#457,#458);
#320=DRAUGHTING_PRE_DEFINED_CURVE_FONT('continuous');
#321=COLOUR_RGB('',0.509803950786591,0.509803950786591,0.588235318660736);
#322=CARTESIAN_POINT('',(3.0,1.68383373650577E-016,-3.25));
#323=VECTOR('',#459,1.0);
#324=DRAUGHTING_PRE_DEFINED_CURVE_FONT('continuous');
#325=COLOUR_RGB('',0.509803950786591,0.509803950786591,0.588235318660736);
#326=AXIS2_PLACEMENT_3D('',#460,#461,#462);
#327=PRE_DEFINED_MARKER('');
#328=COLOUR_RGB('',0.509803950786591,0.509803950786591,0.588235318660736);
#329=SURFACE_SIDE_STYLE('',(#463));
#330=EDGE_LOOP('',(#464,#465,#466,#467));
#331=AXIS2_PLACEMENT_3D('',#468,#469,#470);
#332=PRE_DEFINED_MARKER('');
#333=COLOUR_RGB('',0.509803950786591,0.509803950786591,0.588235318660736);
#334=DRAUGHTING_PRE_DEFINED_CURVE_FONT('continuous');
#335=COLOUR_RGB('',0.509803950786591,0.509803950786591,0.588235318660736);
#336=CARTESIAN_POINT('',(4.6,1.0286693372108E-015,7.6));
#337=VECTOR('',#471,1.0);
#338=DRAUGHTING_PRE_DEFINED_CURVE_FONT('continuous');
#339=COLOUR_RGB('',0.509803950786591,0.509803950786591,0.588235318660736);
#340=CARTESIAN_POINT('',(-3.0,-5.66380438642849E-016,-3.25));
#341=VECTOR('',#472,1.0);
#342=PRE_DEFINED_MARKER('');
#343=COLOUR_RGB('',0.509803950786591,0.509803950786591,0.588235318660736);
#344=PRE_DEFINED_MARKER('');
#345=COLOUR_RGB('',0.509803950786591,0.509803950786591,0.588235318660736);
#346=DRAUGHTING_PRE_DEFINED_CURVE_FONT('continuous');
#347=COLOUR_RGB('',0.509803950786591,0.509803950786591,0.588235318660736);
#348=AXIS2_PLACEMENT_3D('',#473,#474,#475);
#349=PRE_DEFINED_MARKER('');
#350=COLOUR_RGB('',0.509803950786591,0.509803950786591,0.588235318660736);
#351=DRAUGHTING_PRE_DEFINED_CURVE_FONT('continuous');
#352=COLOUR_RGB('',0.509803950786591,0.509803950786591,0.588235318660736);
#353=AXIS2_PLACEMENT_3D('',#476,#477,#478);
#354=DRAUGHTING_PRE_DEFINED_CURVE_FONT('continuous');
#355=COLOUR_RGB('',0.509803950786591,0.509803950786591,0.588235318660736);
#356=AXIS2_PLACEMENT_3D('',#479,#480,#481);
#357=DRAUGHTING_PRE_DEFINED_CURVE_FONT('continuous');
#358=COLOUR_RGB('',0.509803950786591,0.509803950786591,0.588235318660736);
#359=CARTESIAN_POINT('',(-5.0,-3.91874033223161E-016,3.6));
#360=VECTOR('',#482,1.0);
#361=SURFACE_SIDE_STYLE('',(#483));
#362=EDGE_LOOP('',(#484,#485,#486,#487));
#363=AXIS2_PLACEMENT_3D('',#488,#489,#490);
#364=DRAUGHTING_PRE_DEFINED_CURVE_FONT('continuous');
#365=COLOUR_RGB('',0.509803950786591,0.509803950786591,0.588235318660736);
#366=AXIS2_PLACEMENT_3D('',#491,#492,#493);
#367=PRE_DEFINED_MARKER('');
#368=COLOUR_RGB('',0.509803950786591,0.509803950786591,0.588235318660736);
#369=PRE_DEFINED_MARKER('');
#370=COLOUR_RGB('',0.509803950786591,0.509803950786591,0.588235318660736);
#371=DRAUGHTING_PRE_DEFINED_CURVE_FONT('continuous');
#372=COLOUR_RGB('',0.509803950786591,0.509803950786591,0.588235318660736);
#373=CARTESIAN_POINT('',(2.85,-9.49069924212342E-017,-7.25));
#374=VECTOR('',#494,1.0);
#375=SURFACE_SIDE_STYLE('',(#495));
#376=EDGE_LOOP('',(#496,#497));
#377=EDGE_LOOP('',(#498,#499));
#378=AXIS2_PLACEMENT_3D('',#500,#501,#502);
#379=DRAUGHTING_PRE_DEFINED_CURVE_FONT('continuous');
#380=COLOUR_RGB('',0.509803950786591,0.509803950786591,0.588235318660736);
#381=AXIS2_PLACEMENT_3D('',#503,#504,#505);
#382=DRAUGHTING_PRE_DEFINED_CURVE_FONT('continuous');
#383=COLOUR_RGB('',0.509803950786591,0.509803950786591,0.588235318660736);
#384=AXIS2_PLACEMENT_3D('',#506,#507,#508);
#385=SURFACE_SIDE_STYLE('',(#509));
#386=EDGE_LOOP('',(#510,#511,#512,#513));
#387=AXIS2_PLACEMENT_3D('',#514,#515,#516);
#388=SURFACE_SIDE_STYLE('',(#517));
#389=EDGE_LOOP('',(#518,#519,#520,#521));
#390=AXIS2_PLACEMENT_3D('',#522,#523,#524);
#391=DRAUGHTING_PRE_DEFINED_CURVE_FONT('continuous');
#392=COLOUR_RGB('',0.509803950786591,0.509803950786591,0.588235318660736);
#393=AXIS2_PLACEMENT_3D('',#525,#526,#527);
#394=DRAUGHTING_PRE_DEFINED_CURVE_FONT('continuous');
#395=COLOUR_RGB('',0.509803950786591,0.509803950786591,0.588235318660736);
#396=CARTESIAN_POINT('',(5.0,8.32732320599217E-016,3.6));
#397=VECTOR('',#528,1.0);
#398=PRE_DEFINED_MARKER('');
#399=COLOUR_RGB('',0.509803950786591,0.509803950786591,0.588235318660736);
#401=CARTESIAN_POINT('',(0.0,4.89842541528951E-016,8.0));
#402=DIRECTION('',(0.0,-6.12303176911189E-017,-1.0));
#403=DIRECTION('',(1.0,0.0,0.0));
#404=CARTESIAN_POINT('',(0.0,0.0,0.0));
#405=DIRECTION('',(0.0,-6.12303176911189E-017,-1.0));
#406=DIRECTION('',(1.0,0.0,0.0));
#407=SURFACE_STYLE_FILL_AREA(#529);
#408=ORIENTED_EDGE('',*,*,#135,.T.);
#409=ORIENTED_EDGE('',*,*,#129,.F.);
#410=ORIENTED_EDGE('',*,*,#87,.T.);
#411=ORIENTED_EDGE('',*,*,#147,.T.);
#412=CARTESIAN_POINT('',(0.0,-4.43919803260612E-016,-7.25));
#413=DIRECTION('',(-0.0,6.12303176911189E-017,1.0));
#414=DIRECTION('',(1.0,0.0,0.0));
#415=DIRECTION('',(0.707106781186547,1.2988911856079E-016,0.707106781186548));
#416=SURFACE_STYLE_FILL_AREA(#530);
#417=ORIENTED_EDGE('',*,*,#141,.T.);
#418=ORIENTED_EDGE('',*,*,#129,.T.);
#419=CARTESIAN_POINT('',(1.35,-4.89842541528951E-016,-8.0));
#420=DIRECTION('',(0.0,-6.12303176911189E-017,-1.0));
#421=DIRECTION('',(1.0,0.0,0.0));
#422=SURFACE_STYLE_FILL_AREA(#531);
#423=ORIENTED_EDGE('',*,*,#109,.T.);
#424=ORIENTED_EDGE('',*,*,#117,.F.);
#425=ORIENTED_EDGE('',*,*,#73,.T.);
#426=ORIENTED_EDGE('',*,*,#67,.T.);
#427=CARTESIAN_POINT('',(0.0,4.65350414452503E-016,7.6));
#428=DIRECTION('',(0.0,-6.12303176911189E-017,-1.0));
#429=DIRECTION('',(1.0,0.0,0.0));
#430=CARTESIAN_POINT('',(0.0,4.89842541528951E-016,8.0));
#431=DIRECTION('',(0.0,-6.12303176911189E-017,-1.0));
#432=DIRECTION('',(1.0,0.0,0.0));
#433=SURFACE_STYLE_FILL_AREA(#532);
#434=ORIENTED_EDGE('',*,*,#83,.F.);
#435=ORIENTED_EDGE('',*,*,#67,.F.);
#436=CARTESIAN_POINT('',(2.1,4.89842541528951E-016,8.0));
#437=DIRECTION('',(0.0,6.12303176911189E-017,1.0));
#438=DIRECTION('',(-1.0,0.0,0.0));
#439=DIRECTION('',(-0.196116135138184,3.60247597765962E-017,0.98058067569092));
#440=SURFACE_STYLE_FILL_AREA(#533);
#441=ORIENTED_EDGE('',*,*,#99,.F.);
#442=ORIENTED_EDGE('',*,*,#97,.T.);
#443=ORIENTED_EDGE('',*,*,#111,.F.);
#444=ORIENTED_EDGE('',*,*,#101,.F.);
#445=CARTESIAN_POINT('',(0.0,-1.98998532496136E-016,-3.25));
#446=DIRECTION('',(-0.0,6.12303176911189E-017,1.0));
#447=DIRECTION('',(1.0,0.0,0.0));
#448=SURFACE_STYLE_FILL_AREA(#534);
#449=ORIENTED_EDGE('',*,*,#149,.T.);
#450=ORIENTED_EDGE('',*,*,#69,.F.);
#451=ORIENTED_EDGE('',*,*,#125,.T.);
#452=ORIENTED_EDGE('',*,*,#117,.T.);
#453=CARTESIAN_POINT('',(0.0,2.20429143688028E-016,3.6));
#454=DIRECTION('',(-0.0,6.12303176911189E-017,1.0));
#455=DIRECTION('',(1.0,0.0,0.0));
#456=CARTESIAN_POINT('',(0.0,0.0,0.0));
#457=DIRECTION('',(0.0,-6.12303176911189E-017,-1.0));
#458=DIRECTION('',(1.0,0.0,0.0));
#459=DIRECTION('',(0.0,-6.12303176911189E-017,-1.0));
#460=CARTESIAN_POINT('',(0.0,-3.97997064992273E-016,-6.5));
#461=DIRECTION('',(0.0,-6.12303176911189E-017,-1.0));
#462=DIRECTION('',(1.0,0.0,0.0));
#463=SURFACE_STYLE_FILL_AREA(#535);
#464=ORIENTED_EDGE('',*,*,#109,.F.);
#465=ORIENTED_EDGE('',*,*,#83,.T.);
#466=ORIENTED_EDGE('',*,*,#73,.F.);
#467=ORIENTED_EDGE('',*,*,#139,.F.);
#468=CARTESIAN_POINT('',(0.0,4.65350414452503E-016,7.6));
#469=DIRECTION('',(0.0,-6.12303176911189E-017,-1.0));
#470=DIRECTION('',(1.0,0.0,0.0));
#471=DIRECTION('',(0.707106781186547,4.32963728535967E-017,-0.707106781186548));
#472=DIRECTION('',(-0.0,6.12303176911189E-017,1.0));
#473=CARTESIAN_POINT('',(0.0,4.40858287376056E-016,7.2));
#474=DIRECTION('',(0.0,-6.12303176911189E-017,-1.0));
#475=DIRECTION('',(1.0,0.0,0.0));
#476=CARTESIAN_POINT('',(0.0,0.0,0.0));
#477=DIRECTION('',(0.0,-6.12303176911189E-017,-1.0));
#478=DIRECTION('',(1.0,0.0,0.0));
#479=CARTESIAN_POINT('',(0.0,0.0,0.0));
#480=DIRECTION('',(0.0,-6.12303176911189E-017,-1.0));
#481=DIRECTION('',(1.0,0.0,0.0));
#482=DIRECTION('',(-0.0,6.12303176911189E-017,1.0));
#483=SURFACE_STYLE_FILL_AREA(#536);
#484=ORIENTED_EDGE('',*,*,#135,.F.);
#485=ORIENTED_EDGE('',*,*,#101,.T.);
#486=ORIENTED_EDGE('',*,*,#87,.F.);
#487=ORIENTED_EDGE('',*,*,#141,.F.);
#488=CARTESIAN_POINT('',(0.0,-4.43919803260612E-016,-7.25));
#489=DIRECTION('',(-0.0,6.12303176911189E-017,1.0));
#490=DIRECTION('',(1.0,0.0,0.0));
#491=CARTESIAN_POINT('',(0.0,-4.89842541528951E-016,-8.0));
#492=DIRECTION('',(0.0,-6.12303176911189E-017,-1.0));
#493=DIRECTION('',(1.0,0.0,0.0));
#494=DIRECTION('',(-0.196116135138184,-8.40577728120578E-017,-0.98058067569092));
#495=SURFACE_STYLE_FILL_AREA(#537);
#496=ORIENTED_EDGE('',*,*,#97,.F.);
#497=ORIENTED_EDGE('',*,*,#123,.F.);
#498=ORIENTED_EDGE('',*,*,#121,.T.);
#499=ORIENTED_EDGE('',*,*,#69,.T.);
#500=CARTESIAN_POINT('',(4.0,0.0,0.0));
#501=DIRECTION('',(0.0,-6.12303176911189E-017,-1.0));
#502=DIRECTION('',(1.0,0.0,0.0));
#503=CARTESIAN_POINT('',(0.0,4.40858287376056E-016,7.2));
#504=DIRECTION('',(0.0,-6.12303176911189E-017,-1.0));
#505=DIRECTION('',(1.0,0.0,0.0));
#506=CARTESIAN_POINT('',(0.0,-4.89842541528951E-016,-8.0));
#507=DIRECTION('',(0.0,-6.12303176911189E-017,-1.0));
#508=DIRECTION('',(1.0,0.0,0.0));
#509=SURFACE_STYLE_FILL_AREA(#538);
#510=ORIENTED_EDGE('',*,*,#149,.F.);
#511=ORIENTED_EDGE('',*,*,#139,.T.);
#512=ORIENTED_EDGE('',*,*,#125,.F.);
#513=ORIENTED_EDGE('',*,*,#121,.F.);
#514=CARTESIAN_POINT('',(0.0,2.20429143688028E-016,3.6));
#515=DIRECTION('',(-0.0,6.12303176911189E-017,1.0));
#516=DIRECTION('',(1.0,0.0,0.0));
#517=SURFACE_STYLE_FILL_AREA(#539);
#518=ORIENTED_EDGE('',*,*,#99,.T.);
#519=ORIENTED_EDGE('',*,*,#147,.F.);
#520=ORIENTED_EDGE('',*,*,#111,.T.);
#521=ORIENTED_EDGE('',*,*,#123,.T.);
#522=CARTESIAN_POINT('',(0.0,-1.98998532496136E-016,-3.25));
#523=DIRECTION('',(-0.0,6.12303176911189E-017,1.0));
#524=DIRECTION('',(1.0,0.0,0.0));
#525=CARTESIAN_POINT('',(0.0,-3.97997064992273E-016,-6.5));
#526=DIRECTION('',(0.0,-6.12303176911189E-017,-1.0));
#527=DIRECTION('',(1.0,0.0,0.0));
#528=DIRECTION('',(0.0,-6.12303176911189E-017,-1.0));
#529=FILL_AREA_STYLE('',(#540));
#530=FILL_AREA_STYLE('',(#541));
#531=FILL_AREA_STYLE('',(#542));
#532=FILL_AREA_STYLE('',(#543));
#533=FILL_AREA_STYLE('',(#544));
#534=FILL_AREA_STYLE('',(#545));
#535=FILL_AREA_STYLE('',(#546));
#536=FILL_AREA_STYLE('',(#547));
#537=FILL_AREA_STYLE('',(#548));
#538=FILL_AREA_STYLE('',(#549));
#539=FILL_AREA_STYLE('',(#550));
#540=FILL_AREA_STYLE_COLOUR('',#551);
#541=FILL_AREA_STYLE_COLOUR('',#552);
#542=FILL_AREA_STYLE_COLOUR('',#553);
#543=FILL_AREA_STYLE_COLOUR('',#554);
#544=FILL_AREA_STYLE_COLOUR('',#555);
#545=FILL_AREA_STYLE_COLOUR('',#556);
#546=FILL_AREA_STYLE_COLOUR('',#557);
#547=FILL_AREA_STYLE_COLOUR('',#558);
#548=FILL_AREA_STYLE_COLOUR('',#559);
#549=FILL_AREA_STYLE_COLOUR('',#560);
#550=FILL_AREA_STYLE_COLOUR('',#561);
#551=COLOUR_RGB('',0.509803950786591,0.509803950786591,0.588235318660736);
#552=COLOUR_RGB('',0.509803950786591,0.509803950786591,0.588235318660736);
#553=COLOUR_RGB('',0.509803950786591,0.509803950786591,0.588235318660736);
#554=COLOUR_RGB('',0.509803950786591,0.509803950786591,0.588235318660736);
#555=COLOUR_RGB('',0.509803950786591,0.509803950786591,0.588235318660736);
#556=COLOUR_RGB('',0.509803950786591,0.509803950786591,0.588235318660736);
#557=COLOUR_RGB('',0.509803950786591,0.509803950786591,0.588235318660736);
#558=COLOUR_RGB('',0.509803950786591,0.509803950786591,0.588235318660736);
#559=COLOUR_RGB('',0.509803950786591,0.509803950786591,0.588235318660736);
#560=COLOUR_RGB('',0.509803950786591,0.509803950786591,0.588235318660736);
#561=COLOUR_RGB('',0.509803950786591,0.509803950786591,0.588235318660736);
ENDSEC;
END-ISO-10303-21;
