ISO-10303-21;
HEADER;
FILE_DESCRIPTION(('STEP AP214'),'1');
FILE_NAME(' ','  ',('TraceParts'),('TraceParts S.A.'),'XStep 1.0',' ',' ');
FILE_SCHEMA(('automotive_design'));
ENDSEC;
DATA;
#1=MECHANICAL_DESIGN_GEOMETRIC_PRESENTATION_REPRESENTATION(' ',(#10,#11,#12,#13,#14,#15,#16,#17,#18,#19,#20,#21,#22,#23,#24,#25,#26,#27,#28,#29,#30,#31,#32,#33,#34,#35,#36,#37,#38,#39,#40,#41,#42,#43,#44,#45,#46,#47,#48,#49,#50,#51,#52),#6);
#2=PRODUCT_DEFINITION_CONTEXT('',#53,'design');
#3=APPLICATION_PROTOCOL_DEFINITION('INTERNATIONAL STANDARD','automotive_design',1994,#53);
#4=PRODUCT_CATEGORY_RELATIONSHIP('NONE','NONE',#54,#55);
#5=SHAPE_DEFINITION_REPRESENTATION(#56,#57);
#6= (GEOMETRIC_REPRESENTATION_CONTEXT(3)GLOBAL_UNCERTAINTY_ASSIGNED_CONTEXT((#60))GLOBAL_UNIT_ASSIGNED_CONTEXT((#62,#63,#64))REPRESENTATION_CONTEXT('NONE','WORKSPACE'));
#10=STYLED_ITEM('',(#66),#67);
#11=STYLED_ITEM('',(#68),#69);
#12=STYLED_ITEM('',(#70),#71);
#13=STYLED_ITEM('',(#72),#73);
#14=STYLED_ITEM('',(#74),#75);
#15=STYLED_ITEM('',(#76),#77);
#16=STYLED_ITEM('',(#78),#79);
#17=STYLED_ITEM('',(#80),#81);
#18=STYLED_ITEM('',(#82),#83);
#19=STYLED_ITEM('',(#84),#85);
#20=STYLED_ITEM('',(#86),#87);
#21=STYLED_ITEM('',(#88),#89);
#22=STYLED_ITEM('',(#90),#91);
#23=STYLED_ITEM('',(#92),#93);
#24=STYLED_ITEM('',(#94),#95);
#25=STYLED_ITEM('',(#96),#97);
#26=STYLED_ITEM('',(#98),#99);
#27=STYLED_ITEM('',(#100),#101);
#28=STYLED_ITEM('',(#102),#103);
#29=STYLED_ITEM('',(#104),#105);
#30=STYLED_ITEM('',(#106),#107);
#31=STYLED_ITEM('',(#108),#109);
#32=STYLED_ITEM('',(#110),#111);
#33=STYLED_ITEM('',(#112),#113);
#34=STYLED_ITEM('',(#114),#115);
#35=STYLED_ITEM('',(#116),#117);
#36=STYLED_ITEM('',(#118),#119);
#37=STYLED_ITEM('',(#120),#121);
#38=STYLED_ITEM('',(#122),#123);
#39=STYLED_ITEM('',(#124),#125);
#40=STYLED_ITEM('',(#126),#127);
#41=STYLED_ITEM('',(#128),#129);
#42=STYLED_ITEM('',(#130),#131);
#43=STYLED_ITEM('',(#132),#133);
#44=STYLED_ITEM('',(#134),#135);
#45=STYLED_ITEM('',(#136),#137);
#46=STYLED_ITEM('',(#138),#139);
#47=STYLED_ITEM('',(#140),#141);
#48=STYLED_ITEM('',(#142),#143);
#49=STYLED_ITEM('',(#144),#145);
#50=STYLED_ITEM('',(#146),#147);
#51=STYLED_ITEM('',(#148),#149);
#52=STYLED_ITEM('',(#150),#151);
#53=APPLICATION_CONTEXT(' ');
#54=PRODUCT_CATEGORY('part','NONE');
#55=PRODUCT_RELATED_PRODUCT_CATEGORY('detail',' ',(#152));
#56=PRODUCT_DEFINITION_SHAPE('NONE','NONE',#153);
#57=ADVANCED_BREP_SHAPE_REPRESENTATION('1',(#154,#155),#6);
#60=UNCERTAINTY_MEASURE_WITH_UNIT(LENGTH_MEASURE(1.0E-006),#62,'','');
#62= (CONVERSION_BASED_UNIT('MILLIMETRE',#158)LENGTH_UNIT()NAMED_UNIT(#161));
#63= (NAMED_UNIT(#163)PLANE_ANGLE_UNIT()SI_UNIT($,.RADIAN.));
#64= (NAMED_UNIT(#163)SOLID_ANGLE_UNIT()SI_UNIT($,.STERADIAN.));
#66=PRESENTATION_STYLE_ASSIGNMENT((#169));
#67=ADVANCED_FACE('',(#170),#171,.T.);
#68=PRESENTATION_STYLE_ASSIGNMENT((#172));
#69=EDGE_CURVE('',#99,#115,#173,.T.);
#70=PRESENTATION_STYLE_ASSIGNMENT((#174));
#71=ADVANCED_FACE('',(#175),#176,.T.);
#72=PRESENTATION_STYLE_ASSIGNMENT((#177));
#73=EDGE_CURVE('',#95,#125,#178,.T.);
#74=PRESENTATION_STYLE_ASSIGNMENT((#179));
#75=EDGE_CURVE('',#95,#107,#180,.T.);
#76=PRESENTATION_STYLE_ASSIGNMENT((#181));
#77=EDGE_CURVE('',#141,#97,#182,.T.);
#78=PRESENTATION_STYLE_ASSIGNMENT((#183));
#79=EDGE_CURVE('',#133,#125,#184,.T.);
#80=PRESENTATION_STYLE_ASSIGNMENT((#185));
#81=ADVANCED_FACE('',(#186,#187),#188,.T.);
#82=PRESENTATION_STYLE_ASSIGNMENT((#189));
#83=EDGE_CURVE('',#101,#147,#190,.T.);
#84=PRESENTATION_STYLE_ASSIGNMENT((#191));
#85=EDGE_CURVE('',#147,#97,#192,.T.);
#86=PRESENTATION_STYLE_ASSIGNMENT((#193));
#87=EDGE_CURVE('',#117,#139,#194,.T.);
#88=PRESENTATION_STYLE_ASSIGNMENT((#195));
#89=ADVANCED_FACE('',(#196),#197,.T.);
#90=PRESENTATION_STYLE_ASSIGNMENT((#198));
#91=EDGE_CURVE('',#147,#101,#199,.T.);
#92=PRESENTATION_STYLE_ASSIGNMENT((#200));
#93=ADVANCED_FACE('',(#201),#202,.T.);
#94=PRESENTATION_STYLE_ASSIGNMENT((#203));
#95=VERTEX_POINT('',#204);
#96=PRESENTATION_STYLE_ASSIGNMENT((#205));
#97=VERTEX_POINT('',#206);
#98=PRESENTATION_STYLE_ASSIGNMENT((#207));
#99=VERTEX_POINT('',#208);
#100=PRESENTATION_STYLE_ASSIGNMENT((#209));
#101=VERTEX_POINT('',#210);
#102=PRESENTATION_STYLE_ASSIGNMENT((#211));
#103=ADVANCED_FACE('',(#212),#213,.T.);
#104=PRESENTATION_STYLE_ASSIGNMENT((#214));
#105=EDGE_CURVE('',#125,#133,#215,.T.);
#106=PRESENTATION_STYLE_ASSIGNMENT((#216));
#107=VERTEX_POINT('',#217);
#108=PRESENTATION_STYLE_ASSIGNMENT((#218));
#109=ADVANCED_FACE('',(#219),#220,.T.);
#110=PRESENTATION_STYLE_ASSIGNMENT((#221));
#111=EDGE_CURVE('',#139,#117,#222,.T.);
#112=PRESENTATION_STYLE_ASSIGNMENT((#223));
#113=EDGE_CURVE('',#101,#117,#224,.T.);
#114=PRESENTATION_STYLE_ASSIGNMENT((#225));
#115=VERTEX_POINT('',#226);
#116=PRESENTATION_STYLE_ASSIGNMENT((#227));
#117=VERTEX_POINT('',#228);
#118=PRESENTATION_STYLE_ASSIGNMENT((#229));
#119=ADVANCED_FACE('',(#230),#231,.T.);
#120=PRESENTATION_STYLE_ASSIGNMENT((#232));
#121=EDGE_CURVE('',#115,#95,#233,.T.);
#122=PRESENTATION_STYLE_ASSIGNMENT((#234));
#123=EDGE_CURVE('',#133,#107,#235,.T.);
#124=PRESENTATION_STYLE_ASSIGNMENT((#236));
#125=VERTEX_POINT('',#237);
#126=PRESENTATION_STYLE_ASSIGNMENT((#238));
#127=EDGE_CURVE('',#139,#147,#239,.T.);
#128=PRESENTATION_STYLE_ASSIGNMENT((#240));
#129=ADVANCED_FACE('',(#241),#242,.T.);
#130=PRESENTATION_STYLE_ASSIGNMENT((#243));
#131=EDGE_CURVE('',#115,#99,#244,.T.);
#132=PRESENTATION_STYLE_ASSIGNMENT((#245));
#133=VERTEX_POINT('',#246);
#134=PRESENTATION_STYLE_ASSIGNMENT((#247));
#135=ADVANCED_FACE('',(#248),#249,.T.);
#136=PRESENTATION_STYLE_ASSIGNMENT((#250));
#137=EDGE_CURVE('',#107,#99,#251,.T.);
#138=PRESENTATION_STYLE_ASSIGNMENT((#252));
#139=VERTEX_POINT('',#253);
#140=PRESENTATION_STYLE_ASSIGNMENT((#254));
#141=VERTEX_POINT('',#255);
#142=PRESENTATION_STYLE_ASSIGNMENT((#256));
#143=EDGE_CURVE('',#97,#141,#257,.T.);
#144=PRESENTATION_STYLE_ASSIGNMENT((#258));
#145=EDGE_CURVE('',#107,#95,#259,.T.);
#146=PRESENTATION_STYLE_ASSIGNMENT((#260));
#147=VERTEX_POINT('',#261);
#148=PRESENTATION_STYLE_ASSIGNMENT((#262));
#149=ADVANCED_FACE('',(#263),#264,.T.);
#150=PRESENTATION_STYLE_ASSIGNMENT((#265));
#151=EDGE_CURVE('',#141,#101,#266,.T.);
#152=PRODUCT('1','1','PART-1-DESC',(#267));
#153=PRODUCT_DEFINITION('NONE','NONE',#268,#2);
#154=MANIFOLD_SOLID_BREP('1',#269);
#155=AXIS2_PLACEMENT_3D('',#270,#271,#272);
#158=LENGTH_MEASURE_WITH_UNIT(LENGTH_MEASURE(1.0),#273);
#161=DIMENSIONAL_EXPONENTS(1.0,0.0,0.0,0.0,0.0,0.0,0.0);
#163=DIMENSIONAL_EXPONENTS(0.0,0.0,0.0,0.0,0.0,0.0,0.0);
#169=SURFACE_STYLE_USAGE(.BOTH.,#274);
#170=FACE_OUTER_BOUND('',#275,.T.);
#171=PLANE('',#276);
#172=CURVE_STYLE('',#277,POSITIVE_LENGTH_MEASURE(1.0E-006),#278);
#173=CIRCLE('',#279,4.0);
#174=SURFACE_STYLE_USAGE(.BOTH.,#280);
#175=FACE_OUTER_BOUND('',#281,.T.);
#176=CONICAL_SURFACE('',#282,7.75,0.785398163397448);
#177=CURVE_STYLE('',#283,POSITIVE_LENGTH_MEASURE(1.0E-006),#284);
#178=LINE('',#285,#286);
#179=CURVE_STYLE('',#287,POSITIVE_LENGTH_MEASURE(1.0E-006),#288);
#180=CIRCLE('',#289,4.0);
#181=CURVE_STYLE('',#290,POSITIVE_LENGTH_MEASURE(1.0E-006),#291);
#182=CIRCLE('',#292,8.0);
#183=CURVE_STYLE('',#293,POSITIVE_LENGTH_MEASURE(1.0E-006),#294);
#184=CIRCLE('',#295,3.6);
#185=SURFACE_STYLE_USAGE(.BOTH.,#296);
#186=FACE_BOUND('',#297,.T.);
#187=FACE_OUTER_BOUND('',#298,.T.);
#188=PLANE('',#299);
#189=CURVE_STYLE('',#300,POSITIVE_LENGTH_MEASURE(1.0E-006),#301);
#190=CIRCLE('',#302,8.0);
#191=CURVE_STYLE('',#303,POSITIVE_LENGTH_MEASURE(1.0E-006),#304);
#192=LINE('',#305,#306);
#193=CURVE_STYLE('',#307,POSITIVE_LENGTH_MEASURE(1.0E-006),#308);
#194=CIRCLE('',#309,7.5);
#195=SURFACE_STYLE_USAGE(.BOTH.,#310);
#196=FACE_OUTER_BOUND('',#311,.T.);
#197=CONICAL_SURFACE('',#312,7.75,0.785398163397448);
#198=CURVE_STYLE('',#313,POSITIVE_LENGTH_MEASURE(1.0E-006),#314);
#199=CIRCLE('',#315,8.0);
#200=SURFACE_STYLE_USAGE(.BOTH.,#316);
#201=FACE_OUTER_BOUND('',#317,.T.);
#202=CYLINDRICAL_SURFACE('',#318,4.0);
#203=POINT_STYLE(' ',#319,POSITIVE_LENGTH_MEASURE(1.0E-006),#320);
#204=CARTESIAN_POINT('',(4.0,-4.89842541528951E-016,-8.0));
#205=POINT_STYLE(' ',#321,POSITIVE_LENGTH_MEASURE(1.0E-006),#322);
#206=CARTESIAN_POINT('',(8.0,0.0,0.0));
#207=POINT_STYLE(' ',#323,POSITIVE_LENGTH_MEASURE(1.0E-006),#324);
#208=CARTESIAN_POINT('',(-4.0,-4.89842541528951E-016,2.99932144364427E-032));
#209=POINT_STYLE(' ',#325,POSITIVE_LENGTH_MEASURE(1.0E-006),#326);
#210=CARTESIAN_POINT('',(-8.0,-7.04148653447867E-016,4.5));
#211=SURFACE_STYLE_USAGE(.BOTH.,#327);
#212=FACE_OUTER_BOUND('',#328,.T.);
#213=PLANE('',#329);
#214=CURVE_STYLE('',#330,POSITIVE_LENGTH_MEASURE(1.0E-006),#331);
#215=CIRCLE('',#332,3.6);
#216=POINT_STYLE(' ',#333,POSITIVE_LENGTH_MEASURE(1.0E-006),#334);
#217=CARTESIAN_POINT('',(-4.0,-9.79685083057902E-016,-8.0));
#218=SURFACE_STYLE_USAGE(.BOTH.,#335);
#219=FACE_OUTER_BOUND('',#336,.T.);
#220=CYLINDRICAL_SURFACE('',#337,8.0);
#221=CURVE_STYLE('',#338,POSITIVE_LENGTH_MEASURE(1.0E-006),#339);
#222=CIRCLE('',#340,7.5);
#223=CURVE_STYLE('',#341,POSITIVE_LENGTH_MEASURE(1.0E-006),#342);
#224=LINE('',#343,#344);
#225=POINT_STYLE(' ',#345,POSITIVE_LENGTH_MEASURE(1.0E-006),#346);
#226=CARTESIAN_POINT('',(4.0,0.0,0.0));
#227=POINT_STYLE(' ',#347,POSITIVE_LENGTH_MEASURE(1.0E-006),#348);
#228=CARTESIAN_POINT('',(-7.5,-6.12303176911189E-016,5.0));
#229=SURFACE_STYLE_USAGE(.BOTH.,#349);
#230=FACE_OUTER_BOUND('',#350,.T.);
#231=CYLINDRICAL_SURFACE('',#351,8.0);
#232=CURVE_STYLE('',#352,POSITIVE_LENGTH_MEASURE(1.0E-006),#353);
#233=LINE('',#354,#355);
#234=CURVE_STYLE('',#356,POSITIVE_LENGTH_MEASURE(1.0E-006),#357);
#235=LINE('',#358,#359);
#236=POINT_STYLE(' ',#360,POSITIVE_LENGTH_MEASURE(1.0E-006),#361);
#237=CARTESIAN_POINT('',(3.6,-6.12303176911189E-016,-10.0));
#238=CURVE_STYLE('',#362,POSITIVE_LENGTH_MEASURE(1.0E-006),#363);
#239=LINE('',#364,#365);
#240=SURFACE_STYLE_USAGE(.BOTH.,#366);
#241=FACE_OUTER_BOUND('',#367,.T.);
#242=CONICAL_SURFACE('',#368,3.8,0.197395559849881);
#243=CURVE_STYLE('',#369,POSITIVE_LENGTH_MEASURE(1.0E-006),#370);
#244=CIRCLE('',#371,4.0);
#245=POINT_STYLE(' ',#372,POSITIVE_LENGTH_MEASURE(1.0E-006),#373);
#246=CARTESIAN_POINT('',(-3.6,-1.05316146428724E-015,-10.0));
#247=SURFACE_STYLE_USAGE(.BOTH.,#374);
#248=FACE_OUTER_BOUND('',#375,.T.);
#249=CONICAL_SURFACE('',#376,3.8,0.197395559849881);
#250=CURVE_STYLE('',#377,POSITIVE_LENGTH_MEASURE(1.0E-006),#378);
#251=LINE('',#379,#380);
#252=POINT_STYLE(' ',#381,POSITIVE_LENGTH_MEASURE(1.0E-006),#382);
#253=CARTESIAN_POINT('',(7.5,3.06151588455594E-016,5.0));
#254=POINT_STYLE(' ',#383,POSITIVE_LENGTH_MEASURE(1.0E-006),#384);
#255=CARTESIAN_POINT('',(-8.0,-9.79685083057902E-016,5.99864288728855E-032));
#256=CURVE_STYLE('',#385,POSITIVE_LENGTH_MEASURE(1.0E-006),#386);
#257=CIRCLE('',#387,8.0);
#258=CURVE_STYLE('',#388,POSITIVE_LENGTH_MEASURE(1.0E-006),#389);
#259=CIRCLE('',#390,4.0);
#260=POINT_STYLE(' ',#391,POSITIVE_LENGTH_MEASURE(1.0E-006),#392);
#261=CARTESIAN_POINT('',(8.0,2.75536429610035E-016,4.5));
#262=SURFACE_STYLE_USAGE(.BOTH.,#393);
#263=FACE_OUTER_BOUND('',#394,.T.);
#264=CYLINDRICAL_SURFACE('',#395,4.0);
#265=CURVE_STYLE('',#396,POSITIVE_LENGTH_MEASURE(1.0E-006),#397);
#266=LINE('',#398,#399);
#267=PRODUCT_CONTEXT('',#53,'mechanical');
#268=PRODUCT_DEFINITION_FORMATION_WITH_SPECIFIED_SOURCE(' ','NONE',#152,.NOT_KNOWN.);
#269=CLOSED_SHELL('',(#129,#93,#109,#71,#67,#89,#119,#81,#149,#135,#103));
#270=CARTESIAN_POINT('',(0.0,0.0,0.0));
#271=DIRECTION('',(0.0,0.0,1.0));
#272=DIRECTION('',(1.0,0.0,0.0));
#273= (NAMED_UNIT(#161)LENGTH_UNIT()SI_UNIT(.MILLI.,.METRE.));
#274=SURFACE_SIDE_STYLE('',(#401));
#275=EDGE_LOOP('',(#402,#403));
#276=AXIS2_PLACEMENT_3D('',#404,#405,#406);
#277=DRAUGHTING_PRE_DEFINED_CURVE_FONT('continuous');
#278=COLOUR_RGB('',0.509803950786591,0.509803950786591,0.588235318660736);
#279=AXIS2_PLACEMENT_3D('',#407,#408,#409);
#280=SURFACE_SIDE_STYLE('',(#410));
#281=EDGE_LOOP('',(#411,#412,#413,#414));
#282=AXIS2_PLACEMENT_3D('',#415,#416,#417);
#283=DRAUGHTING_PRE_DEFINED_CURVE_FONT('continuous');
#284=COLOUR_RGB('',0.509803950786591,0.509803950786591,0.588235318660736);
#285=CARTESIAN_POINT('',(3.8,-8.57224447675668E-017,-9.0));
#286=VECTOR('',#418,1.0);
#287=DRAUGHTING_PRE_DEFINED_CURVE_FONT('continuous');
#288=COLOUR_RGB('',0.509803950786591,0.509803950786591,0.588235318660736);
#289=AXIS2_PLACEMENT_3D('',#419,#420,#421);
#290=DRAUGHTING_PRE_DEFINED_CURVE_FONT('continuous');
#291=COLOUR_RGB('',0.509803950786591,0.509803950786591,0.588235318660736);
#292=AXIS2_PLACEMENT_3D('',#422,#423,#424);
#293=DRAUGHTING_PRE_DEFINED_CURVE_FONT('continuous');
#294=COLOUR_RGB('',0.509803950786591,0.509803950786591,0.588235318660736);
#295=AXIS2_PLACEMENT_3D('',#425,#426,#427);
#296=SURFACE_SIDE_STYLE('',(#428));
#297=EDGE_LOOP('',(#429,#430));
#298=EDGE_LOOP('',(#431,#432));
#299=AXIS2_PLACEMENT_3D('',#433,#434,#435);
#300=DRAUGHTING_PRE_DEFINED_CURVE_FONT('continuous');
#301=COLOUR_RGB('',0.509803950786591,0.509803950786591,0.588235318660736);
#302=AXIS2_PLACEMENT_3D('',#436,#437,#438);
#303=DRAUGHTING_PRE_DEFINED_CURVE_FONT('continuous');
#304=COLOUR_RGB('',0.509803950786591,0.509803950786591,0.588235318660736);
#305=CARTESIAN_POINT('',(8.0,1.11745329786292E-015,2.25));
#306=VECTOR('',#439,1.0);
#307=DRAUGHTING_PRE_DEFINED_CURVE_FONT('continuous');
#308=COLOUR_RGB('',0.509803950786591,0.509803950786591,0.588235318660736);
#309=AXIS2_PLACEMENT_3D('',#440,#441,#442);
#310=SURFACE_SIDE_STYLE('',(#443));
#311=EDGE_LOOP('',(#444,#445,#446,#447));
#312=AXIS2_PLACEMENT_3D('',#448,#449,#450);
#313=DRAUGHTING_PRE_DEFINED_CURVE_FONT('continuous');
#314=COLOUR_RGB('',0.509803950786591,0.509803950786591,0.588235318660736);
#315=AXIS2_PLACEMENT_3D('',#451,#452,#453);
#316=SURFACE_SIDE_STYLE('',(#454));
#317=EDGE_LOOP('',(#455,#456,#457,#458));
#318=AXIS2_PLACEMENT_3D('',#459,#460,#461);
#319=PRE_DEFINED_MARKER('');
#320=COLOUR_RGB('',0.509803950786591,0.509803950786591,0.588235318660736);
#321=PRE_DEFINED_MARKER('');
#322=COLOUR_RGB('',0.509803950786591,0.509803950786591,0.588235318660736);
#323=PRE_DEFINED_MARKER('');
#324=COLOUR_RGB('',0.509803950786591,0.509803950786591,0.588235318660736);
#325=PRE_DEFINED_MARKER('');
#326=COLOUR_RGB('',0.509803950786591,0.509803950786591,0.588235318660736);
#327=SURFACE_SIDE_STYLE('',(#462));
#328=EDGE_LOOP('',(#463,#464));
#329=AXIS2_PLACEMENT_3D('',#465,#466,#467);
#330=DRAUGHTING_PRE_DEFINED_CURVE_FONT('continuous');
#331=COLOUR_RGB('',0.509803950786591,0.509803950786591,0.588235318660736);
#332=AXIS2_PLACEMENT_3D('',#468,#469,#470);
#333=PRE_DEFINED_MARKER('');
#334=COLOUR_RGB('',0.509803950786591,0.509803950786591,0.588235318660736);
#335=SURFACE_SIDE_STYLE('',(#471));
#336=EDGE_LOOP('',(#472,#473,#474,#475));
#337=AXIS2_PLACEMENT_3D('',#476,#477,#478);
#338=DRAUGHTING_PRE_DEFINED_CURVE_FONT('continuous');
#339=COLOUR_RGB('',0.509803950786591,0.509803950786591,0.588235318660736);
#340=AXIS2_PLACEMENT_3D('',#479,#480,#481);
#341=DRAUGHTING_PRE_DEFINED_CURVE_FONT('continuous');
#342=COLOUR_RGB('',0.509803950786591,0.509803950786591,0.588235318660736);
#343=CARTESIAN_POINT('',(-7.75,-6.58225915179528E-016,4.75));
#344=VECTOR('',#482,1.0);
#345=PRE_DEFINED_MARKER('');
#346=COLOUR_RGB('',0.509803950786591,0.509803950786591,0.588235318660736);
#347=PRE_DEFINED_MARKER('');
#348=COLOUR_RGB('',0.509803950786591,0.509803950786591,0.588235318660736);
#349=SURFACE_SIDE_STYLE('',(#483));
#350=EDGE_LOOP('',(#484,#485,#486,#487));
#351=AXIS2_PLACEMENT_3D('',#488,#489,#490);
#352=DRAUGHTING_PRE_DEFINED_CURVE_FONT('continuous');
#353=COLOUR_RGB('',0.509803950786591,0.509803950786591,0.588235318660736);
#354=CARTESIAN_POINT('',(4.0,2.44921270764475E-016,-4.0));
#355=VECTOR('',#491,1.0);
#356=DRAUGHTING_PRE_DEFINED_CURVE_FONT('continuous');
#357=COLOUR_RGB('',0.509803950786591,0.509803950786591,0.588235318660736);
#358=CARTESIAN_POINT('',(-3.8,-1.01642327367257E-015,-9.0));
#359=VECTOR('',#492,1.0);
#360=PRE_DEFINED_MARKER('');
#361=COLOUR_RGB('',0.509803950786591,0.509803950786591,0.588235318660736);
#362=DRAUGHTING_PRE_DEFINED_CURVE_FONT('continuous');
#363=COLOUR_RGB('',0.509803950786591,0.509803950786591,0.588235318660736);
#364=CARTESIAN_POINT('',(7.75,1.23991393324516E-015,4.75));
#365=VECTOR('',#493,1.0);
#366=SURFACE_SIDE_STYLE('',(#494));
#367=EDGE_LOOP('',(#495,#496,#497,#498));
#368=AXIS2_PLACEMENT_3D('',#499,#500,#501);
#369=DRAUGHTING_PRE_DEFINED_CURVE_FONT('continuous');
#370=COLOUR_RGB('',0.509803950786591,0.509803950786591,0.588235318660736);
#371=AXIS2_PLACEMENT_3D('',#502,#503,#504);
#372=PRE_DEFINED_MARKER('');
#373=COLOUR_RGB('',0.509803950786591,0.509803950786591,0.588235318660736);
#374=SURFACE_SIDE_STYLE('',(#505));
#375=EDGE_LOOP('',(#506,#507,#508,#509));
#376=AXIS2_PLACEMENT_3D('',#510,#511,#512);
#377=DRAUGHTING_PRE_DEFINED_CURVE_FONT('continuous');
#378=COLOUR_RGB('',0.509803950786591,0.509803950786591,0.588235318660736);
#379=CARTESIAN_POINT('',(-4.0,-7.34763812293426E-016,-4.0));
#380=VECTOR('',#513,1.0);
#381=PRE_DEFINED_MARKER('');
#382=COLOUR_RGB('',0.509803950786591,0.509803950786591,0.588235318660736);
#383=PRE_DEFINED_MARKER('');
#384=COLOUR_RGB('',0.509803950786591,0.509803950786591,0.588235318660736);
#385=DRAUGHTING_PRE_DEFINED_CURVE_FONT('continuous');
#386=COLOUR_RGB('',0.509803950786591,0.509803950786591,0.588235318660736);
#387=AXIS2_PLACEMENT_3D('',#514,#515,#516);
#388=DRAUGHTING_PRE_DEFINED_CURVE_FONT('continuous');
#389=COLOUR_RGB('',0.509803950786591,0.509803950786591,0.588235318660736);
#390=AXIS2_PLACEMENT_3D('',#517,#518,#519);
#391=PRE_DEFINED_MARKER('');
#392=COLOUR_RGB('',0.509803950786591,0.509803950786591,0.588235318660736);
#393=SURFACE_SIDE_STYLE('',(#520));
#394=EDGE_LOOP('',(#521,#522,#523,#524));
#395=AXIS2_PLACEMENT_3D('',#525,#526,#527);
#396=DRAUGHTING_PRE_DEFINED_CURVE_FONT('continuous');
#397=COLOUR_RGB('',0.509803950786591,0.509803950786591,0.588235318660736);
#398=CARTESIAN_POINT('',(-8.0,-8.41916868252884E-016,2.25));
#399=VECTOR('',#528,1.0);
#401=SURFACE_STYLE_FILL_AREA(#529);
#402=ORIENTED_EDGE('',*,*,#111,.F.);
#403=ORIENTED_EDGE('',*,*,#87,.F.);
#404=CARTESIAN_POINT('',(3.75,3.06151588455594E-016,5.0));
#405=DIRECTION('',(0.0,6.12303176911189E-017,1.0));
#406=DIRECTION('',(-1.0,0.0,0.0));
#407=CARTESIAN_POINT('',(0.0,0.0,0.0));
#408=DIRECTION('',(0.0,-6.12303176911189E-017,-1.0));
#409=DIRECTION('',(1.0,0.0,0.0));
#410=SURFACE_STYLE_FILL_AREA(#530);
#411=ORIENTED_EDGE('',*,*,#127,.F.);
#412=ORIENTED_EDGE('',*,*,#111,.T.);
#413=ORIENTED_EDGE('',*,*,#113,.F.);
#414=ORIENTED_EDGE('',*,*,#91,.F.);
#415=CARTESIAN_POINT('',(0.0,2.90844009032815E-016,4.75));
#416=DIRECTION('',(0.0,-6.12303176911189E-017,-1.0));
#417=DIRECTION('',(1.0,0.0,0.0));
#418=DIRECTION('',(-0.196116135138184,-8.40577728120578E-017,-0.98058067569092));
#419=CARTESIAN_POINT('',(0.0,-4.89842541528951E-016,-8.0));
#420=DIRECTION('',(0.0,-6.12303176911189E-017,-1.0));
#421=DIRECTION('',(1.0,0.0,0.0));
#422=CARTESIAN_POINT('',(0.0,0.0,0.0));
#423=DIRECTION('',(0.0,-6.12303176911189E-017,-1.0));
#424=DIRECTION('',(1.0,0.0,0.0));
#425=CARTESIAN_POINT('',(0.0,-6.12303176911189E-016,-10.0));
#426=DIRECTION('',(0.0,-6.12303176911189E-017,-1.0));
#427=DIRECTION('',(1.0,0.0,0.0));
#428=SURFACE_STYLE_FILL_AREA(#531);
#429=ORIENTED_EDGE('',*,*,#131,.F.);
#430=ORIENTED_EDGE('',*,*,#69,.F.);
#431=ORIENTED_EDGE('',*,*,#143,.T.);
#432=ORIENTED_EDGE('',*,*,#77,.T.);
#433=CARTESIAN_POINT('',(6.0,0.0,0.0));
#434=DIRECTION('',(0.0,-6.12303176911189E-017,-1.0));
#435=DIRECTION('',(1.0,0.0,0.0));
#436=CARTESIAN_POINT('',(0.0,2.75536429610035E-016,4.5));
#437=DIRECTION('',(0.0,-6.12303176911189E-017,-1.0));
#438=DIRECTION('',(1.0,0.0,0.0));
#439=DIRECTION('',(0.0,-6.12303176911189E-017,-1.0));
#440=CARTESIAN_POINT('',(0.0,3.06151588455594E-016,5.0));
#441=DIRECTION('',(0.0,-6.12303176911189E-017,-1.0));
#442=DIRECTION('',(1.0,0.0,0.0));
#443=SURFACE_STYLE_FILL_AREA(#532);
#444=ORIENTED_EDGE('',*,*,#127,.T.);
#445=ORIENTED_EDGE('',*,*,#83,.F.);
#446=ORIENTED_EDGE('',*,*,#113,.T.);
#447=ORIENTED_EDGE('',*,*,#87,.T.);
#448=CARTESIAN_POINT('',(0.0,2.90844009032815E-016,4.75));
#449=DIRECTION('',(0.0,-6.12303176911189E-017,-1.0));
#450=DIRECTION('',(1.0,0.0,0.0));
#451=CARTESIAN_POINT('',(0.0,2.75536429610035E-016,4.5));
#452=DIRECTION('',(0.0,-6.12303176911189E-017,-1.0));
#453=DIRECTION('',(1.0,0.0,0.0));
#454=SURFACE_STYLE_FILL_AREA(#533);
#455=ORIENTED_EDGE('',*,*,#121,.F.);
#456=ORIENTED_EDGE('',*,*,#131,.T.);
#457=ORIENTED_EDGE('',*,*,#137,.F.);
#458=ORIENTED_EDGE('',*,*,#75,.F.);
#459=CARTESIAN_POINT('',(0.0,-2.44921270764475E-016,-4.0));
#460=DIRECTION('',(-0.0,6.12303176911189E-017,1.0));
#461=DIRECTION('',(1.0,0.0,0.0));
#462=SURFACE_STYLE_FILL_AREA(#534);
#463=ORIENTED_EDGE('',*,*,#105,.T.);
#464=ORIENTED_EDGE('',*,*,#79,.T.);
#465=CARTESIAN_POINT('',(1.8,-6.12303176911189E-016,-10.0));
#466=DIRECTION('',(0.0,-6.12303176911189E-017,-1.0));
#467=DIRECTION('',(1.0,0.0,0.0));
#468=CARTESIAN_POINT('',(0.0,-6.12303176911189E-016,-10.0));
#469=DIRECTION('',(0.0,-6.12303176911189E-017,-1.0));
#470=DIRECTION('',(1.0,0.0,0.0));
#471=SURFACE_STYLE_FILL_AREA(#535);
#472=ORIENTED_EDGE('',*,*,#85,.F.);
#473=ORIENTED_EDGE('',*,*,#91,.T.);
#474=ORIENTED_EDGE('',*,*,#151,.F.);
#475=ORIENTED_EDGE('',*,*,#143,.F.);
#476=CARTESIAN_POINT('',(0.0,1.37768214805017E-016,2.25));
#477=DIRECTION('',(-0.0,6.12303176911189E-017,1.0));
#478=DIRECTION('',(1.0,0.0,0.0));
#479=CARTESIAN_POINT('',(0.0,3.06151588455594E-016,5.0));
#480=DIRECTION('',(0.0,-6.12303176911189E-017,-1.0));
#481=DIRECTION('',(1.0,0.0,0.0));
#482=DIRECTION('',(0.707106781186547,1.2988911856079E-016,0.707106781186548));
#483=SURFACE_STYLE_FILL_AREA(#536);
#484=ORIENTED_EDGE('',*,*,#85,.T.);
#485=ORIENTED_EDGE('',*,*,#77,.F.);
#486=ORIENTED_EDGE('',*,*,#151,.T.);
#487=ORIENTED_EDGE('',*,*,#83,.T.);
#488=CARTESIAN_POINT('',(0.0,1.37768214805017E-016,2.25));
#489=DIRECTION('',(-0.0,6.12303176911189E-017,1.0));
#490=DIRECTION('',(1.0,0.0,0.0));
#491=DIRECTION('',(0.0,-6.12303176911189E-017,-1.0));
#492=DIRECTION('',(-0.196116135138184,3.60247597765962E-017,0.98058067569092));
#493=DIRECTION('',(0.707106781186547,4.32963728535968E-017,-0.707106781186548));
#494=SURFACE_STYLE_FILL_AREA(#537);
#495=ORIENTED_EDGE('',*,*,#73,.F.);
#496=ORIENTED_EDGE('',*,*,#75,.T.);
#497=ORIENTED_EDGE('',*,*,#123,.F.);
#498=ORIENTED_EDGE('',*,*,#105,.F.);
#499=CARTESIAN_POINT('',(0.0,-5.5107285922007E-016,-9.0));
#500=DIRECTION('',(-0.0,6.12303176911189E-017,1.0));
#501=DIRECTION('',(1.0,0.0,0.0));
#502=CARTESIAN_POINT('',(0.0,0.0,0.0));
#503=DIRECTION('',(0.0,-6.12303176911189E-017,-1.0));
#504=DIRECTION('',(1.0,0.0,0.0));
#505=SURFACE_STYLE_FILL_AREA(#538);
#506=ORIENTED_EDGE('',*,*,#73,.T.);
#507=ORIENTED_EDGE('',*,*,#79,.F.);
#508=ORIENTED_EDGE('',*,*,#123,.T.);
#509=ORIENTED_EDGE('',*,*,#145,.T.);
#510=CARTESIAN_POINT('',(0.0,-5.5107285922007E-016,-9.0));
#511=DIRECTION('',(-0.0,6.12303176911189E-017,1.0));
#512=DIRECTION('',(1.0,0.0,0.0));
#513=DIRECTION('',(-0.0,6.12303176911189E-017,1.0));
#514=CARTESIAN_POINT('',(0.0,0.0,0.0));
#515=DIRECTION('',(0.0,-6.12303176911189E-017,-1.0));
#516=DIRECTION('',(1.0,0.0,0.0));
#517=CARTESIAN_POINT('',(0.0,-4.89842541528951E-016,-8.0));
#518=DIRECTION('',(0.0,-6.12303176911189E-017,-1.0));
#519=DIRECTION('',(1.0,0.0,0.0));
#520=SURFACE_STYLE_FILL_AREA(#539);
#521=ORIENTED_EDGE('',*,*,#121,.T.);
#522=ORIENTED_EDGE('',*,*,#145,.F.);
#523=ORIENTED_EDGE('',*,*,#137,.T.);
#524=ORIENTED_EDGE('',*,*,#69,.T.);
#525=CARTESIAN_POINT('',(0.0,-2.44921270764475E-016,-4.0));
#526=DIRECTION('',(-0.0,6.12303176911189E-017,1.0));
#527=DIRECTION('',(1.0,0.0,0.0));
#528=DIRECTION('',(-0.0,6.12303176911189E-017,1.0));
#529=FILL_AREA_STYLE('',(#540));
#530=FILL_AREA_STYLE('',(#541));
#531=FILL_AREA_STYLE('',(#542));
#532=FILL_AREA_STYLE('',(#543));
#533=FILL_AREA_STYLE('',(#544));
#534=FILL_AREA_STYLE('',(#545));
#535=FILL_AREA_STYLE('',(#546));
#536=FILL_AREA_STYLE('',(#547));
#537=FILL_AREA_STYLE('',(#548));
#538=FILL_AREA_STYLE('',(#549));
#539=FILL_AREA_STYLE('',(#550));
#540=FILL_AREA_STYLE_COLOUR('',#551);
#541=FILL_AREA_STYLE_COLOUR('',#552);
#542=FILL_AREA_STYLE_COLOUR('',#553);
#543=FILL_AREA_STYLE_COLOUR('',#554);
#544=FILL_AREA_STYLE_COLOUR('',#555);
#545=FILL_AREA_STYLE_COLOUR('',#556);
#546=FILL_AREA_STYLE_COLOUR('',#557);
#547=FILL_AREA_STYLE_COLOUR('',#558);
#548=FILL_AREA_STYLE_COLOUR('',#559);
#549=FILL_AREA_STYLE_COLOUR('',#560);
#550=FILL_AREA_STYLE_COLOUR('',#561);
#551=COLOUR_RGB('',0.509803950786591,0.509803950786591,0.588235318660736);
#552=COLOUR_RGB('',0.509803950786591,0.509803950786591,0.588235318660736);
#553=COLOUR_RGB('',0.509803950786591,0.509803950786591,0.588235318660736);
#554=COLOUR_RGB('',0.509803950786591,0.509803950786591,0.588235318660736);
#555=COLOUR_RGB('',0.509803950786591,0.509803950786591,0.588235318660736);
#556=COLOUR_RGB('',0.509803950786591,0.509803950786591,0.588235318660736);
#557=COLOUR_RGB('',0.509803950786591,0.509803950786591,0.588235318660736);
#558=COLOUR_RGB('',0.509803950786591,0.509803950786591,0.588235318660736);
#559=COLOUR_RGB('',0.509803950786591,0.509803950786591,0.588235318660736);
#560=COLOUR_RGB('',0.509803950786591,0.509803950786591,0.588235318660736);
#561=COLOUR_RGB('',0.509803950786591,0.509803950786591,0.588235318660736);
ENDSEC;
END-ISO-10303-21;
