ISO-10303-21;
HEADER;
FILE_DESCRIPTION(('STEP AP214'),'1');
FILE_NAME(' ','  ',('TraceParts'),('TraceParts S.A.'),'XStep 1.0',' ',' ');
FILE_SCHEMA(('automotive_design'));
ENDSEC;
DATA;
#1=MECHANICAL_DESIGN_GEOMETRIC_PRESENTATION_REPRESENTATION(' ',(#10,#11,#12,#13,#14,#15,#16,#17,#18,#19,#20,#21,#22,#23,#24,#25,#26,#27,#28,#29,#30,#31,#32,#33,#34,#35,#36,#37,#38,#39,#40,#41,#42,#43,#44,#45,#46,#47,#48,#49,#50,#51,#52,#53),#6);
#2=PRODUCT_DEFINITION_CONTEXT('',#54,'design');
#3=APPLICATION_PROTOCOL_DEFINITION('INTERNATIONAL STANDARD','automotive_design',1994,#54);
#4=PRODUCT_CATEGORY_RELATIONSHIP('NONE','NONE',#55,#56);
#5=SHAPE_DEFINITION_REPRESENTATION(#57,#58);
#6= (GEOMETRIC_REPRESENTATION_CONTEXT(3)GLOBAL_UNCERTAINTY_ASSIGNED_CONTEXT((#61))GLOBAL_UNIT_ASSIGNED_CONTEXT((#63,#64,#65))REPRESENTATION_CONTEXT('NONE','WORKSPACE'));
#10=STYLED_ITEM('',(#67),#68);
#11=STYLED_ITEM('',(#69),#70);
#12=STYLED_ITEM('',(#71),#72);
#13=STYLED_ITEM('',(#73),#74);
#14=STYLED_ITEM('',(#75),#76);
#15=STYLED_ITEM('',(#77),#78);
#16=STYLED_ITEM('',(#79),#80);
#17=STYLED_ITEM('',(#81),#82);
#18=STYLED_ITEM('',(#83),#84);
#19=STYLED_ITEM('',(#85),#86);
#20=STYLED_ITEM('',(#87),#88);
#21=STYLED_ITEM('',(#89),#90);
#22=STYLED_ITEM('',(#91),#92);
#23=STYLED_ITEM('',(#93),#94);
#24=STYLED_ITEM('',(#95),#96);
#25=STYLED_ITEM('',(#97),#98);
#26=STYLED_ITEM('',(#99),#100);
#27=STYLED_ITEM('',(#101),#102);
#28=STYLED_ITEM('',(#103),#104);
#29=STYLED_ITEM('',(#105),#106);
#30=STYLED_ITEM('',(#107),#108);
#31=STYLED_ITEM('',(#109),#110);
#32=STYLED_ITEM('',(#111),#112);
#33=STYLED_ITEM('',(#113),#114);
#34=STYLED_ITEM('',(#115),#116);
#35=STYLED_ITEM('',(#117),#118);
#36=STYLED_ITEM('',(#119),#120);
#37=STYLED_ITEM('',(#121),#122);
#38=STYLED_ITEM('',(#123),#124);
#39=STYLED_ITEM('',(#125),#126);
#40=STYLED_ITEM('',(#127),#128);
#41=STYLED_ITEM('',(#129),#130);
#42=STYLED_ITEM('',(#131),#132);
#43=STYLED_ITEM('',(#133),#134);
#44=STYLED_ITEM('',(#135),#136);
#45=STYLED_ITEM('',(#137),#138);
#46=STYLED_ITEM('',(#139),#140);
#47=STYLED_ITEM('',(#141),#142);
#48=STYLED_ITEM('',(#143),#144);
#49=STYLED_ITEM('',(#145),#146);
#50=STYLED_ITEM('',(#147),#148);
#51=STYLED_ITEM('',(#149),#150);
#52=STYLED_ITEM('',(#151),#152);
#53=STYLED_ITEM('',(#153),#154);
#54=APPLICATION_CONTEXT(' ');
#55=PRODUCT_CATEGORY('part','NONE');
#56=PRODUCT_RELATED_PRODUCT_CATEGORY('detail',' ',(#155));
#57=PRODUCT_DEFINITION_SHAPE('NONE','NONE',#156);
#58=ADVANCED_BREP_SHAPE_REPRESENTATION('1',(#74,#157),#6);
#61=UNCERTAINTY_MEASURE_WITH_UNIT(LENGTH_MEASURE(1.0E-006),#63,'','');
#63= (CONVERSION_BASED_UNIT('MILLIMETRE',#160)LENGTH_UNIT()NAMED_UNIT(#163));
#64= (NAMED_UNIT(#165)PLANE_ANGLE_UNIT()SI_UNIT($,.RADIAN.));
#65= (NAMED_UNIT(#165)SOLID_ANGLE_UNIT()SI_UNIT($,.STERADIAN.));
#67=PRESENTATION_STYLE_ASSIGNMENT((#171));
#68=EDGE_CURVE('',#90,#130,#172,.T.);
#69=PRESENTATION_STYLE_ASSIGNMENT((#173));
#70=EDGE_CURVE('',#130,#140,#174,.T.);
#71=PRESENTATION_STYLE_ASSIGNMENT((#175));
#72=EDGE_CURVE('',#136,#150,#176,.T.);
#73=PRESENTATION_STYLE_ASSIGNMENT((#177));
#74=MANIFOLD_SOLID_BREP('1',#178);
#75=PRESENTATION_STYLE_ASSIGNMENT((#179));
#76=EDGE_CURVE('',#140,#152,#180,.T.);
#77=PRESENTATION_STYLE_ASSIGNMENT((#181));
#78=ADVANCED_FACE('',(#182),#183,.T.);
#79=PRESENTATION_STYLE_ASSIGNMENT((#184));
#80=EDGE_CURVE('',#146,#82,#185,.T.);
#81=PRESENTATION_STYLE_ASSIGNMENT((#186));
#82=VERTEX_POINT('',#187);
#83=PRESENTATION_STYLE_ASSIGNMENT((#188));
#84=EDGE_CURVE('',#92,#130,#189,.T.);
#85=PRESENTATION_STYLE_ASSIGNMENT((#190));
#86=EDGE_CURVE('',#104,#122,#191,.T.);
#87=PRESENTATION_STYLE_ASSIGNMENT((#192));
#88=EDGE_CURVE('',#130,#90,#193,.T.);
#89=PRESENTATION_STYLE_ASSIGNMENT((#194));
#90=VERTEX_POINT('',#195);
#91=PRESENTATION_STYLE_ASSIGNMENT((#196));
#92=VERTEX_POINT('',#197);
#93=PRESENTATION_STYLE_ASSIGNMENT((#198));
#94=EDGE_CURVE('',#108,#92,#199,.T.);
#95=PRESENTATION_STYLE_ASSIGNMENT((#200));
#96=EDGE_CURVE('',#146,#104,#201,.T.);
#97=PRESENTATION_STYLE_ASSIGNMENT((#202));
#98=ADVANCED_FACE('',(#203),#204,.T.);
#99=PRESENTATION_STYLE_ASSIGNMENT((#205));
#100=ADVANCED_FACE('',(#206),#207,.T.);
#101=PRESENTATION_STYLE_ASSIGNMENT((#208));
#102=EDGE_CURVE('',#122,#104,#209,.T.);
#103=PRESENTATION_STYLE_ASSIGNMENT((#210));
#104=VERTEX_POINT('',#211);
#105=PRESENTATION_STYLE_ASSIGNMENT((#212));
#106=EDGE_CURVE('',#152,#140,#213,.T.);
#107=PRESENTATION_STYLE_ASSIGNMENT((#214));
#108=VERTEX_POINT('',#215);
#109=PRESENTATION_STYLE_ASSIGNMENT((#216));
#110=EDGE_CURVE('',#122,#82,#217,.T.);
#111=PRESENTATION_STYLE_ASSIGNMENT((#218));
#112=ADVANCED_FACE('',(#219),#220,.T.);
#113=PRESENTATION_STYLE_ASSIGNMENT((#221));
#114=ADVANCED_FACE('',(#222),#223,.T.);
#115=PRESENTATION_STYLE_ASSIGNMENT((#224));
#116=ADVANCED_FACE('',(#225),#226,.T.);
#117=PRESENTATION_STYLE_ASSIGNMENT((#227));
#118=EDGE_CURVE('',#90,#108,#228,.T.);
#119=PRESENTATION_STYLE_ASSIGNMENT((#229));
#120=EDGE_CURVE('',#92,#108,#230,.T.);
#121=PRESENTATION_STYLE_ASSIGNMENT((#231));
#122=VERTEX_POINT('',#232);
#123=PRESENTATION_STYLE_ASSIGNMENT((#233));
#124=ADVANCED_FACE('',(#234),#235,.T.);
#125=PRESENTATION_STYLE_ASSIGNMENT((#236));
#126=ADVANCED_FACE('',(#237),#238,.T.);
#127=PRESENTATION_STYLE_ASSIGNMENT((#239));
#128=EDGE_CURVE('',#150,#136,#240,.T.);
#129=PRESENTATION_STYLE_ASSIGNMENT((#241));
#130=VERTEX_POINT('',#242);
#131=PRESENTATION_STYLE_ASSIGNMENT((#243));
#132=EDGE_CURVE('',#152,#90,#244,.T.);
#133=PRESENTATION_STYLE_ASSIGNMENT((#245));
#134=EDGE_CURVE('',#136,#146,#246,.T.);
#135=PRESENTATION_STYLE_ASSIGNMENT((#247));
#136=VERTEX_POINT('',#248);
#137=PRESENTATION_STYLE_ASSIGNMENT((#249));
#138=ADVANCED_FACE('',(#250,#251),#252,.T.);
#139=PRESENTATION_STYLE_ASSIGNMENT((#253));
#140=VERTEX_POINT('',#254);
#141=PRESENTATION_STYLE_ASSIGNMENT((#255));
#142=EDGE_CURVE('',#82,#150,#256,.T.);
#143=PRESENTATION_STYLE_ASSIGNMENT((#257));
#144=ADVANCED_FACE('',(#258),#259,.T.);
#145=PRESENTATION_STYLE_ASSIGNMENT((#260));
#146=VERTEX_POINT('',#261);
#147=PRESENTATION_STYLE_ASSIGNMENT((#262));
#148=ADVANCED_FACE('',(#263),#264,.T.);
#149=PRESENTATION_STYLE_ASSIGNMENT((#265));
#150=VERTEX_POINT('',#266);
#151=PRESENTATION_STYLE_ASSIGNMENT((#267));
#152=VERTEX_POINT('',#268);
#153=PRESENTATION_STYLE_ASSIGNMENT((#269));
#154=EDGE_CURVE('',#82,#146,#270,.T.);
#155=PRODUCT('1','1','PART-1-DESC',(#271));
#156=PRODUCT_DEFINITION('NONE','NONE',#272,#2);
#157=AXIS2_PLACEMENT_3D('',#273,#274,#275);
#160=LENGTH_MEASURE_WITH_UNIT(LENGTH_MEASURE(1.0),#276);
#163=DIMENSIONAL_EXPONENTS(1.0,0.0,0.0,0.0,0.0,0.0,0.0);
#165=DIMENSIONAL_EXPONENTS(0.0,0.0,0.0,0.0,0.0,0.0,0.0);
#171=CURVE_STYLE('',#277,POSITIVE_LENGTH_MEASURE(1.0E-006),#278);
#172=CIRCLE('',#279,8.0);
#173=CURVE_STYLE('',#280,POSITIVE_LENGTH_MEASURE(1.0E-006),#281);
#174=LINE('',#282,#283);
#175=CURVE_STYLE('',#284,POSITIVE_LENGTH_MEASURE(1.0E-006),#285);
#176=CIRCLE('',#286,4.0);
#177=SURFACE_STYLE_USAGE(.BOTH.,#287);
#178=CLOSED_SHELL('',(#116,#98,#124,#112,#100,#148,#78,#138,#114,#144,#126));
#179=CURVE_STYLE('',#288,POSITIVE_LENGTH_MEASURE(1.0E-006),#289);
#180=CIRCLE('',#290,8.0);
#181=SURFACE_STYLE_USAGE(.BOTH.,#291);
#182=FACE_OUTER_BOUND('',#292,.T.);
#183=CYLINDRICAL_SURFACE('',#293,4.0);
#184=CURVE_STYLE('',#294,POSITIVE_LENGTH_MEASURE(1.0E-006),#295);
#185=CIRCLE('',#296,4.0);
#186=POINT_STYLE(' ',#297,POSITIVE_LENGTH_MEASURE(1.0E-006),#298);
#187=CARTESIAN_POINT('',(6.46237264501468E-015,-3.99999999999997,-11.0000000000001));
#188=CURVE_STYLE('',#299,POSITIVE_LENGTH_MEASURE(1.0E-006),#300);
#189=LINE('',#301,#302);
#190=CURVE_STYLE('',#303,POSITIVE_LENGTH_MEASURE(1.0E-006),#304);
#191=CIRCLE('',#305,3.7320508075689);
#192=CURVE_STYLE('',#306,POSITIVE_LENGTH_MEASURE(1.0E-006),#307);
#193=CIRCLE('',#308,8.0);
#194=POINT_STYLE(' ',#309,POSITIVE_LENGTH_MEASURE(1.0E-006),#310);
#195=CARTESIAN_POINT('',(6.76852423347027E-015,-7.99999999999997,5.99999999999994));
#196=POINT_STYLE(' ',#311,POSITIVE_LENGTH_MEASURE(1.0E-006),#312);
#197=CARTESIAN_POINT('',(-9.86193869101325E-013,7.46410161513776,7.99999999999997));
#198=CURVE_STYLE('',#313,POSITIVE_LENGTH_MEASURE(1.0E-006),#314);
#199=CIRCLE('',#315,7.46410161513774);
#200=CURVE_STYLE('',#316,POSITIVE_LENGTH_MEASURE(1.0E-006),#317);
#201=LINE('',#318,#319);
#202=SURFACE_STYLE_USAGE(.BOTH.,#320);
#203=FACE_OUTER_BOUND('',#321,.T.);
#204=CYLINDRICAL_SURFACE('',#322,8.0);
#205=SURFACE_STYLE_USAGE(.BOTH.,#323);
#206=FACE_OUTER_BOUND('',#324,.T.);
#207=PLANE('',#325);
#208=CURVE_STYLE('',#326,POSITIVE_LENGTH_MEASURE(1.0E-006),#327);
#209=CIRCLE('',#328,3.7320508075689);
#210=POINT_STYLE(' ',#329,POSITIVE_LENGTH_MEASURE(1.0E-006),#330);
#211=CARTESIAN_POINT('',(-4.89528981480858E-013,3.73205080756893,-12.0000000000001));
#212=CURVE_STYLE('',#331,POSITIVE_LENGTH_MEASURE(1.0E-006),#332);
#213=CIRCLE('',#333,8.0);
#214=POINT_STYLE(' ',#334,POSITIVE_LENGTH_MEASURE(1.0E-006),#335);
#215=CARTESIAN_POINT('',(6.98942455391834E-015,-7.46410161513771,7.99999999999997));
#216=CURVE_STYLE('',#336,POSITIVE_LENGTH_MEASURE(1.0E-006),#337);
#217=LINE('',#338,#339);
#218=SURFACE_STYLE_USAGE(.BOTH.,#340);
#219=FACE_OUTER_BOUND('',#341,.T.);
#220=CONICAL_SURFACE('',#342,3.86602540378445,0.261799387799132);
#221=SURFACE_STYLE_USAGE(.BOTH.,#343);
#222=FACE_OUTER_BOUND('',#344,.T.);
#223=CYLINDRICAL_SURFACE('',#345,8.0);
#224=SURFACE_STYLE_USAGE(.BOTH.,#346);
#225=FACE_OUTER_BOUND('',#347,.T.);
#226=CONICAL_SURFACE('',#348,7.73205080756887,0.261799387799155);
#227=CURVE_STYLE('',#349,POSITIVE_LENGTH_MEASURE(1.0E-006),#350);
#228=LINE('',#351,#352);
#229=CURVE_STYLE('',#353,POSITIVE_LENGTH_MEASURE(1.0E-006),#354);
#230=CIRCLE('',#355,7.46410161513774);
#231=POINT_STYLE(' ',#356,POSITIVE_LENGTH_MEASURE(1.0E-006),#357);
#232=CARTESIAN_POINT('',(6.45036216985647E-015,-3.73205080756887,-12.0000000000001));
#233=SURFACE_STYLE_USAGE(.BOTH.,#358);
#234=FACE_OUTER_BOUND('',#359,.T.);
#235=CYLINDRICAL_SURFACE('',#360,4.0);
#236=SURFACE_STYLE_USAGE(.BOTH.,#361);
#237=FACE_OUTER_BOUND('',#362,.T.);
#238=PLANE('',#363);
#239=CURVE_STYLE('',#364,POSITIVE_LENGTH_MEASURE(1.0E-006),#365);
#240=CIRCLE('',#366,4.0);
#241=POINT_STYLE(' ',#367,POSITIVE_LENGTH_MEASURE(1.0E-006),#368);
#242=CARTESIAN_POINT('',(-1.05751173823478E-012,8.00000000000003,5.99999999999994));
#243=CURVE_STYLE('',#369,POSITIVE_LENGTH_MEASURE(1.0E-006),#370);
#244=LINE('',#371,#372);
#245=CURVE_STYLE('',#373,POSITIVE_LENGTH_MEASURE(1.0E-006),#374);
#246=LINE('',#375,#376);
#247=POINT_STYLE(' ',#377,POSITIVE_LENGTH_MEASURE(1.0E-006),#378);
#248=CARTESIAN_POINT('',(-5.25187916047583E-013,4.00000000000003,-5.6843418860808E-014));
#249=SURFACE_STYLE_USAGE(.BOTH.,#379);
#250=FACE_OUTER_BOUND('',#380,.T.);
#251=FACE_BOUND('',#381,.T.);
#252=PLANE('',#382);
#253=POINT_STYLE(' ',#383,POSITIVE_LENGTH_MEASURE(1.0E-006),#384);
#254=CARTESIAN_POINT('',(-1.05751173823478E-012,8.00000000000003,-5.6843418860808E-014));
#255=CURVE_STYLE('',#385,POSITIVE_LENGTH_MEASURE(1.0E-006),#386);
#256=LINE('',#387,#388);
#257=SURFACE_STYLE_USAGE(.BOTH.,#389);
#258=FACE_OUTER_BOUND('',#390,.T.);
#259=CONICAL_SURFACE('',#391,7.73205080756887,0.261799387799155);
#260=POINT_STYLE(' ',#392,POSITIVE_LENGTH_MEASURE(1.0E-006),#393);
#261=CARTESIAN_POINT('',(-5.25187916047583E-013,4.00000000000003,-11.0000000000001));
#262=SURFACE_STYLE_USAGE(.BOTH.,#394);
#263=FACE_OUTER_BOUND('',#395,.T.);
#264=CONICAL_SURFACE('',#396,3.86602540378445,0.261799387799132);
#265=POINT_STYLE(' ',#397,POSITIVE_LENGTH_MEASURE(1.0E-006),#398);
#266=CARTESIAN_POINT('',(7.13590613961699E-015,-3.99999999999997,-5.6843418860808E-014));
#267=POINT_STYLE(' ',#399,POSITIVE_LENGTH_MEASURE(1.0E-006),#400);
#268=CARTESIAN_POINT('',(6.40114232732356E-015,-7.99999999999997,-5.6843418860808E-014));
#269=CURVE_STYLE('',#401,POSITIVE_LENGTH_MEASURE(1.0E-006),#402);
#270=CIRCLE('',#403,4.0);
#271=PRODUCT_CONTEXT('',#54,'mechanical');
#272=PRODUCT_DEFINITION_FORMATION_WITH_SPECIFIED_SOURCE(' ','NONE',#155,.NOT_KNOWN.);
#273=CARTESIAN_POINT('',(0.0,0.0,0.0));
#274=DIRECTION('',(0.0,0.0,1.0));
#275=DIRECTION('',(1.0,0.0,0.0));
#276= (NAMED_UNIT(#163)LENGTH_UNIT()SI_UNIT(.MILLI.,.METRE.));
#277=DRAUGHTING_PRE_DEFINED_CURVE_FONT('continuous');
#278=COLOUR_RGB('',0.509803950786591,0.509803950786591,0.588235318660736);
#279=AXIS2_PLACEMENT_3D('',#405,#406,#407);
#280=DRAUGHTING_PRE_DEFINED_CURVE_FONT('continuous');
#281=COLOUR_RGB('',0.509803950786591,0.509803950786591,0.588235318660736);
#282=CARTESIAN_POINT('',(-1.05751173823478E-012,8.00000000000003,2.99999999999994));
#283=VECTOR('',#408,1.0);
#284=DRAUGHTING_PRE_DEFINED_CURVE_FONT('continuous');
#285=COLOUR_RGB('',0.509803950786591,0.509803950786591,0.588235318660736);
#286=AXIS2_PLACEMENT_3D('',#409,#410,#411);
#287=SURFACE_SIDE_STYLE('',(#412));
#288=DRAUGHTING_PRE_DEFINED_CURVE_FONT('continuous');
#289=COLOUR_RGB('',0.509803950786591,0.509803950786591,0.588235318660736);
#290=AXIS2_PLACEMENT_3D('',#413,#414,#415);
#291=SURFACE_SIDE_STYLE('',(#416));
#292=EDGE_LOOP('',(#417,#418,#419,#420));
#293=AXIS2_PLACEMENT_3D('',#421,#422,#423);
#294=DRAUGHTING_PRE_DEFINED_CURVE_FONT('continuous');
#295=COLOUR_RGB('',0.509803950786591,0.509803950786591,0.588235318660736);
#296=AXIS2_PLACEMENT_3D('',#424,#425,#426);
#297=PRE_DEFINED_MARKER('');
#298=COLOUR_RGB('',0.509803950786591,0.509803950786591,0.588235318660736);
#299=DRAUGHTING_PRE_DEFINED_CURVE_FONT('continuous');
#300=COLOUR_RGB('',0.509803950786591,0.509803950786591,0.588235318660736);
#301=CARTESIAN_POINT('',(-1.02185280366805E-012,7.7320508075689,6.99999999999996));
#302=VECTOR('',#427,1.0);
#303=DRAUGHTING_PRE_DEFINED_CURVE_FONT('continuous');
#304=COLOUR_RGB('',0.509803950786591,0.509803950786591,0.588235318660736);
#305=AXIS2_PLACEMENT_3D('',#428,#429,#430);
#306=DRAUGHTING_PRE_DEFINED_CURVE_FONT('continuous');
#307=COLOUR_RGB('',0.509803950786591,0.509803950786591,0.588235318660736);
#308=AXIS2_PLACEMENT_3D('',#431,#432,#433);
#309=PRE_DEFINED_MARKER('');
#310=COLOUR_RGB('',0.509803950786591,0.509803950786591,0.588235318660736);
#311=PRE_DEFINED_MARKER('');
#312=COLOUR_RGB('',0.509803950786591,0.509803950786591,0.588235318660736);
#313=DRAUGHTING_PRE_DEFINED_CURVE_FONT('continuous');
#314=COLOUR_RGB('',0.509803950786591,0.509803950786591,0.588235318660736);
#315=AXIS2_PLACEMENT_3D('',#434,#435,#436);
#316=DRAUGHTING_PRE_DEFINED_CURVE_FONT('continuous');
#317=COLOUR_RGB('',0.509803950786591,0.509803950786591,0.588235318660736);
#318=CARTESIAN_POINT('',(-5.0735844876422E-013,3.86602540378448,-11.5000000000001));
#319=VECTOR('',#437,1.0);
#320=SURFACE_SIDE_STYLE('',(#438));
#321=EDGE_LOOP('',(#439,#440,#441,#442));
#322=AXIS2_PLACEMENT_3D('',#443,#444,#445);
#323=SURFACE_SIDE_STYLE('',(#446));
#324=EDGE_LOOP('',(#447,#448));
#325=AXIS2_PLACEMENT_3D('',#449,#450,#451);
#326=DRAUGHTING_PRE_DEFINED_CURVE_FONT('continuous');
#327=COLOUR_RGB('',0.509803950786591,0.509803950786591,0.588235318660736);
#328=AXIS2_PLACEMENT_3D('',#452,#453,#454);
#329=PRE_DEFINED_MARKER('');
#330=COLOUR_RGB('',0.509803950786591,0.509803950786591,0.588235318660736);
#331=DRAUGHTING_PRE_DEFINED_CURVE_FONT('continuous');
#332=COLOUR_RGB('',0.509803950786591,0.509803950786591,0.588235318660736);
#333=AXIS2_PLACEMENT_3D('',#455,#456,#457);
#334=PRE_DEFINED_MARKER('');
#335=COLOUR_RGB('',0.509803950786591,0.509803950786591,0.588235318660736);
#336=DRAUGHTING_PRE_DEFINED_CURVE_FONT('continuous');
#337=COLOUR_RGB('',0.509803950786591,0.509803950786591,0.588235318660736);
#338=CARTESIAN_POINT('',(5.21630261043455E-013,-3.86602540378442,-11.5000000000001));
#339=VECTOR('',#458,1.0);
#340=SURFACE_SIDE_STYLE('',(#459));
#341=EDGE_LOOP('',(#460,#461,#462,#463));
#342=AXIS2_PLACEMENT_3D('',#464,#465,#466);
#343=SURFACE_SIDE_STYLE('',(#467));
#344=EDGE_LOOP('',(#468,#469,#470,#471));
#345=AXIS2_PLACEMENT_3D('',#472,#473,#474);
#346=SURFACE_SIDE_STYLE('',(#475));
#347=EDGE_LOOP('',(#476,#477,#478,#479));
#348=AXIS2_PLACEMENT_3D('',#480,#481,#482);
#349=DRAUGHTING_PRE_DEFINED_CURVE_FONT('continuous');
#350=COLOUR_RGB('',0.509803950786591,0.509803950786591,0.588235318660736);
#351=CARTESIAN_POINT('',(1.03612461594729E-012,-7.73205080756884,6.99999999999996));
#352=VECTOR('',#483,1.0);
#353=DRAUGHTING_PRE_DEFINED_CURVE_FONT('continuous');
#354=COLOUR_RGB('',0.509803950786591,0.509803950786591,0.588235318660736);
#355=AXIS2_PLACEMENT_3D('',#484,#485,#486);
#356=PRE_DEFINED_MARKER('');
#357=COLOUR_RGB('',0.509803950786591,0.509803950786591,0.588235318660736);
#358=SURFACE_SIDE_STYLE('',(#487));
#359=EDGE_LOOP('',(#488,#489,#490,#491));
#360=AXIS2_PLACEMENT_3D('',#492,#493,#494);
#361=SURFACE_SIDE_STYLE('',(#495));
#362=EDGE_LOOP('',(#496,#497));
#363=AXIS2_PLACEMENT_3D('',#498,#499,#500);
#364=DRAUGHTING_PRE_DEFINED_CURVE_FONT('continuous');
#365=COLOUR_RGB('',0.509803950786591,0.509803950786591,0.588235318660736);
#366=AXIS2_PLACEMENT_3D('',#501,#502,#503);
#367=PRE_DEFINED_MARKER('');
#368=COLOUR_RGB('',0.509803950786591,0.509803950786591,0.588235318660736);
#369=DRAUGHTING_PRE_DEFINED_CURVE_FONT('continuous');
#370=COLOUR_RGB('',0.509803950786591,0.509803950786591,0.588235318660736);
#371=CARTESIAN_POINT('',(1.07178355051402E-012,-7.99999999999997,2.99999999999994));
#372=VECTOR('',#504,1.0);
#373=DRAUGHTING_PRE_DEFINED_CURVE_FONT('continuous');
#374=COLOUR_RGB('',0.509803950786591,0.509803950786591,0.588235318660736);
#375=CARTESIAN_POINT('',(-5.25187916047583E-013,4.00000000000003,-5.50000000000006));
#376=VECTOR('',#505,1.0);
#377=PRE_DEFINED_MARKER('');
#378=COLOUR_RGB('',0.509803950786591,0.509803950786591,0.588235318660736);
#379=SURFACE_SIDE_STYLE('',(#506));
#380=EDGE_LOOP('',(#507,#508));
#381=EDGE_LOOP('',(#509,#510));
#382=AXIS2_PLACEMENT_3D('',#511,#512,#513);
#383=PRE_DEFINED_MARKER('');
#384=COLOUR_RGB('',0.509803950786591,0.509803950786591,0.588235318660736);
#385=DRAUGHTING_PRE_DEFINED_CURVE_FONT('continuous');
#386=COLOUR_RGB('',0.509803950786591,0.509803950786591,0.588235318660736);
#387=CARTESIAN_POINT('',(5.39459728326817E-013,-3.99999999999997,-5.50000000000006));
#388=VECTOR('',#514,1.0);
#389=SURFACE_SIDE_STYLE('',(#515));
#390=EDGE_LOOP('',(#516,#517,#518,#519));
#391=AXIS2_PLACEMENT_3D('',#520,#521,#522);
#392=PRE_DEFINED_MARKER('');
#393=COLOUR_RGB('',0.509803950786591,0.509803950786591,0.588235318660736);
#394=SURFACE_SIDE_STYLE('',(#523));
#395=EDGE_LOOP('',(#524,#525,#526,#527));
#396=AXIS2_PLACEMENT_3D('',#528,#529,#530);
#397=PRE_DEFINED_MARKER('');
#398=COLOUR_RGB('',0.509803950786591,0.509803950786591,0.588235318660736);
#399=PRE_DEFINED_MARKER('');
#400=COLOUR_RGB('',0.509803950786591,0.509803950786591,0.588235318660736);
#401=DRAUGHTING_PRE_DEFINED_CURVE_FONT('continuous');
#402=COLOUR_RGB('',0.509803950786591,0.509803950786591,0.588235318660736);
#403=AXIS2_PLACEMENT_3D('',#531,#532,#533);
#405=CARTESIAN_POINT('',(7.13590613961699E-015,2.8421709430404E-014,5.99999999999994));
#406=DIRECTION('',(0.0,0.0,1.0));
#407=DIRECTION('',(1.33203416182182E-013,-1.0,0.0));
#408=DIRECTION('',(-0.0,-0.0,-1.0));
#409=CARTESIAN_POINT('',(7.13590613961699E-015,2.8421709430404E-014,-5.6843418860808E-014));
#410=DIRECTION('',(0.0,0.0,1.0));
#411=DIRECTION('',(1.33203416182182E-013,-1.0,0.0));
#412=SURFACE_STYLE_FILL_AREA(#534);
#413=CARTESIAN_POINT('',(7.13590613961699E-015,2.8421709430404E-014,-5.6843418860808E-014));
#414=DIRECTION('',(0.0,0.0,1.0));
#415=DIRECTION('',(1.33203416182182E-013,-1.0,0.0));
#416=SURFACE_STYLE_FILL_AREA(#535);
#417=ORIENTED_EDGE('',*,*,#142,.T.);
#418=ORIENTED_EDGE('',*,*,#72,.F.);
#419=ORIENTED_EDGE('',*,*,#134,.T.);
#420=ORIENTED_EDGE('',*,*,#80,.T.);
#421=CARTESIAN_POINT('',(7.13590613961699E-015,2.8421709430404E-014,-5.50000000000006));
#422=DIRECTION('',(-0.0,-0.0,-1.0));
#423=DIRECTION('',(1.33203416182182E-013,-1.0,0.0));
#424=CARTESIAN_POINT('',(7.13590613961699E-015,2.8421709430404E-014,-11.0000000000001));
#425=DIRECTION('',(0.0,0.0,1.0));
#426=DIRECTION('',(1.33203416182182E-013,-1.0,0.0));
#427=DIRECTION('',(-3.44438858359544E-014,0.258819045102526,-0.965925826289067));
#428=CARTESIAN_POINT('',(7.13590613961699E-015,2.8421709430404E-014,-12.0000000000001));
#429=DIRECTION('',(0.0,0.0,1.0));
#430=DIRECTION('',(1.33203416182182E-013,-1.0,0.0));
#431=CARTESIAN_POINT('',(7.13590613961699E-015,2.8421709430404E-014,5.99999999999994));
#432=DIRECTION('',(0.0,0.0,1.0));
#433=DIRECTION('',(1.33203416182182E-013,-1.0,0.0));
#434=CARTESIAN_POINT('',(7.13590613961699E-015,2.8421709430404E-014,7.99999999999997));
#435=DIRECTION('',(0.0,0.0,1.0));
#436=DIRECTION('',(1.33203416182182E-013,-1.0,0.0));
#437=DIRECTION('',(3.44438858359515E-014,-0.258819045102504,-0.965925826289073));
#438=SURFACE_STYLE_FILL_AREA(#536);
#439=ORIENTED_EDGE('',*,*,#132,.F.);
#440=ORIENTED_EDGE('',*,*,#106,.T.);
#441=ORIENTED_EDGE('',*,*,#70,.F.);
#442=ORIENTED_EDGE('',*,*,#68,.F.);
#443=CARTESIAN_POINT('',(7.13590613961699E-015,2.8421709430404E-014,2.99999999999994));
#444=DIRECTION('',(-0.0,-0.0,-1.0));
#445=DIRECTION('',(1.33203416182182E-013,-1.0,0.0));
#446=SURFACE_STYLE_FILL_AREA(#537);
#447=ORIENTED_EDGE('',*,*,#102,.F.);
#448=ORIENTED_EDGE('',*,*,#86,.F.);
#449=CARTESIAN_POINT('',(6.79313415473673E-015,-1.86602540378442,-12.0));
#450=DIRECTION('',(0.0,0.0,-1.0));
#451=DIRECTION('',(1.83690953073357E-016,1.0,0.0));
#452=CARTESIAN_POINT('',(7.13590613961699E-015,2.8421709430404E-014,-12.0000000000001));
#453=DIRECTION('',(0.0,0.0,1.0));
#454=DIRECTION('',(1.33203416182182E-013,-1.0,0.0));
#455=CARTESIAN_POINT('',(7.13590613961699E-015,2.8421709430404E-014,-5.6843418860808E-014));
#456=DIRECTION('',(0.0,0.0,1.0));
#457=DIRECTION('',(1.33203416182182E-013,-1.0,0.0));
#458=DIRECTION('',(3.44438858359515E-014,-0.258819045102504,0.965925826289073));
#459=SURFACE_STYLE_FILL_AREA(#538);
#460=ORIENTED_EDGE('',*,*,#110,.F.);
#461=ORIENTED_EDGE('',*,*,#102,.T.);
#462=ORIENTED_EDGE('',*,*,#96,.F.);
#463=ORIENTED_EDGE('',*,*,#154,.F.);
#464=CARTESIAN_POINT('',(7.13590613961699E-015,2.8421709430404E-014,-11.5000000000001));
#465=DIRECTION('',(-0.0,0.0,1.0));
#466=DIRECTION('',(1.33203416182182E-013,-1.0,0.0));
#467=SURFACE_STYLE_FILL_AREA(#539);
#468=ORIENTED_EDGE('',*,*,#132,.T.);
#469=ORIENTED_EDGE('',*,*,#88,.F.);
#470=ORIENTED_EDGE('',*,*,#70,.T.);
#471=ORIENTED_EDGE('',*,*,#76,.T.);
#472=CARTESIAN_POINT('',(7.13590613961699E-015,2.8421709430404E-014,2.99999999999994));
#473=DIRECTION('',(-0.0,-0.0,-1.0));
#474=DIRECTION('',(1.33203416182182E-013,-1.0,0.0));
#475=SURFACE_STYLE_FILL_AREA(#540);
#476=ORIENTED_EDGE('',*,*,#118,.F.);
#477=ORIENTED_EDGE('',*,*,#68,.T.);
#478=ORIENTED_EDGE('',*,*,#84,.F.);
#479=ORIENTED_EDGE('',*,*,#94,.F.);
#480=CARTESIAN_POINT('',(7.13590613961699E-015,2.8421709430404E-014,6.99999999999996));
#481=DIRECTION('',(-0.0,-0.0,-1.0));
#482=DIRECTION('',(1.33203416182182E-013,-1.0,0.0));
#483=DIRECTION('',(-3.44438858359544E-014,0.258819045102526,0.965925826289067));
#484=CARTESIAN_POINT('',(7.13590613961699E-015,2.8421709430404E-014,7.99999999999997));
#485=DIRECTION('',(0.0,0.0,1.0));
#486=DIRECTION('',(1.33203416182182E-013,-1.0,0.0));
#487=SURFACE_STYLE_FILL_AREA(#541);
#488=ORIENTED_EDGE('',*,*,#142,.F.);
#489=ORIENTED_EDGE('',*,*,#154,.T.);
#490=ORIENTED_EDGE('',*,*,#134,.F.);
#491=ORIENTED_EDGE('',*,*,#128,.F.);
#492=CARTESIAN_POINT('',(7.13590613961699E-015,2.8421709430404E-014,-5.50000000000006));
#493=DIRECTION('',(-0.0,-0.0,-1.0));
#494=DIRECTION('',(1.33203416182182E-013,-1.0,0.0));
#495=SURFACE_STYLE_FILL_AREA(#542);
#496=ORIENTED_EDGE('',*,*,#94,.T.);
#497=ORIENTED_EDGE('',*,*,#120,.T.);
#498=CARTESIAN_POINT('',(7.67496852367885E-015,-3.73205080756884,7.99999999999997));
#499=DIRECTION('',(0.0,0.0,1.0));
#500=DIRECTION('',(-1.83690953073357E-016,-1.0,0.0));
#501=CARTESIAN_POINT('',(7.13590613961699E-015,2.8421709430404E-014,-5.6843418860808E-014));
#502=DIRECTION('',(0.0,0.0,1.0));
#503=DIRECTION('',(1.33203416182182E-013,-1.0,0.0));
#504=DIRECTION('',(0.0,0.0,1.0));
#505=DIRECTION('',(-0.0,-0.0,-1.0));
#506=SURFACE_STYLE_FILL_AREA(#543);
#507=ORIENTED_EDGE('',*,*,#106,.F.);
#508=ORIENTED_EDGE('',*,*,#76,.F.);
#509=ORIENTED_EDGE('',*,*,#128,.T.);
#510=ORIENTED_EDGE('',*,*,#72,.T.);
#511=CARTESIAN_POINT('',(6.76852423347027E-015,-5.99999999999997,-5.6843418860808E-014));
#512=DIRECTION('',(0.0,0.0,-1.0));
#513=DIRECTION('',(1.83690953073357E-016,1.0,0.0));
#514=DIRECTION('',(0.0,0.0,1.0));
#515=SURFACE_STYLE_FILL_AREA(#544);
#516=ORIENTED_EDGE('',*,*,#118,.T.);
#517=ORIENTED_EDGE('',*,*,#120,.F.);
#518=ORIENTED_EDGE('',*,*,#84,.T.);
#519=ORIENTED_EDGE('',*,*,#88,.T.);
#520=CARTESIAN_POINT('',(7.13590613961699E-015,2.8421709430404E-014,6.99999999999996));
#521=DIRECTION('',(-0.0,-0.0,-1.0));
#522=DIRECTION('',(1.33203416182182E-013,-1.0,0.0));
#523=SURFACE_STYLE_FILL_AREA(#545);
#524=ORIENTED_EDGE('',*,*,#110,.T.);
#525=ORIENTED_EDGE('',*,*,#80,.F.);
#526=ORIENTED_EDGE('',*,*,#96,.T.);
#527=ORIENTED_EDGE('',*,*,#86,.T.);
#528=CARTESIAN_POINT('',(7.13590613961699E-015,2.8421709430404E-014,-11.5000000000001));
#529=DIRECTION('',(-0.0,0.0,1.0));
#530=DIRECTION('',(1.33203416182182E-013,-1.0,0.0));
#531=CARTESIAN_POINT('',(7.13590613961699E-015,2.8421709430404E-014,-11.0000000000001));
#532=DIRECTION('',(0.0,0.0,1.0));
#533=DIRECTION('',(1.33203416182182E-013,-1.0,0.0));
#534=FILL_AREA_STYLE('',(#546));
#535=FILL_AREA_STYLE('',(#547));
#536=FILL_AREA_STYLE('',(#548));
#537=FILL_AREA_STYLE('',(#549));
#538=FILL_AREA_STYLE('',(#550));
#539=FILL_AREA_STYLE('',(#551));
#540=FILL_AREA_STYLE('',(#552));
#541=FILL_AREA_STYLE('',(#553));
#542=FILL_AREA_STYLE('',(#554));
#543=FILL_AREA_STYLE('',(#555));
#544=FILL_AREA_STYLE('',(#556));
#545=FILL_AREA_STYLE('',(#557));
#546=FILL_AREA_STYLE_COLOUR('',#558);
#547=FILL_AREA_STYLE_COLOUR('',#559);
#548=FILL_AREA_STYLE_COLOUR('',#560);
#549=FILL_AREA_STYLE_COLOUR('',#561);
#550=FILL_AREA_STYLE_COLOUR('',#562);
#551=FILL_AREA_STYLE_COLOUR('',#563);
#552=FILL_AREA_STYLE_COLOUR('',#564);
#553=FILL_AREA_STYLE_COLOUR('',#565);
#554=FILL_AREA_STYLE_COLOUR('',#566);
#555=FILL_AREA_STYLE_COLOUR('',#567);
#556=FILL_AREA_STYLE_COLOUR('',#568);
#557=FILL_AREA_STYLE_COLOUR('',#569);
#558=COLOUR_RGB('',0.509803950786591,0.509803950786591,0.588235318660736);
#559=COLOUR_RGB('',0.509803950786591,0.509803950786591,0.588235318660736);
#560=COLOUR_RGB('',0.509803950786591,0.509803950786591,0.588235318660736);
#561=COLOUR_RGB('',0.509803950786591,0.509803950786591,0.588235318660736);
#562=COLOUR_RGB('',0.509803950786591,0.509803950786591,0.588235318660736);
#563=COLOUR_RGB('',0.509803950786591,0.509803950786591,0.588235318660736);
#564=COLOUR_RGB('',0.509803950786591,0.509803950786591,0.588235318660736);
#565=COLOUR_RGB('',0.509803950786591,0.509803950786591,0.588235318660736);
#566=COLOUR_RGB('',0.509803950786591,0.509803950786591,0.588235318660736);
#567=COLOUR_RGB('',0.509803950786591,0.509803950786591,0.588235318660736);
#568=COLOUR_RGB('',0.509803950786591,0.509803950786591,0.588235318660736);
#569=COLOUR_RGB('',0.509803950786591,0.509803950786591,0.588235318660736);
ENDSEC;
END-ISO-10303-21;
