ISO-10303-21;
HEADER;
FILE_DESCRIPTION(('STEP AP214'),'1');
FILE_NAME(' ','  ',('TraceParts'),('TraceParts S.A.'),'XStep 1.0',' ',' ');
FILE_SCHEMA(('automotive_design'));
ENDSEC;
DATA;
#1=MECHANICAL_DESIGN_GEOMETRIC_PRESENTATION_REPRESENTATION(' ',(#10,#11,#12,#13,#14,#15,#16,#17,#18,#19,#20,#21,#22,#23,#24,#25,#26,#27,#28,#29,#30,#31,#32,#33,#34,#35,#36,#37,#38,#39,#40,#41,#42,#43,#44,#45,#46,#47,#48,#49,#50,#51,#52,#53),#6);
#2=PRODUCT_DEFINITION_CONTEXT('',#54,'design');
#3=APPLICATION_PROTOCOL_DEFINITION('INTERNATIONAL STANDARD','automotive_design',1994,#54);
#4=PRODUCT_CATEGORY_RELATIONSHIP('NONE','NONE',#55,#56);
#5=SHAPE_DEFINITION_REPRESENTATION(#57,#58);
#6= (GEOMETRIC_REPRESENTATION_CONTEXT(3)GLOBAL_UNCERTAINTY_ASSIGNED_CONTEXT((#61))GLOBAL_UNIT_ASSIGNED_CONTEXT((#63,#64,#65))REPRESENTATION_CONTEXT('NONE','WORKSPACE'));
#10=STYLED_ITEM('',(#67),#68);
#11=STYLED_ITEM('',(#69),#70);
#12=STYLED_ITEM('',(#71),#72);
#13=STYLED_ITEM('',(#73),#74);
#14=STYLED_ITEM('',(#75),#76);
#15=STYLED_ITEM('',(#77),#78);
#16=STYLED_ITEM('',(#79),#80);
#17=STYLED_ITEM('',(#81),#82);
#18=STYLED_ITEM('',(#83),#84);
#19=STYLED_ITEM('',(#85),#86);
#20=STYLED_ITEM('',(#87),#88);
#21=STYLED_ITEM('',(#89),#90);
#22=STYLED_ITEM('',(#91),#92);
#23=STYLED_ITEM('',(#93),#94);
#24=STYLED_ITEM('',(#95),#96);
#25=STYLED_ITEM('',(#97),#98);
#26=STYLED_ITEM('',(#99),#100);
#27=STYLED_ITEM('',(#101),#102);
#28=STYLED_ITEM('',(#103),#104);
#29=STYLED_ITEM('',(#105),#106);
#30=STYLED_ITEM('',(#107),#108);
#31=STYLED_ITEM('',(#109),#110);
#32=STYLED_ITEM('',(#111),#112);
#33=STYLED_ITEM('',(#113),#114);
#34=STYLED_ITEM('',(#115),#116);
#35=STYLED_ITEM('',(#117),#118);
#36=STYLED_ITEM('',(#119),#120);
#37=STYLED_ITEM('',(#121),#122);
#38=STYLED_ITEM('',(#123),#124);
#39=STYLED_ITEM('',(#125),#126);
#40=STYLED_ITEM('',(#127),#128);
#41=STYLED_ITEM('',(#129),#130);
#42=STYLED_ITEM('',(#131),#132);
#43=STYLED_ITEM('',(#133),#134);
#44=STYLED_ITEM('',(#135),#136);
#45=STYLED_ITEM('',(#137),#138);
#46=STYLED_ITEM('',(#139),#140);
#47=STYLED_ITEM('',(#141),#142);
#48=STYLED_ITEM('',(#143),#144);
#49=STYLED_ITEM('',(#145),#146);
#50=STYLED_ITEM('',(#147),#148);
#51=STYLED_ITEM('',(#149),#150);
#52=STYLED_ITEM('',(#151),#152);
#53=STYLED_ITEM('',(#153),#154);
#54=APPLICATION_CONTEXT(' ');
#55=PRODUCT_CATEGORY('part','NONE');
#56=PRODUCT_RELATED_PRODUCT_CATEGORY('detail',' ',(#155));
#57=PRODUCT_DEFINITION_SHAPE('NONE','NONE',#156);
#58=ADVANCED_BREP_SHAPE_REPRESENTATION('1',(#102,#157),#6);
#61=UNCERTAINTY_MEASURE_WITH_UNIT(LENGTH_MEASURE(1.0E-006),#63,'','');
#63= (CONVERSION_BASED_UNIT('MILLIMETRE',#160)LENGTH_UNIT()NAMED_UNIT(#163));
#64= (NAMED_UNIT(#165)PLANE_ANGLE_UNIT()SI_UNIT($,.RADIAN.));
#65= (NAMED_UNIT(#165)SOLID_ANGLE_UNIT()SI_UNIT($,.STERADIAN.));
#67=PRESENTATION_STYLE_ASSIGNMENT((#171));
#68=ADVANCED_FACE('',(#172),#173,.T.);
#69=PRESENTATION_STYLE_ASSIGNMENT((#174));
#70=EDGE_CURVE('',#108,#144,#175,.T.);
#71=PRESENTATION_STYLE_ASSIGNMENT((#176));
#72=EDGE_CURVE('',#112,#130,#177,.T.);
#73=PRESENTATION_STYLE_ASSIGNMENT((#178));
#74=EDGE_CURVE('',#154,#80,#179,.T.);
#75=PRESENTATION_STYLE_ASSIGNMENT((#180));
#76=VERTEX_POINT('',#181);
#77=PRESENTATION_STYLE_ASSIGNMENT((#182));
#78=EDGE_CURVE('',#144,#106,#183,.T.);
#79=PRESENTATION_STYLE_ASSIGNMENT((#184));
#80=VERTEX_POINT('',#185);
#81=PRESENTATION_STYLE_ASSIGNMENT((#186));
#82=EDGE_CURVE('',#106,#144,#187,.T.);
#83=PRESENTATION_STYLE_ASSIGNMENT((#188));
#84=ADVANCED_FACE('',(#189),#190,.T.);
#85=PRESENTATION_STYLE_ASSIGNMENT((#191));
#86=EDGE_CURVE('',#130,#112,#192,.T.);
#87=PRESENTATION_STYLE_ASSIGNMENT((#193));
#88=ADVANCED_FACE('',(#194,#195),#196,.T.);
#89=PRESENTATION_STYLE_ASSIGNMENT((#197));
#90=EDGE_CURVE('',#108,#104,#198,.T.);
#91=PRESENTATION_STYLE_ASSIGNMENT((#199));
#92=ADVANCED_FACE('',(#200),#201,.T.);
#93=PRESENTATION_STYLE_ASSIGNMENT((#202));
#94=ADVANCED_FACE('',(#203),#204,.T.);
#95=PRESENTATION_STYLE_ASSIGNMENT((#205));
#96=EDGE_CURVE('',#154,#112,#206,.T.);
#97=PRESENTATION_STYLE_ASSIGNMENT((#207));
#98=EDGE_CURVE('',#136,#76,#208,.T.);
#99=PRESENTATION_STYLE_ASSIGNMENT((#209));
#100=EDGE_CURVE('',#80,#76,#210,.T.);
#101=PRESENTATION_STYLE_ASSIGNMENT((#211));
#102=MANIFOLD_SOLID_BREP('1',#212);
#103=PRESENTATION_STYLE_ASSIGNMENT((#213));
#104=VERTEX_POINT('',#214);
#105=PRESENTATION_STYLE_ASSIGNMENT((#215));
#106=VERTEX_POINT('',#216);
#107=PRESENTATION_STYLE_ASSIGNMENT((#217));
#108=VERTEX_POINT('',#218);
#109=PRESENTATION_STYLE_ASSIGNMENT((#219));
#110=ADVANCED_FACE('',(#220),#221,.T.);
#111=PRESENTATION_STYLE_ASSIGNMENT((#222));
#112=VERTEX_POINT('',#223);
#113=PRESENTATION_STYLE_ASSIGNMENT((#224));
#114=EDGE_CURVE('',#128,#146,#225,.T.);
#115=PRESENTATION_STYLE_ASSIGNMENT((#226));
#116=EDGE_CURVE('',#130,#80,#227,.T.);
#117=PRESENTATION_STYLE_ASSIGNMENT((#228));
#118=EDGE_CURVE('',#106,#104,#229,.T.);
#119=PRESENTATION_STYLE_ASSIGNMENT((#230));
#120=EDGE_CURVE('',#104,#108,#231,.T.);
#121=PRESENTATION_STYLE_ASSIGNMENT((#232));
#122=ADVANCED_FACE('',(#233),#234,.T.);
#123=PRESENTATION_STYLE_ASSIGNMENT((#235));
#124=EDGE_CURVE('',#76,#136,#236,.T.);
#125=PRESENTATION_STYLE_ASSIGNMENT((#237));
#126=EDGE_CURVE('',#146,#128,#238,.T.);
#127=PRESENTATION_STYLE_ASSIGNMENT((#239));
#128=VERTEX_POINT('',#240);
#129=PRESENTATION_STYLE_ASSIGNMENT((#241));
#130=VERTEX_POINT('',#242);
#131=PRESENTATION_STYLE_ASSIGNMENT((#243));
#132=ADVANCED_FACE('',(#244),#245,.T.);
#133=PRESENTATION_STYLE_ASSIGNMENT((#246));
#134=EDGE_CURVE('',#136,#154,#247,.T.);
#135=PRESENTATION_STYLE_ASSIGNMENT((#248));
#136=VERTEX_POINT('',#249);
#137=PRESENTATION_STYLE_ASSIGNMENT((#250));
#138=EDGE_CURVE('',#80,#154,#251,.T.);
#139=PRESENTATION_STYLE_ASSIGNMENT((#252));
#140=EDGE_CURVE('',#104,#128,#253,.T.);
#141=PRESENTATION_STYLE_ASSIGNMENT((#254));
#142=ADVANCED_FACE('',(#255),#256,.T.);
#143=PRESENTATION_STYLE_ASSIGNMENT((#257));
#144=VERTEX_POINT('',#258);
#145=PRESENTATION_STYLE_ASSIGNMENT((#259));
#146=VERTEX_POINT('',#260);
#147=PRESENTATION_STYLE_ASSIGNMENT((#261));
#148=ADVANCED_FACE('',(#262),#263,.T.);
#149=PRESENTATION_STYLE_ASSIGNMENT((#264));
#150=ADVANCED_FACE('',(#265),#266,.T.);
#151=PRESENTATION_STYLE_ASSIGNMENT((#267));
#152=EDGE_CURVE('',#146,#108,#268,.T.);
#153=PRESENTATION_STYLE_ASSIGNMENT((#269));
#154=VERTEX_POINT('',#270);
#155=PRODUCT('1','1','PART-1-DESC',(#271));
#156=PRODUCT_DEFINITION('NONE','NONE',#272,#2);
#157=AXIS2_PLACEMENT_3D('',#273,#274,#275);
#160=LENGTH_MEASURE_WITH_UNIT(LENGTH_MEASURE(1.0),#276);
#163=DIMENSIONAL_EXPONENTS(1.0,0.0,0.0,0.0,0.0,0.0,0.0);
#165=DIMENSIONAL_EXPONENTS(0.0,0.0,0.0,0.0,0.0,0.0,0.0);
#171=SURFACE_STYLE_USAGE(.BOTH.,#277);
#172=FACE_OUTER_BOUND('',#278,.T.);
#173=CONICAL_SURFACE('',#279,2.78564064605511,0.26179938779914);
#174=CURVE_STYLE('',#280,POSITIVE_LENGTH_MEASURE(1.0E-006),#281);
#175=LINE('',#282,#283);
#176=CURVE_STYLE('',#284,POSITIVE_LENGTH_MEASURE(1.0E-006),#285);
#177=CIRCLE('',#286,2.57128129211023);
#178=CURVE_STYLE('',#287,POSITIVE_LENGTH_MEASURE(1.0E-006),#288);
#179=CIRCLE('',#289,3.0);
#180=POINT_STYLE(' ',#290,POSITIVE_LENGTH_MEASURE(1.0E-006),#291);
#181=CARTESIAN_POINT('',(7.13590613961699E-015,-2.99999999999997,-2.8421709430404E-014));
#182=CURVE_STYLE('',#292,POSITIVE_LENGTH_MEASURE(1.0E-006),#293);
#183=CIRCLE('',#294,2.39230484541326);
#184=POINT_STYLE(' ',#295,POSITIVE_LENGTH_MEASURE(1.0E-006),#296);
#185=CARTESIAN_POINT('',(6.68280178870271E-015,-2.99999999999997,-7.40000000000006));
#186=CURVE_STYLE('',#297,POSITIVE_LENGTH_MEASURE(1.0E-006),#298);
#187=CIRCLE('',#299,2.39230484541326);
#188=SURFACE_STYLE_USAGE(.BOTH.,#300);
#189=FACE_OUTER_BOUND('',#301,.T.);
#190=CONICAL_SURFACE('',#302,2.78564064605511,0.26179938779914);
#191=CURVE_STYLE('',#303,POSITIVE_LENGTH_MEASURE(1.0E-006),#304);
#192=CIRCLE('',#305,2.57128129211023);
#193=SURFACE_STYLE_USAGE(.BOTH.,#306);
#194=FACE_OUTER_BOUND('',#307,.T.);
#195=FACE_BOUND('',#308,.T.);
#196=PLANE('',#309);
#197=CURVE_STYLE('',#310,POSITIVE_LENGTH_MEASURE(1.0E-006),#311);
#198=CIRCLE('',#312,4.0);
#199=SURFACE_STYLE_USAGE(.BOTH.,#313);
#200=FACE_OUTER_BOUND('',#314,.T.);
#201=CONICAL_SURFACE('',#315,3.19615242270663,0.261799387799149);
#202=SURFACE_STYLE_USAGE(.BOTH.,#316);
#203=FACE_OUTER_BOUND('',#317,.T.);
#204=CYLINDRICAL_SURFACE('',#318,4.0);
#205=CURVE_STYLE('',#319,POSITIVE_LENGTH_MEASURE(1.0E-006),#320);
#206=LINE('',#321,#322);
#207=CURVE_STYLE('',#323,POSITIVE_LENGTH_MEASURE(1.0E-006),#324);
#208=CIRCLE('',#325,3.0);
#209=CURVE_STYLE('',#326,POSITIVE_LENGTH_MEASURE(1.0E-006),#327);
#210=LINE('',#328,#329);
#211=SURFACE_STYLE_USAGE(.BOTH.,#330);
#212=CLOSED_SHELL('',(#122,#110,#142,#68,#150,#84,#148,#88,#94,#92,#132));
#213=POINT_STYLE(' ',#331,POSITIVE_LENGTH_MEASURE(1.0E-006),#332);
#214=CARTESIAN_POINT('',(-1.57310044141451E-012,4.00000000000003,3.99999999999997));
#215=POINT_STYLE(' ',#333,POSITIVE_LENGTH_MEASURE(1.0E-006),#334);
#216=CARTESIAN_POINT('',(-9.3796586164836E-013,2.39230484541329,9.99999999999997));
#217=POINT_STYLE(' ',#335,POSITIVE_LENGTH_MEASURE(1.0E-006),#336);
#218=CARTESIAN_POINT('',(7.19713645730811E-015,-3.99999999999997,3.99999999999997));
#219=SURFACE_STYLE_USAGE(.BOTH.,#337);
#220=FACE_OUTER_BOUND('',#338,.T.);
#221=CYLINDRICAL_SURFACE('',#339,4.0);
#222=POINT_STYLE(' ',#340,POSITIVE_LENGTH_MEASURE(1.0E-006),#341);
#223=CARTESIAN_POINT('',(-1.00867213325502E-012,2.57128129211026,-9.00000000000003));
#224=CURVE_STYLE('',#342,POSITIVE_LENGTH_MEASURE(1.0E-006),#343);
#225=CIRCLE('',#344,4.0);
#226=CURVE_STYLE('',#345,POSITIVE_LENGTH_MEASURE(1.0E-006),#346);
#227=LINE('',#347,#348);
#228=CURVE_STYLE('',#349,POSITIVE_LENGTH_MEASURE(1.0E-006),#350);
#229=LINE('',#351,#352);
#230=CURVE_STYLE('',#353,POSITIVE_LENGTH_MEASURE(1.0E-006),#354);
#231=CIRCLE('',#355,4.0);
#232=SURFACE_STYLE_USAGE(.BOTH.,#356);
#233=FACE_OUTER_BOUND('',#357,.T.);
#234=CONICAL_SURFACE('',#358,3.19615242270663,0.261799387799149);
#235=CURVE_STYLE('',#359,POSITIVE_LENGTH_MEASURE(1.0E-006),#360);
#236=CIRCLE('',#361,3.0);
#237=CURVE_STYLE('',#362,POSITIVE_LENGTH_MEASURE(1.0E-006),#363);
#238=CIRCLE('',#364,4.0);
#239=POINT_STYLE(' ',#365,POSITIVE_LENGTH_MEASURE(1.0E-006),#366);
#240=CARTESIAN_POINT('',(-1.57310044141451E-012,4.00000000000003,-2.8421709430404E-014));
#241=POINT_STYLE(' ',#367,POSITIVE_LENGTH_MEASURE(1.0E-006),#368);
#242=CARTESIAN_POINT('',(6.66358502844957E-015,-2.5712812921102,-9.00000000000003));
#243=SURFACE_STYLE_USAGE(.BOTH.,#369);
#244=FACE_OUTER_BOUND('',#370,.T.);
#245=PLANE('',#371);
#246=CURVE_STYLE('',#372,POSITIVE_LENGTH_MEASURE(1.0E-006),#373);
#247=LINE('',#374,#375);
#248=POINT_STYLE(' ',#376,POSITIVE_LENGTH_MEASURE(1.0E-006),#377);
#249=CARTESIAN_POINT('',(-1.17804135452598E-012,3.00000000000003,-2.8421709430404E-014));
#250=CURVE_STYLE('',#378,POSITIVE_LENGTH_MEASURE(1.0E-006),#379);
#251=CIRCLE('',#380,3.0);
#252=CURVE_STYLE('',#381,POSITIVE_LENGTH_MEASURE(1.0E-006),#382);
#253=LINE('',#383,#384);
#254=SURFACE_STYLE_USAGE(.BOTH.,#385);
#255=FACE_OUTER_BOUND('',#386,.T.);
#256=CYLINDRICAL_SURFACE('',#387,3.0);
#257=POINT_STYLE(' ',#388,POSITIVE_LENGTH_MEASURE(1.0E-006),#389);
#258=CARTESIAN_POINT('',(7.85983741865228E-015,-2.39230484541324,9.99999999999997));
#259=POINT_STYLE(' ',#390,POSITIVE_LENGTH_MEASURE(1.0E-006),#391);
#260=CARTESIAN_POINT('',(6.95221518654363E-015,-3.99999999999997,-2.8421709430404E-014));
#261=SURFACE_STYLE_USAGE(.BOTH.,#392);
#262=FACE_OUTER_BOUND('',#393,.T.);
#263=CYLINDRICAL_SURFACE('',#394,3.0);
#264=SURFACE_STYLE_USAGE(.BOTH.,#395);
#265=FACE_OUTER_BOUND('',#396,.T.);
#266=PLANE('',#397);
#267=CURVE_STYLE('',#398,POSITIVE_LENGTH_MEASURE(1.0E-006),#399);
#268=LINE('',#400,#401);
#269=POINT_STYLE(' ',#402,POSITIVE_LENGTH_MEASURE(1.0E-006),#403);
#270=CARTESIAN_POINT('',(-1.17804135452598E-012,3.00000000000003,-7.40000000000006));
#271=PRODUCT_CONTEXT('',#54,'mechanical');
#272=PRODUCT_DEFINITION_FORMATION_WITH_SPECIFIED_SOURCE(' ','NONE',#155,.NOT_KNOWN.);
#273=CARTESIAN_POINT('',(0.0,0.0,0.0));
#274=DIRECTION('',(0.0,0.0,1.0));
#275=DIRECTION('',(1.0,0.0,0.0));
#276= (NAMED_UNIT(#163)LENGTH_UNIT()SI_UNIT(.MILLI.,.METRE.));
#277=SURFACE_SIDE_STYLE('',(#405));
#278=EDGE_LOOP('',(#406,#407,#408,#409));
#279=AXIS2_PLACEMENT_3D('',#410,#411,#412);
#280=DRAUGHTING_PRE_DEFINED_CURVE_FONT('continuous');
#281=COLOUR_RGB('',0.509803950786591,0.509803950786591,0.588235318660736);
#282=CARTESIAN_POINT('',(1.26980496381067E-012,-3.1961524227066,6.99999999999997));
#283=VECTOR('',#413,1.0);
#284=DRAUGHTING_PRE_DEFINED_CURVE_FONT('continuous');
#285=COLOUR_RGB('',0.509803950786591,0.509803950786591,0.588235318660736);
#286=AXIS2_PLACEMENT_3D('',#414,#415,#416);
#287=DRAUGHTING_PRE_DEFINED_CURVE_FONT('continuous');
#288=COLOUR_RGB('',0.509803950786591,0.509803950786591,0.588235318660736);
#289=AXIS2_PLACEMENT_3D('',#417,#418,#419);
#290=PRE_DEFINED_MARKER('');
#291=COLOUR_RGB('',0.509803950786591,0.509803950786591,0.588235318660736);
#292=DRAUGHTING_PRE_DEFINED_CURVE_FONT('continuous');
#293=COLOUR_RGB('',0.509803950786591,0.509803950786591,0.588235318660736);
#294=AXIS2_PLACEMENT_3D('',#420,#421,#422);
#295=PRE_DEFINED_MARKER('');
#296=COLOUR_RGB('',0.509803950786591,0.509803950786591,0.588235318660736);
#297=DRAUGHTING_PRE_DEFINED_CURVE_FONT('continuous');
#298=COLOUR_RGB('',0.509803950786591,0.509803950786591,0.588235318660736);
#299=AXIS2_PLACEMENT_3D('',#423,#424,#425);
#300=SURFACE_SIDE_STYLE('',(#426));
#301=EDGE_LOOP('',(#427,#428,#429,#430));
#302=AXIS2_PLACEMENT_3D('',#431,#432,#433);
#303=DRAUGHTING_PRE_DEFINED_CURVE_FONT('continuous');
#304=COLOUR_RGB('',0.509803950786591,0.509803950786591,0.588235318660736);
#305=AXIS2_PLACEMENT_3D('',#434,#435,#436);
#306=SURFACE_SIDE_STYLE('',(#437));
#307=EDGE_LOOP('',(#438,#439));
#308=EDGE_LOOP('',(#440,#441));
#309=AXIS2_PLACEMENT_3D('',#442,#443,#444);
#310=DRAUGHTING_PRE_DEFINED_CURVE_FONT('continuous');
#311=COLOUR_RGB('',0.509803950786591,0.509803950786591,0.588235318660736);
#312=AXIS2_PLACEMENT_3D('',#445,#446,#447);
#313=SURFACE_SIDE_STYLE('',(#448));
#314=EDGE_LOOP('',(#449,#450,#451,#452));
#315=AXIS2_PLACEMENT_3D('',#453,#454,#455);
#316=SURFACE_SIDE_STYLE('',(#456));
#317=EDGE_LOOP('',(#457,#458,#459,#460));
#318=AXIS2_PLACEMENT_3D('',#461,#462,#463);
#319=DRAUGHTING_PRE_DEFINED_CURVE_FONT('continuous');
#320=COLOUR_RGB('',0.509803950786591,0.509803950786591,0.588235318660736);
#321=CARTESIAN_POINT('',(-1.0933567438905E-012,2.78564064605514,-8.20000000000005));
#322=VECTOR('',#464,1.0);
#323=DRAUGHTING_PRE_DEFINED_CURVE_FONT('continuous');
#324=COLOUR_RGB('',0.509803950786591,0.509803950786591,0.588235318660736);
#325=AXIS2_PLACEMENT_3D('',#465,#466,#467);
#326=DRAUGHTING_PRE_DEFINED_CURVE_FONT('continuous');
#327=COLOUR_RGB('',0.509803950786591,0.509803950786591,0.588235318660736);
#328=CARTESIAN_POINT('',(1.19231316680522E-012,-2.99999999999997,-3.70000000000005));
#329=VECTOR('',#468,1.0);
#330=SURFACE_SIDE_STYLE('',(#469));
#331=PRE_DEFINED_MARKER('');
#332=COLOUR_RGB('',0.509803950786591,0.509803950786591,0.588235318660736);
#333=PRE_DEFINED_MARKER('');
#334=COLOUR_RGB('',0.509803950786591,0.509803950786591,0.588235318660736);
#335=PRE_DEFINED_MARKER('');
#336=COLOUR_RGB('',0.509803950786591,0.509803950786591,0.588235318660736);
#337=SURFACE_SIDE_STYLE('',(#470));
#338=EDGE_LOOP('',(#471,#472,#473,#474));
#339=AXIS2_PLACEMENT_3D('',#475,#476,#477);
#340=PRE_DEFINED_MARKER('');
#341=COLOUR_RGB('',0.509803950786591,0.509803950786591,0.588235318660736);
#342=DRAUGHTING_PRE_DEFINED_CURVE_FONT('continuous');
#343=COLOUR_RGB('',0.509803950786591,0.509803950786591,0.588235318660736);
#344=AXIS2_PLACEMENT_3D('',#478,#479,#480);
#345=DRAUGHTING_PRE_DEFINED_CURVE_FONT('continuous');
#346=COLOUR_RGB('',0.509803950786591,0.509803950786591,0.588235318660736);
#347=CARTESIAN_POINT('',(1.10762855616973E-012,-2.78564064605509,-8.20000000000005));
#348=VECTOR('',#481,1.0);
#349=DRAUGHTING_PRE_DEFINED_CURVE_FONT('continuous');
#350=COLOUR_RGB('',0.509803950786591,0.509803950786591,0.588235318660736);
#351=CARTESIAN_POINT('',(-1.25553315153144E-012,3.19615242270666,6.99999999999997));
#352=VECTOR('',#482,1.0);
#353=DRAUGHTING_PRE_DEFINED_CURVE_FONT('continuous');
#354=COLOUR_RGB('',0.509803950786591,0.509803950786591,0.588235318660736);
#355=AXIS2_PLACEMENT_3D('',#483,#484,#485);
#356=SURFACE_SIDE_STYLE('',(#486));
#357=EDGE_LOOP('',(#487,#488,#489,#490));
#358=AXIS2_PLACEMENT_3D('',#491,#492,#493);
#359=DRAUGHTING_PRE_DEFINED_CURVE_FONT('continuous');
#360=COLOUR_RGB('',0.509803950786591,0.509803950786591,0.588235318660736);
#361=AXIS2_PLACEMENT_3D('',#494,#495,#496);
#362=DRAUGHTING_PRE_DEFINED_CURVE_FONT('continuous');
#363=COLOUR_RGB('',0.509803950786591,0.509803950786591,0.588235318660736);
#364=AXIS2_PLACEMENT_3D('',#497,#498,#499);
#365=PRE_DEFINED_MARKER('');
#366=COLOUR_RGB('',0.509803950786591,0.509803950786591,0.588235318660736);
#367=PRE_DEFINED_MARKER('');
#368=COLOUR_RGB('',0.509803950786591,0.509803950786591,0.588235318660736);
#369=SURFACE_SIDE_STYLE('',(#500));
#370=EDGE_LOOP('',(#501,#502));
#371=AXIS2_PLACEMENT_3D('',#503,#504,#505);
#372=DRAUGHTING_PRE_DEFINED_CURVE_FONT('continuous');
#373=COLOUR_RGB('',0.509803950786591,0.509803950786591,0.588235318660736);
#374=CARTESIAN_POINT('',(-1.17804135452598E-012,3.00000000000003,-3.70000000000005));
#375=VECTOR('',#506,1.0);
#376=PRE_DEFINED_MARKER('');
#377=COLOUR_RGB('',0.509803950786591,0.509803950786591,0.588235318660736);
#378=DRAUGHTING_PRE_DEFINED_CURVE_FONT('continuous');
#379=COLOUR_RGB('',0.509803950786591,0.509803950786591,0.588235318660736);
#380=AXIS2_PLACEMENT_3D('',#507,#508,#509);
#381=DRAUGHTING_PRE_DEFINED_CURVE_FONT('continuous');
#382=COLOUR_RGB('',0.509803950786591,0.509803950786591,0.588235318660736);
#383=CARTESIAN_POINT('',(-1.57310044141451E-012,4.00000000000003,1.99999999999997));
#384=VECTOR('',#510,1.0);
#385=SURFACE_SIDE_STYLE('',(#511));
#386=EDGE_LOOP('',(#512,#513,#514,#515));
#387=AXIS2_PLACEMENT_3D('',#516,#517,#518);
#388=PRE_DEFINED_MARKER('');
#389=COLOUR_RGB('',0.509803950786591,0.509803950786591,0.588235318660736);
#390=PRE_DEFINED_MARKER('');
#391=COLOUR_RGB('',0.509803950786591,0.509803950786591,0.588235318660736);
#392=SURFACE_SIDE_STYLE('',(#519));
#393=EDGE_LOOP('',(#520,#521,#522,#523));
#394=AXIS2_PLACEMENT_3D('',#524,#525,#526);
#395=SURFACE_SIDE_STYLE('',(#527));
#396=EDGE_LOOP('',(#528,#529));
#397=AXIS2_PLACEMENT_3D('',#530,#531,#532);
#398=DRAUGHTING_PRE_DEFINED_CURVE_FONT('continuous');
#399=COLOUR_RGB('',0.509803950786591,0.509803950786591,0.588235318660736);
#400=CARTESIAN_POINT('',(1.58737225369375E-012,-3.99999999999997,1.99999999999997));
#401=VECTOR('',#533,1.0);
#402=PRE_DEFINED_MARKER('');
#403=COLOUR_RGB('',0.509803950786591,0.509803950786591,0.588235318660736);
#405=SURFACE_STYLE_FILL_AREA(#534);
#406=ORIENTED_EDGE('',*,*,#116,.F.);
#407=ORIENTED_EDGE('',*,*,#86,.T.);
#408=ORIENTED_EDGE('',*,*,#96,.F.);
#409=ORIENTED_EDGE('',*,*,#138,.F.);
#410=CARTESIAN_POINT('',(7.13590613961699E-015,2.8421709430404E-014,-8.20000000000005));
#411=DIRECTION('',(-0.0,0.0,1.0));
#412=DIRECTION('',(3.95181547523915E-013,-1.0,0.0));
#413=DIRECTION('',(-1.02248815627564E-013,0.258819045102521,0.965925826289068));
#414=CARTESIAN_POINT('',(7.13590613961699E-015,2.8421709430404E-014,-9.00000000000003));
#415=DIRECTION('',(0.0,0.0,1.0));
#416=DIRECTION('',(3.95181547523915E-013,-1.0,0.0));
#417=CARTESIAN_POINT('',(7.13590613961699E-015,2.8421709430404E-014,-7.40000000000006));
#418=DIRECTION('',(0.0,0.0,1.0));
#419=DIRECTION('',(3.95181547523915E-013,-1.0,0.0));
#420=CARTESIAN_POINT('',(7.13590613961699E-015,2.8421709430404E-014,9.99999999999997));
#421=DIRECTION('',(0.0,0.0,1.0));
#422=DIRECTION('',(3.95181547523915E-013,-1.0,0.0));
#423=CARTESIAN_POINT('',(7.13590613961699E-015,2.8421709430404E-014,9.99999999999997));
#424=DIRECTION('',(0.0,0.0,1.0));
#425=DIRECTION('',(3.95181547523915E-013,-1.0,0.0));
#426=SURFACE_STYLE_FILL_AREA(#535);
#427=ORIENTED_EDGE('',*,*,#116,.T.);
#428=ORIENTED_EDGE('',*,*,#74,.F.);
#429=ORIENTED_EDGE('',*,*,#96,.T.);
#430=ORIENTED_EDGE('',*,*,#72,.T.);
#431=CARTESIAN_POINT('',(7.13590613961699E-015,2.8421709430404E-014,-8.20000000000005));
#432=DIRECTION('',(-0.0,0.0,1.0));
#433=DIRECTION('',(3.95181547523915E-013,-1.0,0.0));
#434=CARTESIAN_POINT('',(7.13590613961699E-015,2.8421709430404E-014,-9.00000000000003));
#435=DIRECTION('',(0.0,0.0,1.0));
#436=DIRECTION('',(3.95181547523915E-013,-1.0,0.0));
#437=SURFACE_STYLE_FILL_AREA(#536);
#438=ORIENTED_EDGE('',*,*,#126,.F.);
#439=ORIENTED_EDGE('',*,*,#114,.F.);
#440=ORIENTED_EDGE('',*,*,#124,.T.);
#441=ORIENTED_EDGE('',*,*,#98,.T.);
#442=CARTESIAN_POINT('',(7.04406066308031E-015,-3.49999999999997,-2.8421709430404E-014));
#443=DIRECTION('',(0.0,0.0,-1.0));
#444=DIRECTION('',(1.83690953073357E-016,1.0,0.0));
#445=CARTESIAN_POINT('',(7.13590613961699E-015,2.8421709430404E-014,3.99999999999997));
#446=DIRECTION('',(0.0,0.0,1.0));
#447=DIRECTION('',(3.95181547523915E-013,-1.0,0.0));
#448=SURFACE_STYLE_FILL_AREA(#537);
#449=ORIENTED_EDGE('',*,*,#70,.T.);
#450=ORIENTED_EDGE('',*,*,#82,.F.);
#451=ORIENTED_EDGE('',*,*,#118,.T.);
#452=ORIENTED_EDGE('',*,*,#120,.T.);
#453=CARTESIAN_POINT('',(7.13590613961699E-015,2.8421709430404E-014,6.99999999999997));
#454=DIRECTION('',(-0.0,-0.0,-1.0));
#455=DIRECTION('',(3.95181547523915E-013,-1.0,0.0));
#456=SURFACE_STYLE_FILL_AREA(#538);
#457=ORIENTED_EDGE('',*,*,#152,.T.);
#458=ORIENTED_EDGE('',*,*,#120,.F.);
#459=ORIENTED_EDGE('',*,*,#140,.T.);
#460=ORIENTED_EDGE('',*,*,#114,.T.);
#461=CARTESIAN_POINT('',(7.13590613961699E-015,2.8421709430404E-014,1.99999999999997));
#462=DIRECTION('',(-0.0,-0.0,-1.0));
#463=DIRECTION('',(3.95181547523915E-013,-1.0,0.0));
#464=DIRECTION('',(1.0224881562756E-013,-0.258819045102512,-0.965925826289071));
#465=CARTESIAN_POINT('',(7.13590613961699E-015,2.8421709430404E-014,-2.8421709430404E-014));
#466=DIRECTION('',(0.0,0.0,1.0));
#467=DIRECTION('',(3.95181547523915E-013,-1.0,0.0));
#468=DIRECTION('',(0.0,0.0,1.0));
#469=SURFACE_STYLE_FILL_AREA(#539);
#470=SURFACE_STYLE_FILL_AREA(#540);
#471=ORIENTED_EDGE('',*,*,#152,.F.);
#472=ORIENTED_EDGE('',*,*,#126,.T.);
#473=ORIENTED_EDGE('',*,*,#140,.F.);
#474=ORIENTED_EDGE('',*,*,#90,.F.);
#475=CARTESIAN_POINT('',(7.13590613961699E-015,2.8421709430404E-014,1.99999999999997));
#476=DIRECTION('',(-0.0,-0.0,-1.0));
#477=DIRECTION('',(3.95181547523915E-013,-1.0,0.0));
#478=CARTESIAN_POINT('',(7.13590613961699E-015,2.8421709430404E-014,-2.8421709430404E-014));
#479=DIRECTION('',(0.0,0.0,1.0));
#480=DIRECTION('',(3.95181547523915E-013,-1.0,0.0));
#481=DIRECTION('',(1.0224881562756E-013,-0.258819045102512,0.965925826289071));
#482=DIRECTION('',(-1.02248815627564E-013,0.258819045102521,-0.965925826289068));
#483=CARTESIAN_POINT('',(7.13590613961699E-015,2.8421709430404E-014,3.99999999999997));
#484=DIRECTION('',(0.0,0.0,1.0));
#485=DIRECTION('',(3.95181547523915E-013,-1.0,0.0));
#486=SURFACE_STYLE_FILL_AREA(#541);
#487=ORIENTED_EDGE('',*,*,#70,.F.);
#488=ORIENTED_EDGE('',*,*,#90,.T.);
#489=ORIENTED_EDGE('',*,*,#118,.F.);
#490=ORIENTED_EDGE('',*,*,#78,.F.);
#491=CARTESIAN_POINT('',(7.13590613961699E-015,2.8421709430404E-014,6.99999999999997));
#492=DIRECTION('',(-0.0,-0.0,-1.0));
#493=DIRECTION('',(3.95181547523915E-013,-1.0,0.0));
#494=CARTESIAN_POINT('',(7.13590613961699E-015,2.8421709430404E-014,-2.8421709430404E-014));
#495=DIRECTION('',(0.0,0.0,1.0));
#496=DIRECTION('',(3.95181547523915E-013,-1.0,0.0));
#497=CARTESIAN_POINT('',(7.13590613961699E-015,2.8421709430404E-014,-2.8421709430404E-014));
#498=DIRECTION('',(0.0,0.0,1.0));
#499=DIRECTION('',(3.95181547523915E-013,-1.0,0.0));
#500=SURFACE_STYLE_FILL_AREA(#542);
#501=ORIENTED_EDGE('',*,*,#78,.T.);
#502=ORIENTED_EDGE('',*,*,#82,.T.);
#503=CARTESIAN_POINT('',(8.07955979720026E-015,-1.1961524227066,9.99999999999997));
#504=DIRECTION('',(0.0,0.0,1.0));
#505=DIRECTION('',(-1.83690953073357E-016,-1.0,0.0));
#506=DIRECTION('',(-0.0,-0.0,-1.0));
#507=CARTESIAN_POINT('',(7.13590613961699E-015,2.8421709430404E-014,-7.40000000000006));
#508=DIRECTION('',(0.0,0.0,1.0));
#509=DIRECTION('',(3.95181547523915E-013,-1.0,0.0));
#510=DIRECTION('',(-0.0,-0.0,-1.0));
#511=SURFACE_STYLE_FILL_AREA(#543);
#512=ORIENTED_EDGE('',*,*,#100,.F.);
#513=ORIENTED_EDGE('',*,*,#138,.T.);
#514=ORIENTED_EDGE('',*,*,#134,.F.);
#515=ORIENTED_EDGE('',*,*,#124,.F.);
#516=CARTESIAN_POINT('',(7.13590613961699E-015,2.8421709430404E-014,-3.70000000000005));
#517=DIRECTION('',(-0.0,-0.0,-1.0));
#518=DIRECTION('',(3.95181547523915E-013,-1.0,0.0));
#519=SURFACE_STYLE_FILL_AREA(#544);
#520=ORIENTED_EDGE('',*,*,#100,.T.);
#521=ORIENTED_EDGE('',*,*,#98,.F.);
#522=ORIENTED_EDGE('',*,*,#134,.T.);
#523=ORIENTED_EDGE('',*,*,#74,.T.);
#524=CARTESIAN_POINT('',(7.13590613961699E-015,2.8421709430404E-014,-3.70000000000005));
#525=DIRECTION('',(-0.0,-0.0,-1.0));
#526=DIRECTION('',(3.95181547523915E-013,-1.0,0.0));
#527=SURFACE_STYLE_FILL_AREA(#545);
#528=ORIENTED_EDGE('',*,*,#86,.F.);
#529=ORIENTED_EDGE('',*,*,#72,.F.);
#530=CARTESIAN_POINT('',(6.89974558403328E-015,-1.28564064605509,-9.00000000000003));
#531=DIRECTION('',(0.0,0.0,-1.0));
#532=DIRECTION('',(1.83690953073357E-016,1.0,0.0));
#533=DIRECTION('',(0.0,0.0,1.0));
#534=FILL_AREA_STYLE('',(#546));
#535=FILL_AREA_STYLE('',(#547));
#536=FILL_AREA_STYLE('',(#548));
#537=FILL_AREA_STYLE('',(#549));
#538=FILL_AREA_STYLE('',(#550));
#539=FILL_AREA_STYLE('',(#551));
#540=FILL_AREA_STYLE('',(#552));
#541=FILL_AREA_STYLE('',(#553));
#542=FILL_AREA_STYLE('',(#554));
#543=FILL_AREA_STYLE('',(#555));
#544=FILL_AREA_STYLE('',(#556));
#545=FILL_AREA_STYLE('',(#557));
#546=FILL_AREA_STYLE_COLOUR('',#558);
#547=FILL_AREA_STYLE_COLOUR('',#559);
#548=FILL_AREA_STYLE_COLOUR('',#560);
#549=FILL_AREA_STYLE_COLOUR('',#561);
#550=FILL_AREA_STYLE_COLOUR('',#562);
#551=FILL_AREA_STYLE_COLOUR('',#563);
#552=FILL_AREA_STYLE_COLOUR('',#564);
#553=FILL_AREA_STYLE_COLOUR('',#565);
#554=FILL_AREA_STYLE_COLOUR('',#566);
#555=FILL_AREA_STYLE_COLOUR('',#567);
#556=FILL_AREA_STYLE_COLOUR('',#568);
#557=FILL_AREA_STYLE_COLOUR('',#569);
#558=COLOUR_RGB('',0.509803950786591,0.509803950786591,0.588235318660736);
#559=COLOUR_RGB('',0.509803950786591,0.509803950786591,0.588235318660736);
#560=COLOUR_RGB('',0.509803950786591,0.509803950786591,0.588235318660736);
#561=COLOUR_RGB('',0.509803950786591,0.509803950786591,0.588235318660736);
#562=COLOUR_RGB('',0.509803950786591,0.509803950786591,0.588235318660736);
#563=COLOUR_RGB('',0.509803950786591,0.509803950786591,0.588235318660736);
#564=COLOUR_RGB('',0.509803950786591,0.509803950786591,0.588235318660736);
#565=COLOUR_RGB('',0.509803950786591,0.509803950786591,0.588235318660736);
#566=COLOUR_RGB('',0.509803950786591,0.509803950786591,0.588235318660736);
#567=COLOUR_RGB('',0.509803950786591,0.509803950786591,0.588235318660736);
#568=COLOUR_RGB('',0.509803950786591,0.509803950786591,0.588235318660736);
#569=COLOUR_RGB('',0.509803950786591,0.509803950786591,0.588235318660736);
ENDSEC;
END-ISO-10303-21;
