ISO-10303-21;
HEADER;
FILE_DESCRIPTION(('STEP AP214'),'1');
FILE_NAME(' ','  ',('TraceParts'),('TraceParts S.A.'),'XStep 1.0',' ',' ');
FILE_SCHEMA(('automotive_design'));
ENDSEC;
DATA;
#1=MECHANICAL_DESIGN_GEOMETRIC_PRESENTATION_REPRESENTATION(' ',(#10,#11,#12,#13,#14,#15,#16,#17,#18,#19,#20,#21,#22,#23,#24,#25,#26,#27,#28,#29,#30,#31,#32,#33,#34,#35,#36,#37,#38,#39,#40,#41,#42,#43,#44,#45,#46,#47,#48,#49,#50,#51,#52,#53),#6);
#2=PRODUCT_DEFINITION_CONTEXT('',#54,'design');
#3=APPLICATION_PROTOCOL_DEFINITION('INTERNATIONAL STANDARD','automotive_design',1994,#54);
#4=PRODUCT_CATEGORY_RELATIONSHIP('NONE','NONE',#55,#56);
#5=SHAPE_DEFINITION_REPRESENTATION(#57,#58);
#6= (GEOMETRIC_REPRESENTATION_CONTEXT(3)GLOBAL_UNCERTAINTY_ASSIGNED_CONTEXT((#61))GLOBAL_UNIT_ASSIGNED_CONTEXT((#63,#64,#65))REPRESENTATION_CONTEXT('NONE','WORKSPACE'));
#10=STYLED_ITEM('',(#67),#68);
#11=STYLED_ITEM('',(#69),#70);
#12=STYLED_ITEM('',(#71),#72);
#13=STYLED_ITEM('',(#73),#74);
#14=STYLED_ITEM('',(#75),#76);
#15=STYLED_ITEM('',(#77),#78);
#16=STYLED_ITEM('',(#79),#80);
#17=STYLED_ITEM('',(#81),#82);
#18=STYLED_ITEM('',(#83),#84);
#19=STYLED_ITEM('',(#85),#86);
#20=STYLED_ITEM('',(#87),#88);
#21=STYLED_ITEM('',(#89),#90);
#22=STYLED_ITEM('',(#91),#92);
#23=STYLED_ITEM('',(#93),#94);
#24=STYLED_ITEM('',(#95),#96);
#25=STYLED_ITEM('',(#97),#98);
#26=STYLED_ITEM('',(#99),#100);
#27=STYLED_ITEM('',(#101),#102);
#28=STYLED_ITEM('',(#103),#104);
#29=STYLED_ITEM('',(#105),#106);
#30=STYLED_ITEM('',(#107),#108);
#31=STYLED_ITEM('',(#109),#110);
#32=STYLED_ITEM('',(#111),#112);
#33=STYLED_ITEM('',(#113),#114);
#34=STYLED_ITEM('',(#115),#116);
#35=STYLED_ITEM('',(#117),#118);
#36=STYLED_ITEM('',(#119),#120);
#37=STYLED_ITEM('',(#121),#122);
#38=STYLED_ITEM('',(#123),#124);
#39=STYLED_ITEM('',(#125),#126);
#40=STYLED_ITEM('',(#127),#128);
#41=STYLED_ITEM('',(#129),#130);
#42=STYLED_ITEM('',(#131),#132);
#43=STYLED_ITEM('',(#133),#134);
#44=STYLED_ITEM('',(#135),#136);
#45=STYLED_ITEM('',(#137),#138);
#46=STYLED_ITEM('',(#139),#140);
#47=STYLED_ITEM('',(#141),#142);
#48=STYLED_ITEM('',(#143),#144);
#49=STYLED_ITEM('',(#145),#146);
#50=STYLED_ITEM('',(#147),#148);
#51=STYLED_ITEM('',(#149),#150);
#52=STYLED_ITEM('',(#151),#152);
#53=STYLED_ITEM('',(#153),#154);
#54=APPLICATION_CONTEXT(' ');
#55=PRODUCT_CATEGORY('part','NONE');
#56=PRODUCT_RELATED_PRODUCT_CATEGORY('detail',' ',(#155));
#57=PRODUCT_DEFINITION_SHAPE('NONE','NONE',#156);
#58=ADVANCED_BREP_SHAPE_REPRESENTATION('1',(#132,#157),#6);
#61=UNCERTAINTY_MEASURE_WITH_UNIT(LENGTH_MEASURE(1.0E-006),#63,'','');
#63= (CONVERSION_BASED_UNIT('MILLIMETRE',#160)LENGTH_UNIT()NAMED_UNIT(#163));
#64= (NAMED_UNIT(#165)PLANE_ANGLE_UNIT()SI_UNIT($,.RADIAN.));
#65= (NAMED_UNIT(#165)SOLID_ANGLE_UNIT()SI_UNIT($,.STERADIAN.));
#67=PRESENTATION_STYLE_ASSIGNMENT((#171));
#68=ADVANCED_FACE('',(#172),#173,.T.);
#69=PRESENTATION_STYLE_ASSIGNMENT((#174));
#70=EDGE_CURVE('',#76,#88,#175,.T.);
#71=PRESENTATION_STYLE_ASSIGNMENT((#176));
#72=ADVANCED_FACE('',(#177,#178),#179,.T.);
#73=PRESENTATION_STYLE_ASSIGNMENT((#180));
#74=ADVANCED_FACE('',(#181),#182,.T.);
#75=PRESENTATION_STYLE_ASSIGNMENT((#183));
#76=VERTEX_POINT('',#184);
#77=PRESENTATION_STYLE_ASSIGNMENT((#185));
#78=EDGE_CURVE('',#88,#76,#186,.T.);
#79=PRESENTATION_STYLE_ASSIGNMENT((#187));
#80=EDGE_CURVE('',#114,#88,#188,.T.);
#81=PRESENTATION_STYLE_ASSIGNMENT((#189));
#82=EDGE_CURVE('',#144,#86,#190,.T.);
#83=PRESENTATION_STYLE_ASSIGNMENT((#191));
#84=EDGE_CURVE('',#102,#114,#192,.T.);
#85=PRESENTATION_STYLE_ASSIGNMENT((#193));
#86=VERTEX_POINT('',#194);
#87=PRESENTATION_STYLE_ASSIGNMENT((#195));
#88=VERTEX_POINT('',#196);
#89=PRESENTATION_STYLE_ASSIGNMENT((#197));
#90=EDGE_CURVE('',#124,#86,#198,.T.);
#91=PRESENTATION_STYLE_ASSIGNMENT((#199));
#92=ADVANCED_FACE('',(#200),#201,.T.);
#93=PRESENTATION_STYLE_ASSIGNMENT((#202));
#94=EDGE_CURVE('',#124,#134,#203,.T.);
#95=PRESENTATION_STYLE_ASSIGNMENT((#204));
#96=EDGE_CURVE('',#142,#152,#205,.T.);
#97=PRESENTATION_STYLE_ASSIGNMENT((#206));
#98=EDGE_CURVE('',#144,#134,#207,.T.);
#99=PRESENTATION_STYLE_ASSIGNMENT((#208));
#100=EDGE_CURVE('',#86,#144,#209,.T.);
#101=PRESENTATION_STYLE_ASSIGNMENT((#210));
#102=VERTEX_POINT('',#211);
#103=PRESENTATION_STYLE_ASSIGNMENT((#212));
#104=EDGE_CURVE('',#122,#146,#213,.T.);
#105=PRESENTATION_STYLE_ASSIGNMENT((#214));
#106=EDGE_CURVE('',#76,#102,#215,.T.);
#107=PRESENTATION_STYLE_ASSIGNMENT((#216));
#108=ADVANCED_FACE('',(#217),#218,.T.);
#109=PRESENTATION_STYLE_ASSIGNMENT((#219));
#110=EDGE_CURVE('',#142,#76,#220,.T.);
#111=PRESENTATION_STYLE_ASSIGNMENT((#221));
#112=EDGE_CURVE('',#152,#142,#222,.T.);
#113=PRESENTATION_STYLE_ASSIGNMENT((#223));
#114=VERTEX_POINT('',#224);
#115=PRESENTATION_STYLE_ASSIGNMENT((#225));
#116=EDGE_CURVE('',#146,#122,#226,.T.);
#117=PRESENTATION_STYLE_ASSIGNMENT((#227));
#118=ADVANCED_FACE('',(#228),#229,.T.);
#119=PRESENTATION_STYLE_ASSIGNMENT((#230));
#120=EDGE_CURVE('',#86,#122,#231,.T.);
#121=PRESENTATION_STYLE_ASSIGNMENT((#232));
#122=VERTEX_POINT('',#233);
#123=PRESENTATION_STYLE_ASSIGNMENT((#234));
#124=VERTEX_POINT('',#235);
#125=PRESENTATION_STYLE_ASSIGNMENT((#236));
#126=ADVANCED_FACE('',(#237),#238,.T.);
#127=PRESENTATION_STYLE_ASSIGNMENT((#239));
#128=EDGE_CURVE('',#146,#144,#240,.T.);
#129=PRESENTATION_STYLE_ASSIGNMENT((#241));
#130=ADVANCED_FACE('',(#242),#243,.T.);
#131=PRESENTATION_STYLE_ASSIGNMENT((#244));
#132=MANIFOLD_SOLID_BREP('1',#245);
#133=PRESENTATION_STYLE_ASSIGNMENT((#246));
#134=VERTEX_POINT('',#247);
#135=PRESENTATION_STYLE_ASSIGNMENT((#248));
#136=ADVANCED_FACE('',(#249),#250,.T.);
#137=PRESENTATION_STYLE_ASSIGNMENT((#251));
#138=EDGE_CURVE('',#88,#152,#252,.T.);
#139=PRESENTATION_STYLE_ASSIGNMENT((#253));
#140=ADVANCED_FACE('',(#254),#255,.T.);
#141=PRESENTATION_STYLE_ASSIGNMENT((#256));
#142=VERTEX_POINT('',#257);
#143=PRESENTATION_STYLE_ASSIGNMENT((#258));
#144=VERTEX_POINT('',#259);
#145=PRESENTATION_STYLE_ASSIGNMENT((#260));
#146=VERTEX_POINT('',#261);
#147=PRESENTATION_STYLE_ASSIGNMENT((#262));
#148=ADVANCED_FACE('',(#263),#264,.T.);
#149=PRESENTATION_STYLE_ASSIGNMENT((#265));
#150=EDGE_CURVE('',#134,#124,#266,.T.);
#151=PRESENTATION_STYLE_ASSIGNMENT((#267));
#152=VERTEX_POINT('',#268);
#153=PRESENTATION_STYLE_ASSIGNMENT((#269));
#154=EDGE_CURVE('',#114,#102,#270,.T.);
#155=PRODUCT('1','1','PART-1-DESC',(#271));
#156=PRODUCT_DEFINITION('NONE','NONE',#272,#2);
#157=AXIS2_PLACEMENT_3D('',#273,#274,#275);
#160=LENGTH_MEASURE_WITH_UNIT(LENGTH_MEASURE(1.0),#276);
#163=DIMENSIONAL_EXPONENTS(1.0,0.0,0.0,0.0,0.0,0.0,0.0);
#165=DIMENSIONAL_EXPONENTS(0.0,0.0,0.0,0.0,0.0,0.0,0.0);
#171=SURFACE_STYLE_USAGE(.BOTH.,#277);
#172=FACE_OUTER_BOUND('',#278,.T.);
#173=PLANE('',#279);
#174=CURVE_STYLE('',#280,POSITIVE_LENGTH_MEASURE(1.0E-006),#281);
#175=CIRCLE('',#282,10.0);
#176=SURFACE_STYLE_USAGE(.BOTH.,#283);
#177=FACE_OUTER_BOUND('',#284,.T.);
#178=FACE_BOUND('',#285,.T.);
#179=PLANE('',#286);
#180=SURFACE_STYLE_USAGE(.BOTH.,#287);
#181=FACE_OUTER_BOUND('',#288,.T.);
#182=CYLINDRICAL_SURFACE('',#289,10.0);
#183=POINT_STYLE(' ',#290,POSITIVE_LENGTH_MEASURE(1.0E-006),#291);
#184=CARTESIAN_POINT('',(-2.15462286085824E-012,10.0,5.99999999999994));
#185=CURVE_STYLE('',#292,POSITIVE_LENGTH_MEASURE(1.0E-006),#293);
#186=CIRCLE('',#294,10.0);
#187=CURVE_STYLE('',#295,POSITIVE_LENGTH_MEASURE(1.0E-006),#296);
#188=LINE('',#297,#298);
#189=CURVE_STYLE('',#299,POSITIVE_LENGTH_MEASURE(1.0E-006),#300);
#190=CIRCLE('',#301,6.0);
#191=CURVE_STYLE('',#302,POSITIVE_LENGTH_MEASURE(1.0E-006),#303);
#192=CIRCLE('',#304,10.0);
#193=POINT_STYLE(' ',#305,POSITIVE_LENGTH_MEASURE(1.0E-006),#306);
#194=CARTESIAN_POINT('',(-1.2899193540591E-012,6.00000000000003,-15.5000000000001));
#195=POINT_STYLE(' ',#307,POSITIVE_LENGTH_MEASURE(1.0E-006),#308);
#196=CARTESIAN_POINT('',(6.76852423347027E-015,-9.99999999999997,5.99999999999994));
#197=CURVE_STYLE('',#309,POSITIVE_LENGTH_MEASURE(1.0E-006),#310);
#198=LINE('',#311,#312);
#199=SURFACE_STYLE_USAGE(.BOTH.,#313);
#200=FACE_OUTER_BOUND('',#314,.T.);
#201=CYLINDRICAL_SURFACE('',#315,6.0);
#202=CURVE_STYLE('',#316,POSITIVE_LENGTH_MEASURE(1.0E-006),#317);
#203=CIRCLE('',#318,6.0);
#204=CURVE_STYLE('',#319,POSITIVE_LENGTH_MEASURE(1.0E-006),#320);
#205=CIRCLE('',#321,7.58845726811987);
#206=CURVE_STYLE('',#322,POSITIVE_LENGTH_MEASURE(1.0E-006),#323);
#207=LINE('',#324,#325);
#208=CURVE_STYLE('',#326,POSITIVE_LENGTH_MEASURE(1.0E-006),#327);
#209=CIRCLE('',#328,6.0);
#210=POINT_STYLE(' ',#329,POSITIVE_LENGTH_MEASURE(1.0E-006),#330);
#211=CARTESIAN_POINT('',(-2.15462286085824E-012,10.0,-5.6843418860808E-014));
#212=CURVE_STYLE('',#331,POSITIVE_LENGTH_MEASURE(1.0E-006),#332);
#213=CIRCLE('',#333,5.33012701892221);
#214=CURVE_STYLE('',#334,POSITIVE_LENGTH_MEASURE(1.0E-006),#335);
#215=LINE('',#336,#337);
#216=SURFACE_STYLE_USAGE(.BOTH.,#338);
#217=FACE_OUTER_BOUND('',#339,.T.);
#218=CONICAL_SURFACE('',#340,5.66506350946111,0.261799387799142);
#219=CURVE_STYLE('',#341,POSITIVE_LENGTH_MEASURE(1.0E-006),#342);
#220=LINE('',#343,#344);
#221=CURVE_STYLE('',#345,POSITIVE_LENGTH_MEASURE(1.0E-006),#346);
#222=CIRCLE('',#347,7.58845726811987);
#223=POINT_STYLE(' ',#348,POSITIVE_LENGTH_MEASURE(1.0E-006),#349);
#224=CARTESIAN_POINT('',(6.40114232732356E-015,-9.99999999999997,-5.6843418860808E-014));
#225=CURVE_STYLE('',#350,POSITIVE_LENGTH_MEASURE(1.0E-006),#351);
#226=CIRCLE('',#352,5.33012701892221);
#227=SURFACE_STYLE_USAGE(.BOTH.,#353);
#228=FACE_OUTER_BOUND('',#354,.T.);
#229=CYLINDRICAL_SURFACE('',#355,10.0);
#230=CURVE_STYLE('',#356,POSITIVE_LENGTH_MEASURE(1.0E-006),#357);
#231=LINE('',#358,#359);
#232=POINT_STYLE(' ',#360,POSITIVE_LENGTH_MEASURE(1.0E-006),#361);
#233=CARTESIAN_POINT('',(-1.14510897509711E-012,5.33012701892224,-18.0000000000001));
#234=POINT_STYLE(' ',#362,POSITIVE_LENGTH_MEASURE(1.0E-006),#363);
#235=CARTESIAN_POINT('',(-1.2899193540591E-012,6.00000000000003,-5.6843418860808E-014));
#236=SURFACE_STYLE_USAGE(.BOTH.,#364);
#237=FACE_OUTER_BOUND('',#365,.T.);
#238=CONICAL_SURFACE('',#366,8.79422863405993,0.261799387799152);
#239=CURVE_STYLE('',#367,POSITIVE_LENGTH_MEASURE(1.0E-006),#368);
#240=LINE('',#369,#370);
#241=SURFACE_STYLE_USAGE(.BOTH.,#371);
#242=FACE_OUTER_BOUND('',#372,.T.);
#243=PLANE('',#373);
#244=SURFACE_STYLE_USAGE(.BOTH.,#374);
#245=CLOSED_SHELL('',(#148,#118,#140,#108,#130,#136,#92,#72,#74,#126,#68));
#246=POINT_STYLE(' ',#375,POSITIVE_LENGTH_MEASURE(1.0E-006),#376);
#247=CARTESIAN_POINT('',(7.13590613961699E-015,-5.99999999999997,-5.6843418860808E-014));
#248=SURFACE_STYLE_USAGE(.BOTH.,#377);
#249=FACE_OUTER_BOUND('',#378,.T.);
#250=CONICAL_SURFACE('',#379,5.66506350946111,0.261799387799142);
#251=CURVE_STYLE('',#380,POSITIVE_LENGTH_MEASURE(1.0E-006),#381);
#252=LINE('',#382,#383);
#253=SURFACE_STYLE_USAGE(.BOTH.,#384);
#254=FACE_OUTER_BOUND('',#385,.T.);
#255=CYLINDRICAL_SURFACE('',#386,6.0);
#256=POINT_STYLE(' ',#387,POSITIVE_LENGTH_MEASURE(1.0E-006),#388);
#257=CARTESIAN_POINT('',(-1.63330549659506E-012,7.5884572681199,15.0));
#258=POINT_STYLE(' ',#389,POSITIVE_LENGTH_MEASURE(1.0E-006),#390);
#259=CARTESIAN_POINT('',(6.18683621540465E-015,-5.99999999999997,-15.5000000000001));
#260=POINT_STYLE(' ',#391,POSITIVE_LENGTH_MEASURE(1.0E-006),#392);
#261=CARTESIAN_POINT('',(6.15681002750912E-015,-5.33012701892218,-18.0000000000001));
#262=SURFACE_STYLE_USAGE(.BOTH.,#393);
#263=FACE_OUTER_BOUND('',#394,.T.);
#264=CONICAL_SURFACE('',#395,8.79422863405993,0.261799387799152);
#265=CURVE_STYLE('',#396,POSITIVE_LENGTH_MEASURE(1.0E-006),#397);
#266=CIRCLE('',#398,6.0);
#267=POINT_STYLE(' ',#399,POSITIVE_LENGTH_MEASURE(1.0E-006),#400);
#268=CARTESIAN_POINT('',(7.76257567548653E-015,-7.58845726811984,15.0));
#269=CURVE_STYLE('',#401,POSITIVE_LENGTH_MEASURE(1.0E-006),#402);
#270=CIRCLE('',#403,10.0);
#271=PRODUCT_CONTEXT('',#54,'mechanical');
#272=PRODUCT_DEFINITION_FORMATION_WITH_SPECIFIED_SOURCE(' ','NONE',#155,.NOT_KNOWN.);
#273=CARTESIAN_POINT('',(0.0,0.0,0.0));
#274=DIRECTION('',(0.0,0.0,1.0));
#275=DIRECTION('',(1.0,0.0,0.0));
#276= (NAMED_UNIT(#163)LENGTH_UNIT()SI_UNIT(.MILLI.,.METRE.));
#277=SURFACE_SIDE_STYLE('',(#405));
#278=EDGE_LOOP('',(#406,#407));
#279=AXIS2_PLACEMENT_3D('',#408,#409,#410);
#280=DRAUGHTING_PRE_DEFINED_CURVE_FONT('continuous');
#281=COLOUR_RGB('',0.509803950786591,0.509803950786591,0.588235318660736);
#282=AXIS2_PLACEMENT_3D('',#411,#412,#413);
#283=SURFACE_SIDE_STYLE('',(#414));
#284=EDGE_LOOP('',(#415,#416));
#285=EDGE_LOOP('',(#417,#418));
#286=AXIS2_PLACEMENT_3D('',#419,#420,#421);
#287=SURFACE_SIDE_STYLE('',(#422));
#288=EDGE_LOOP('',(#423,#424,#425,#426));
#289=AXIS2_PLACEMENT_3D('',#427,#428,#429);
#290=PRE_DEFINED_MARKER('');
#291=COLOUR_RGB('',0.509803950786591,0.509803950786591,0.588235318660736);
#292=DRAUGHTING_PRE_DEFINED_CURVE_FONT('continuous');
#293=COLOUR_RGB('',0.509803950786591,0.509803950786591,0.588235318660736);
#294=AXIS2_PLACEMENT_3D('',#430,#431,#432);
#295=DRAUGHTING_PRE_DEFINED_CURVE_FONT('continuous');
#296=COLOUR_RGB('',0.509803950786591,0.509803950786591,0.588235318660736);
#297=CARTESIAN_POINT('',(2.16889467313748E-012,-9.99999999999997,2.99999999999994));
#298=VECTOR('',#433,1.0);
#299=DRAUGHTING_PRE_DEFINED_CURVE_FONT('continuous');
#300=COLOUR_RGB('',0.509803950786591,0.509803950786591,0.588235318660736);
#301=AXIS2_PLACEMENT_3D('',#434,#435,#436);
#302=DRAUGHTING_PRE_DEFINED_CURVE_FONT('continuous');
#303=COLOUR_RGB('',0.509803950786591,0.509803950786591,0.588235318660736);
#304=AXIS2_PLACEMENT_3D('',#437,#438,#439);
#305=PRE_DEFINED_MARKER('');
#306=COLOUR_RGB('',0.509803950786591,0.509803950786591,0.588235318660736);
#307=PRE_DEFINED_MARKER('');
#308=COLOUR_RGB('',0.509803950786591,0.509803950786591,0.588235318660736);
#309=DRAUGHTING_PRE_DEFINED_CURVE_FONT('continuous');
#310=COLOUR_RGB('',0.509803950786591,0.509803950786591,0.588235318660736);
#311=CARTESIAN_POINT('',(-1.2899193540591E-012,6.00000000000003,-7.75000000000006));
#312=VECTOR('',#440,1.0);
#313=SURFACE_SIDE_STYLE('',(#441));
#314=EDGE_LOOP('',(#442,#443,#444,#445));
#315=AXIS2_PLACEMENT_3D('',#446,#447,#448);
#316=DRAUGHTING_PRE_DEFINED_CURVE_FONT('continuous');
#317=COLOUR_RGB('',0.509803950786591,0.509803950786591,0.588235318660736);
#318=AXIS2_PLACEMENT_3D('',#449,#450,#451);
#319=DRAUGHTING_PRE_DEFINED_CURVE_FONT('continuous');
#320=COLOUR_RGB('',0.509803950786591,0.509803950786591,0.588235318660736);
#321=AXIS2_PLACEMENT_3D('',#452,#453,#454);
#322=DRAUGHTING_PRE_DEFINED_CURVE_FONT('continuous');
#323=COLOUR_RGB('',0.509803950786591,0.509803950786591,0.588235318660736);
#324=CARTESIAN_POINT('',(1.30419116633833E-012,-5.99999999999997,-7.75000000000006));
#325=VECTOR('',#455,1.0);
#326=DRAUGHTING_PRE_DEFINED_CURVE_FONT('continuous');
#327=COLOUR_RGB('',0.509803950786591,0.509803950786591,0.588235318660736);
#328=AXIS2_PLACEMENT_3D('',#456,#457,#458);
#329=PRE_DEFINED_MARKER('');
#330=COLOUR_RGB('',0.509803950786591,0.509803950786591,0.588235318660736);
#331=DRAUGHTING_PRE_DEFINED_CURVE_FONT('continuous');
#332=COLOUR_RGB('',0.509803950786591,0.509803950786591,0.588235318660736);
#333=AXIS2_PLACEMENT_3D('',#459,#460,#461);
#334=DRAUGHTING_PRE_DEFINED_CURVE_FONT('continuous');
#335=COLOUR_RGB('',0.509803950786591,0.509803950786591,0.588235318660736);
#336=CARTESIAN_POINT('',(-2.15462286085824E-012,10.0,2.99999999999994));
#337=VECTOR('',#462,1.0);
#338=SURFACE_SIDE_STYLE('',(#463));
#339=EDGE_LOOP('',(#464,#465,#466,#467));
#340=AXIS2_PLACEMENT_3D('',#468,#469,#470);
#341=DRAUGHTING_PRE_DEFINED_CURVE_FONT('continuous');
#342=COLOUR_RGB('',0.509803950786591,0.509803950786591,0.588235318660736);
#343=CARTESIAN_POINT('',(-1.89396417872665E-012,8.79422863405996,10.5));
#344=VECTOR('',#471,1.0);
#345=DRAUGHTING_PRE_DEFINED_CURVE_FONT('continuous');
#346=COLOUR_RGB('',0.509803950786591,0.509803950786591,0.588235318660736);
#347=AXIS2_PLACEMENT_3D('',#472,#473,#474);
#348=PRE_DEFINED_MARKER('');
#349=COLOUR_RGB('',0.509803950786591,0.509803950786591,0.588235318660736);
#350=DRAUGHTING_PRE_DEFINED_CURVE_FONT('continuous');
#351=COLOUR_RGB('',0.509803950786591,0.509803950786591,0.588235318660736);
#352=AXIS2_PLACEMENT_3D('',#475,#476,#477);
#353=SURFACE_SIDE_STYLE('',(#478));
#354=EDGE_LOOP('',(#479,#480,#481,#482));
#355=AXIS2_PLACEMENT_3D('',#483,#484,#485);
#356=DRAUGHTING_PRE_DEFINED_CURVE_FONT('continuous');
#357=COLOUR_RGB('',0.509803950786591,0.509803950786591,0.588235318660736);
#358=CARTESIAN_POINT('',(-1.2175141645781E-012,5.66506350946113,-16.7500000000001));
#359=VECTOR('',#486,1.0);
#360=PRE_DEFINED_MARKER('');
#361=COLOUR_RGB('',0.509803950786591,0.509803950786591,0.588235318660736);
#362=PRE_DEFINED_MARKER('');
#363=COLOUR_RGB('',0.509803950786591,0.509803950786591,0.588235318660736);
#364=SURFACE_SIDE_STYLE('',(#487));
#365=EDGE_LOOP('',(#488,#489,#490,#491));
#366=AXIS2_PLACEMENT_3D('',#492,#493,#494);
#367=DRAUGHTING_PRE_DEFINED_CURVE_FONT('continuous');
#368=COLOUR_RGB('',0.509803950786591,0.509803950786591,0.588235318660736);
#369=CARTESIAN_POINT('',(1.23178597685734E-012,-5.66506350946108,-16.7500000000001));
#370=VECTOR('',#495,1.0);
#371=SURFACE_SIDE_STYLE('',(#496));
#372=EDGE_LOOP('',(#497,#498));
#373=AXIS2_PLACEMENT_3D('',#499,#500,#501);
#374=SURFACE_SIDE_STYLE('',(#502));
#375=PRE_DEFINED_MARKER('');
#376=COLOUR_RGB('',0.509803950786591,0.509803950786591,0.588235318660736);
#377=SURFACE_SIDE_STYLE('',(#503));
#378=EDGE_LOOP('',(#504,#505,#506,#507));
#379=AXIS2_PLACEMENT_3D('',#508,#509,#510);
#380=DRAUGHTING_PRE_DEFINED_CURVE_FONT('continuous');
#381=COLOUR_RGB('',0.509803950786591,0.509803950786591,0.588235318660736);
#382=CARTESIAN_POINT('',(1.90823599100588E-012,-8.79422863405991,10.5));
#383=VECTOR('',#511,1.0);
#384=SURFACE_SIDE_STYLE('',(#512));
#385=EDGE_LOOP('',(#513,#514,#515,#516));
#386=AXIS2_PLACEMENT_3D('',#517,#518,#519);
#387=PRE_DEFINED_MARKER('');
#388=COLOUR_RGB('',0.509803950786591,0.509803950786591,0.588235318660736);
#389=PRE_DEFINED_MARKER('');
#390=COLOUR_RGB('',0.509803950786591,0.509803950786591,0.588235318660736);
#391=PRE_DEFINED_MARKER('');
#392=COLOUR_RGB('',0.509803950786591,0.509803950786591,0.588235318660736);
#393=SURFACE_SIDE_STYLE('',(#520));
#394=EDGE_LOOP('',(#521,#522,#523,#524));
#395=AXIS2_PLACEMENT_3D('',#525,#526,#527);
#396=DRAUGHTING_PRE_DEFINED_CURVE_FONT('continuous');
#397=COLOUR_RGB('',0.509803950786591,0.509803950786591,0.588235318660736);
#398=AXIS2_PLACEMENT_3D('',#528,#529,#530);
#399=PRE_DEFINED_MARKER('');
#400=COLOUR_RGB('',0.509803950786591,0.509803950786591,0.588235318660736);
#401=DRAUGHTING_PRE_DEFINED_CURVE_FONT('continuous');
#402=COLOUR_RGB('',0.509803950786591,0.509803950786591,0.588235318660736);
#403=AXIS2_PLACEMENT_3D('',#531,#532,#533);
#405=SURFACE_STYLE_FILL_AREA(#534);
#406=ORIENTED_EDGE('',*,*,#112,.T.);
#407=ORIENTED_EDGE('',*,*,#96,.T.);
#408=CARTESIAN_POINT('',(8.45954114945522E-015,-3.79422863405991,15.0));
#409=DIRECTION('',(0.0,0.0,1.0));
#410=DIRECTION('',(-1.83690953073357E-016,-1.0,0.0));
#411=CARTESIAN_POINT('',(7.13590613961699E-015,2.8421709430404E-014,5.99999999999994));
#412=DIRECTION('',(0.0,0.0,1.0));
#413=DIRECTION('',(2.16298337335168E-013,-1.0,0.0));
#414=SURFACE_STYLE_FILL_AREA(#535);
#415=ORIENTED_EDGE('',*,*,#154,.F.);
#416=ORIENTED_EDGE('',*,*,#84,.F.);
#417=ORIENTED_EDGE('',*,*,#150,.T.);
#418=ORIENTED_EDGE('',*,*,#94,.T.);
#419=CARTESIAN_POINT('',(6.76852423347027E-015,-7.99999999999997,-5.6843418860808E-014));
#420=DIRECTION('',(0.0,0.0,-1.0));
#421=DIRECTION('',(1.83690953073357E-016,1.0,0.0));
#422=SURFACE_STYLE_FILL_AREA(#536);
#423=ORIENTED_EDGE('',*,*,#80,.T.);
#424=ORIENTED_EDGE('',*,*,#70,.F.);
#425=ORIENTED_EDGE('',*,*,#106,.T.);
#426=ORIENTED_EDGE('',*,*,#84,.T.);
#427=CARTESIAN_POINT('',(7.13590613961699E-015,2.8421709430404E-014,2.99999999999994));
#428=DIRECTION('',(-0.0,-0.0,-1.0));
#429=DIRECTION('',(2.16298337335168E-013,-1.0,0.0));
#430=CARTESIAN_POINT('',(7.13590613961699E-015,2.8421709430404E-014,5.99999999999994));
#431=DIRECTION('',(0.0,0.0,1.0));
#432=DIRECTION('',(2.16298337335168E-013,-1.0,0.0));
#433=DIRECTION('',(0.0,0.0,1.0));
#434=CARTESIAN_POINT('',(7.13590613961699E-015,2.8421709430404E-014,-15.5000000000001));
#435=DIRECTION('',(0.0,0.0,1.0));
#436=DIRECTION('',(2.16298337335168E-013,-1.0,0.0));
#437=CARTESIAN_POINT('',(7.13590613961699E-015,2.8421709430404E-014,-5.6843418860808E-014));
#438=DIRECTION('',(0.0,0.0,1.0));
#439=DIRECTION('',(2.16298337335168E-013,-1.0,0.0));
#440=DIRECTION('',(-0.0,-0.0,-1.0));
#441=SURFACE_STYLE_FILL_AREA(#537);
#442=ORIENTED_EDGE('',*,*,#98,.T.);
#443=ORIENTED_EDGE('',*,*,#94,.F.);
#444=ORIENTED_EDGE('',*,*,#90,.T.);
#445=ORIENTED_EDGE('',*,*,#100,.T.);
#446=CARTESIAN_POINT('',(7.13590613961699E-015,2.8421709430404E-014,-7.75000000000006));
#447=DIRECTION('',(-0.0,-0.0,-1.0));
#448=DIRECTION('',(2.16298337335168E-013,-1.0,0.0));
#449=CARTESIAN_POINT('',(7.13590613961699E-015,2.8421709430404E-014,-5.6843418860808E-014));
#450=DIRECTION('',(0.0,0.0,1.0));
#451=DIRECTION('',(2.16298337335168E-013,-1.0,0.0));
#452=CARTESIAN_POINT('',(7.13590613961699E-015,2.8421709430404E-014,15.0));
#453=DIRECTION('',(0.0,0.0,1.0));
#454=DIRECTION('',(2.16298337335168E-013,-1.0,0.0));
#455=DIRECTION('',(0.0,0.0,1.0));
#456=CARTESIAN_POINT('',(7.13590613961699E-015,2.8421709430404E-014,-15.5000000000001));
#457=DIRECTION('',(0.0,0.0,1.0));
#458=DIRECTION('',(2.16298337335168E-013,-1.0,0.0));
#459=CARTESIAN_POINT('',(7.13590613961699E-015,2.8421709430404E-014,-18.0000000000001));
#460=DIRECTION('',(0.0,0.0,1.0));
#461=DIRECTION('',(2.16298337335168E-013,-1.0,0.0));
#462=DIRECTION('',(-0.0,-0.0,-1.0));
#463=SURFACE_STYLE_FILL_AREA(#538);
#464=ORIENTED_EDGE('',*,*,#128,.F.);
#465=ORIENTED_EDGE('',*,*,#116,.T.);
#466=ORIENTED_EDGE('',*,*,#120,.F.);
#467=ORIENTED_EDGE('',*,*,#82,.F.);
#468=CARTESIAN_POINT('',(7.13590613961699E-015,2.8421709430404E-014,-16.7500000000001));
#469=DIRECTION('',(-0.0,0.0,1.0));
#470=DIRECTION('',(2.16298337335168E-013,-1.0,0.0));
#471=DIRECTION('',(-5.59504339816393E-014,0.258819045102523,-0.965925826289068));
#472=CARTESIAN_POINT('',(7.13590613961699E-015,2.8421709430404E-014,15.0));
#473=DIRECTION('',(0.0,0.0,1.0));
#474=DIRECTION('',(2.16298337335168E-013,-1.0,0.0));
#475=CARTESIAN_POINT('',(7.13590613961699E-015,2.8421709430404E-014,-18.0000000000001));
#476=DIRECTION('',(0.0,0.0,1.0));
#477=DIRECTION('',(2.16298337335168E-013,-1.0,0.0));
#478=SURFACE_STYLE_FILL_AREA(#539);
#479=ORIENTED_EDGE('',*,*,#80,.F.);
#480=ORIENTED_EDGE('',*,*,#154,.T.);
#481=ORIENTED_EDGE('',*,*,#106,.F.);
#482=ORIENTED_EDGE('',*,*,#78,.F.);
#483=CARTESIAN_POINT('',(7.13590613961699E-015,2.8421709430404E-014,2.99999999999994));
#484=DIRECTION('',(-0.0,-0.0,-1.0));
#485=DIRECTION('',(2.16298337335168E-013,-1.0,0.0));
#486=DIRECTION('',(5.59504339816374E-014,-0.258819045102514,-0.96592582628907));
#487=SURFACE_STYLE_FILL_AREA(#540);
#488=ORIENTED_EDGE('',*,*,#138,.T.);
#489=ORIENTED_EDGE('',*,*,#96,.F.);
#490=ORIENTED_EDGE('',*,*,#110,.T.);
#491=ORIENTED_EDGE('',*,*,#70,.T.);
#492=CARTESIAN_POINT('',(7.13590613961699E-015,2.8421709430404E-014,10.5));
#493=DIRECTION('',(-0.0,-0.0,-1.0));
#494=DIRECTION('',(2.16298337335168E-013,-1.0,0.0));
#495=DIRECTION('',(5.59504339816374E-014,-0.258819045102514,0.96592582628907));
#496=SURFACE_STYLE_FILL_AREA(#541);
#497=ORIENTED_EDGE('',*,*,#116,.F.);
#498=ORIENTED_EDGE('',*,*,#104,.F.);
#499=CARTESIAN_POINT('',(6.64635808356305E-015,-2.66506350946108,-18.0));
#500=DIRECTION('',(0.0,0.0,-1.0));
#501=DIRECTION('',(1.83690953073357E-016,1.0,0.0));
#502=SURFACE_STYLE_FILL_AREA(#542);
#503=SURFACE_STYLE_FILL_AREA(#543);
#504=ORIENTED_EDGE('',*,*,#128,.T.);
#505=ORIENTED_EDGE('',*,*,#100,.F.);
#506=ORIENTED_EDGE('',*,*,#120,.T.);
#507=ORIENTED_EDGE('',*,*,#104,.T.);
#508=CARTESIAN_POINT('',(7.13590613961699E-015,2.8421709430404E-014,-16.7500000000001));
#509=DIRECTION('',(-0.0,0.0,1.0));
#510=DIRECTION('',(2.16298337335168E-013,-1.0,0.0));
#511=DIRECTION('',(-5.59504339816393E-014,0.258819045102523,0.965925826289068));
#512=SURFACE_STYLE_FILL_AREA(#544);
#513=ORIENTED_EDGE('',*,*,#98,.F.);
#514=ORIENTED_EDGE('',*,*,#82,.T.);
#515=ORIENTED_EDGE('',*,*,#90,.F.);
#516=ORIENTED_EDGE('',*,*,#150,.F.);
#517=CARTESIAN_POINT('',(7.13590613961699E-015,2.8421709430404E-014,-7.75000000000006));
#518=DIRECTION('',(-0.0,-0.0,-1.0));
#519=DIRECTION('',(2.16298337335168E-013,-1.0,0.0));
#520=SURFACE_STYLE_FILL_AREA(#545);
#521=ORIENTED_EDGE('',*,*,#138,.F.);
#522=ORIENTED_EDGE('',*,*,#78,.T.);
#523=ORIENTED_EDGE('',*,*,#110,.F.);
#524=ORIENTED_EDGE('',*,*,#112,.F.);
#525=CARTESIAN_POINT('',(7.13590613961699E-015,2.8421709430404E-014,10.5));
#526=DIRECTION('',(-0.0,-0.0,-1.0));
#527=DIRECTION('',(2.16298337335168E-013,-1.0,0.0));
#528=CARTESIAN_POINT('',(7.13590613961699E-015,2.8421709430404E-014,-5.6843418860808E-014));
#529=DIRECTION('',(0.0,0.0,1.0));
#530=DIRECTION('',(2.16298337335168E-013,-1.0,0.0));
#531=CARTESIAN_POINT('',(7.13590613961699E-015,2.8421709430404E-014,-5.6843418860808E-014));
#532=DIRECTION('',(0.0,0.0,1.0));
#533=DIRECTION('',(2.16298337335168E-013,-1.0,0.0));
#534=FILL_AREA_STYLE('',(#546));
#535=FILL_AREA_STYLE('',(#547));
#536=FILL_AREA_STYLE('',(#548));
#537=FILL_AREA_STYLE('',(#549));
#538=FILL_AREA_STYLE('',(#550));
#539=FILL_AREA_STYLE('',(#551));
#540=FILL_AREA_STYLE('',(#552));
#541=FILL_AREA_STYLE('',(#553));
#542=FILL_AREA_STYLE('',(#554));
#543=FILL_AREA_STYLE('',(#555));
#544=FILL_AREA_STYLE('',(#556));
#545=FILL_AREA_STYLE('',(#557));
#546=FILL_AREA_STYLE_COLOUR('',#558);
#547=FILL_AREA_STYLE_COLOUR('',#559);
#548=FILL_AREA_STYLE_COLOUR('',#560);
#549=FILL_AREA_STYLE_COLOUR('',#561);
#550=FILL_AREA_STYLE_COLOUR('',#562);
#551=FILL_AREA_STYLE_COLOUR('',#563);
#552=FILL_AREA_STYLE_COLOUR('',#564);
#553=FILL_AREA_STYLE_COLOUR('',#565);
#554=FILL_AREA_STYLE_COLOUR('',#566);
#555=FILL_AREA_STYLE_COLOUR('',#567);
#556=FILL_AREA_STYLE_COLOUR('',#568);
#557=FILL_AREA_STYLE_COLOUR('',#569);
#558=COLOUR_RGB('',0.509803950786591,0.509803950786591,0.588235318660736);
#559=COLOUR_RGB('',0.509803950786591,0.509803950786591,0.588235318660736);
#560=COLOUR_RGB('',0.509803950786591,0.509803950786591,0.588235318660736);
#561=COLOUR_RGB('',0.509803950786591,0.509803950786591,0.588235318660736);
#562=COLOUR_RGB('',0.509803950786591,0.509803950786591,0.588235318660736);
#563=COLOUR_RGB('',0.509803950786591,0.509803950786591,0.588235318660736);
#564=COLOUR_RGB('',0.509803950786591,0.509803950786591,0.588235318660736);
#565=COLOUR_RGB('',0.509803950786591,0.509803950786591,0.588235318660736);
#566=COLOUR_RGB('',0.509803950786591,0.509803950786591,0.588235318660736);
#567=COLOUR_RGB('',0.509803950786591,0.509803950786591,0.588235318660736);
#568=COLOUR_RGB('',0.509803950786591,0.509803950786591,0.588235318660736);
#569=COLOUR_RGB('',0.509803950786591,0.509803950786591,0.588235318660736);
ENDSEC;
END-ISO-10303-21;
