ISO-10303-21;
HEADER;
FILE_DESCRIPTION(('STEP AP214'),'1');
FILE_NAME(' ','  ',('TraceParts'),('TraceParts S.A.'),'XStep 1.0',' ',' ');
FILE_SCHEMA(('automotive_design'));
ENDSEC;
DATA;
#1=MECHANICAL_DESIGN_GEOMETRIC_PRESENTATION_REPRESENTATION(' ',(#10,#11,#12,#13,#14,#15,#16,#17,#18,#19,#20,#21,#22,#23,#24,#25,#26,#27,#28,#29,#30,#31,#32,#33,#34,#35,#36,#37,#38,#39,#40,#41,#42,#43,#44,#45,#46,#47,#48,#49,#50,#51,#52),#6);
#2=PRODUCT_DEFINITION_CONTEXT('',#53,'design');
#3=APPLICATION_PROTOCOL_DEFINITION('INTERNATIONAL STANDARD','automotive_design',1994,#53);
#4=PRODUCT_CATEGORY_RELATIONSHIP('NONE','NONE',#54,#55);
#5=SHAPE_DEFINITION_REPRESENTATION(#56,#57);
#6= (GEOMETRIC_REPRESENTATION_CONTEXT(3)GLOBAL_UNCERTAINTY_ASSIGNED_CONTEXT((#60))GLOBAL_UNIT_ASSIGNED_CONTEXT((#62,#63,#64))REPRESENTATION_CONTEXT('NONE','WORKSPACE'));
#10=STYLED_ITEM('',(#66),#67);
#11=STYLED_ITEM('',(#68),#69);
#12=STYLED_ITEM('',(#70),#71);
#13=STYLED_ITEM('',(#72),#73);
#14=STYLED_ITEM('',(#74),#75);
#15=STYLED_ITEM('',(#76),#77);
#16=STYLED_ITEM('',(#78),#79);
#17=STYLED_ITEM('',(#80),#81);
#18=STYLED_ITEM('',(#82),#83);
#19=STYLED_ITEM('',(#84),#85);
#20=STYLED_ITEM('',(#86),#87);
#21=STYLED_ITEM('',(#88),#89);
#22=STYLED_ITEM('',(#90),#91);
#23=STYLED_ITEM('',(#92),#93);
#24=STYLED_ITEM('',(#94),#95);
#25=STYLED_ITEM('',(#96),#97);
#26=STYLED_ITEM('',(#98),#99);
#27=STYLED_ITEM('',(#100),#101);
#28=STYLED_ITEM('',(#102),#103);
#29=STYLED_ITEM('',(#104),#105);
#30=STYLED_ITEM('',(#106),#107);
#31=STYLED_ITEM('',(#108),#109);
#32=STYLED_ITEM('',(#110),#111);
#33=STYLED_ITEM('',(#112),#113);
#34=STYLED_ITEM('',(#114),#115);
#35=STYLED_ITEM('',(#116),#117);
#36=STYLED_ITEM('',(#118),#119);
#37=STYLED_ITEM('',(#120),#121);
#38=STYLED_ITEM('',(#122),#123);
#39=STYLED_ITEM('',(#124),#125);
#40=STYLED_ITEM('',(#126),#127);
#41=STYLED_ITEM('',(#128),#129);
#42=STYLED_ITEM('',(#130),#131);
#43=STYLED_ITEM('',(#132),#133);
#44=STYLED_ITEM('',(#134),#135);
#45=STYLED_ITEM('',(#136),#137);
#46=STYLED_ITEM('',(#138),#139);
#47=STYLED_ITEM('',(#140),#141);
#48=STYLED_ITEM('',(#142),#143);
#49=STYLED_ITEM('',(#144),#145);
#50=STYLED_ITEM('',(#146),#147);
#51=STYLED_ITEM('',(#148),#149);
#52=STYLED_ITEM('',(#150),#151);
#53=APPLICATION_CONTEXT(' ');
#54=PRODUCT_CATEGORY('part','NONE');
#55=PRODUCT_RELATED_PRODUCT_CATEGORY('detail',' ',(#152));
#56=PRODUCT_DEFINITION_SHAPE('NONE','NONE',#153);
#57=ADVANCED_BREP_SHAPE_REPRESENTATION('1',(#154,#155),#6);
#60=UNCERTAINTY_MEASURE_WITH_UNIT(LENGTH_MEASURE(1.0E-006),#62,'','');
#62= (CONVERSION_BASED_UNIT('MILLIMETRE',#158)LENGTH_UNIT()NAMED_UNIT(#161));
#63= (NAMED_UNIT(#163)PLANE_ANGLE_UNIT()SI_UNIT($,.RADIAN.));
#64= (NAMED_UNIT(#163)SOLID_ANGLE_UNIT()SI_UNIT($,.STERADIAN.));
#66=PRESENTATION_STYLE_ASSIGNMENT((#169));
#67=ADVANCED_FACE('',(#170,#171),#172,.T.);
#68=PRESENTATION_STYLE_ASSIGNMENT((#173));
#69=EDGE_CURVE('',#147,#77,#174,.T.);
#70=PRESENTATION_STYLE_ASSIGNMENT((#175));
#71=EDGE_CURVE('',#125,#97,#176,.T.);
#72=PRESENTATION_STYLE_ASSIGNMENT((#177));
#73=EDGE_CURVE('',#97,#103,#178,.T.);
#74=PRESENTATION_STYLE_ASSIGNMENT((#179));
#75=EDGE_CURVE('',#93,#115,#180,.T.);
#76=PRESENTATION_STYLE_ASSIGNMENT((#181));
#77=VERTEX_POINT('',#182);
#78=PRESENTATION_STYLE_ASSIGNMENT((#183));
#79=EDGE_CURVE('',#113,#141,#184,.T.);
#80=PRESENTATION_STYLE_ASSIGNMENT((#185));
#81=EDGE_CURVE('',#99,#129,#186,.T.);
#82=PRESENTATION_STYLE_ASSIGNMENT((#187));
#83=EDGE_CURVE('',#103,#97,#188,.T.);
#84=PRESENTATION_STYLE_ASSIGNMENT((#189));
#85=ADVANCED_FACE('',(#190),#191,.T.);
#86=PRESENTATION_STYLE_ASSIGNMENT((#192));
#87=ADVANCED_FACE('',(#193),#194,.T.);
#88=PRESENTATION_STYLE_ASSIGNMENT((#195));
#89=EDGE_CURVE('',#123,#77,#196,.T.);
#90=PRESENTATION_STYLE_ASSIGNMENT((#197));
#91=EDGE_CURVE('',#125,#147,#198,.T.);
#92=PRESENTATION_STYLE_ASSIGNMENT((#199));
#93=VERTEX_POINT('',#200);
#94=PRESENTATION_STYLE_ASSIGNMENT((#201));
#95=EDGE_CURVE('',#99,#113,#202,.T.);
#96=PRESENTATION_STYLE_ASSIGNMENT((#203));
#97=VERTEX_POINT('',#204);
#98=PRESENTATION_STYLE_ASSIGNMENT((#205));
#99=VERTEX_POINT('',#206);
#100=PRESENTATION_STYLE_ASSIGNMENT((#207));
#101=EDGE_CURVE('',#103,#147,#208,.T.);
#102=PRESENTATION_STYLE_ASSIGNMENT((#209));
#103=VERTEX_POINT('',#210);
#104=PRESENTATION_STYLE_ASSIGNMENT((#211));
#105=ADVANCED_FACE('',(#212),#213,.T.);
#106=PRESENTATION_STYLE_ASSIGNMENT((#214));
#107=EDGE_CURVE('',#115,#141,#215,.T.);
#108=PRESENTATION_STYLE_ASSIGNMENT((#216));
#109=ADVANCED_FACE('',(#217),#218,.T.);
#110=PRESENTATION_STYLE_ASSIGNMENT((#219));
#111=ADVANCED_FACE('',(#220),#221,.T.);
#112=PRESENTATION_STYLE_ASSIGNMENT((#222));
#113=VERTEX_POINT('',#223);
#114=PRESENTATION_STYLE_ASSIGNMENT((#224));
#115=VERTEX_POINT('',#225);
#116=PRESENTATION_STYLE_ASSIGNMENT((#226));
#117=EDGE_CURVE('',#129,#99,#227,.T.);
#118=PRESENTATION_STYLE_ASSIGNMENT((#228));
#119=EDGE_CURVE('',#77,#123,#229,.T.);
#120=PRESENTATION_STYLE_ASSIGNMENT((#230));
#121=EDGE_CURVE('',#123,#125,#231,.T.);
#122=PRESENTATION_STYLE_ASSIGNMENT((#232));
#123=VERTEX_POINT('',#233);
#124=PRESENTATION_STYLE_ASSIGNMENT((#234));
#125=VERTEX_POINT('',#235);
#126=PRESENTATION_STYLE_ASSIGNMENT((#236));
#127=ADVANCED_FACE('',(#237),#238,.T.);
#128=PRESENTATION_STYLE_ASSIGNMENT((#239));
#129=VERTEX_POINT('',#240);
#130=PRESENTATION_STYLE_ASSIGNMENT((#241));
#131=EDGE_CURVE('',#113,#93,#242,.T.);
#132=PRESENTATION_STYLE_ASSIGNMENT((#243));
#133=EDGE_CURVE('',#147,#125,#244,.T.);
#134=PRESENTATION_STYLE_ASSIGNMENT((#245));
#135=EDGE_CURVE('',#141,#129,#246,.T.);
#136=PRESENTATION_STYLE_ASSIGNMENT((#247));
#137=ADVANCED_FACE('',(#248),#249,.T.);
#138=PRESENTATION_STYLE_ASSIGNMENT((#250));
#139=ADVANCED_FACE('',(#251),#252,.T.);
#140=PRESENTATION_STYLE_ASSIGNMENT((#253));
#141=VERTEX_POINT('',#254);
#142=PRESENTATION_STYLE_ASSIGNMENT((#255));
#143=EDGE_CURVE('',#141,#113,#256,.T.);
#144=PRESENTATION_STYLE_ASSIGNMENT((#257));
#145=EDGE_CURVE('',#115,#93,#258,.T.);
#146=PRESENTATION_STYLE_ASSIGNMENT((#259));
#147=VERTEX_POINT('',#260);
#148=PRESENTATION_STYLE_ASSIGNMENT((#261));
#149=ADVANCED_FACE('',(#262),#263,.T.);
#150=PRESENTATION_STYLE_ASSIGNMENT((#264));
#151=ADVANCED_FACE('',(#265),#266,.T.);
#152=PRODUCT('1','1','PART-1-DESC',(#267));
#153=PRODUCT_DEFINITION('NONE','NONE',#268,#2);
#154=MANIFOLD_SOLID_BREP('1',#269);
#155=AXIS2_PLACEMENT_3D('',#270,#271,#272);
#158=LENGTH_MEASURE_WITH_UNIT(LENGTH_MEASURE(1.0),#273);
#161=DIMENSIONAL_EXPONENTS(1.0,0.0,0.0,0.0,0.0,0.0,0.0);
#163=DIMENSIONAL_EXPONENTS(0.0,0.0,0.0,0.0,0.0,0.0,0.0);
#169=SURFACE_STYLE_USAGE(.BOTH.,#274);
#170=FACE_BOUND('',#275,.T.);
#171=FACE_OUTER_BOUND('',#276,.T.);
#172=PLANE('',#277);
#173=CURVE_STYLE('',#278,POSITIVE_LENGTH_MEASURE(1.0E-006),#279);
#174=LINE('',#280,#281);
#175=CURVE_STYLE('',#282,POSITIVE_LENGTH_MEASURE(1.0E-006),#283);
#176=LINE('',#284,#285);
#177=CURVE_STYLE('',#286,POSITIVE_LENGTH_MEASURE(1.0E-006),#287);
#178=CIRCLE('',#288,2.55);
#179=CURVE_STYLE('',#289,POSITIVE_LENGTH_MEASURE(1.0E-006),#290);
#180=CIRCLE('',#291,2.0);
#181=POINT_STYLE(' ',#292,POSITIVE_LENGTH_MEASURE(1.0E-006),#293);
#182=CARTESIAN_POINT('',(3.0,0.0,0.0));
#183=CURVE_STYLE('',#294,POSITIVE_LENGTH_MEASURE(1.0E-006),#295);
#184=CIRCLE('',#296,2.0);
#185=CURVE_STYLE('',#297,POSITIVE_LENGTH_MEASURE(1.0E-006),#298);
#186=CIRCLE('',#299,1.8);
#187=CURVE_STYLE('',#300,POSITIVE_LENGTH_MEASURE(1.0E-006),#301);
#188=CIRCLE('',#302,2.55);
#189=SURFACE_STYLE_USAGE(.BOTH.,#303);
#190=FACE_OUTER_BOUND('',#304,.T.);
#191=CONICAL_SURFACE('',#305,1.9,0.197395559849881);
#192=SURFACE_STYLE_USAGE(.BOTH.,#306);
#193=FACE_OUTER_BOUND('',#307,.T.);
#194=CYLINDRICAL_SURFACE('',#308,2.0);
#195=CURVE_STYLE('',#309,POSITIVE_LENGTH_MEASURE(1.0E-006),#310);
#196=CIRCLE('',#311,3.0);
#197=CURVE_STYLE('',#312,POSITIVE_LENGTH_MEASURE(1.0E-006),#313);
#198=CIRCLE('',#314,3.0);
#199=POINT_STYLE(' ',#315,POSITIVE_LENGTH_MEASURE(1.0E-006),#316);
#200=CARTESIAN_POINT('',(-2.0,-2.44921270764475E-016,1.49966072182214E-032));
#201=CURVE_STYLE('',#317,POSITIVE_LENGTH_MEASURE(1.0E-006),#318);
#202=LINE('',#319,#320);
#203=POINT_STYLE(' ',#321,POSITIVE_LENGTH_MEASURE(1.0E-006),#322);
#204=CARTESIAN_POINT('',(-2.55,-3.67381906146713E-017,4.5));
#205=POINT_STYLE(' ',#323,POSITIVE_LENGTH_MEASURE(1.0E-006),#324);
#206=CARTESIAN_POINT('',(-1.8,-7.40886844062538E-016,-8.5));
#207=CURVE_STYLE('',#325,POSITIVE_LENGTH_MEASURE(1.0E-006),#326);
#208=LINE('',#327,#328);
#209=POINT_STYLE(' ',#329,POSITIVE_LENGTH_MEASURE(1.0E-006),#330);
#210=CARTESIAN_POINT('',(2.55,2.75536429610035E-016,4.5));
#211=SURFACE_STYLE_USAGE(.BOTH.,#331);
#212=FACE_OUTER_BOUND('',#332,.T.);
#213=CONICAL_SURFACE('',#333,2.775,0.785398163397448);
#214=CURVE_STYLE('',#334,POSITIVE_LENGTH_MEASURE(1.0E-006),#335);
#215=LINE('',#336,#337);
#216=SURFACE_STYLE_USAGE(.BOTH.,#338);
#217=FACE_OUTER_BOUND('',#339,.T.);
#218=CYLINDRICAL_SURFACE('',#340,3.0);
#219=SURFACE_STYLE_USAGE(.BOTH.,#341);
#220=FACE_OUTER_BOUND('',#342,.T.);
#221=CONICAL_SURFACE('',#343,2.775,0.785398163397448);
#222=POINT_STYLE(' ',#344,POSITIVE_LENGTH_MEASURE(1.0E-006),#345);
#223=CARTESIAN_POINT('',(-2.0,-7.04148653447867E-016,-7.5));
#224=POINT_STYLE(' ',#346,POSITIVE_LENGTH_MEASURE(1.0E-006),#347);
#225=CARTESIAN_POINT('',(2.0,0.0,0.0));
#226=CURVE_STYLE('',#348,POSITIVE_LENGTH_MEASURE(1.0E-006),#349);
#227=CIRCLE('',#350,1.8);
#228=CURVE_STYLE('',#351,POSITIVE_LENGTH_MEASURE(1.0E-006),#352);
#229=CIRCLE('',#353,3.0);
#230=CURVE_STYLE('',#354,POSITIVE_LENGTH_MEASURE(1.0E-006),#355);
#231=LINE('',#356,#357);
#232=POINT_STYLE(' ',#358,POSITIVE_LENGTH_MEASURE(1.0E-006),#359);
#233=CARTESIAN_POINT('',(-3.0,-3.67381906146713E-016,2.24949108273321E-032));
#234=POINT_STYLE(' ',#360,POSITIVE_LENGTH_MEASURE(1.0E-006),#361);
#235=CARTESIAN_POINT('',(-3.0,-1.19399119497682E-016,4.05));
#236=SURFACE_STYLE_USAGE(.BOTH.,#362);
#237=FACE_OUTER_BOUND('',#363,.T.);
#238=CYLINDRICAL_SURFACE('',#364,3.0);
#239=POINT_STYLE(' ',#365,POSITIVE_LENGTH_MEASURE(1.0E-006),#366);
#240=CARTESIAN_POINT('',(1.8,-5.2045770037451E-016,-8.5));
#241=CURVE_STYLE('',#367,POSITIVE_LENGTH_MEASURE(1.0E-006),#368);
#242=LINE('',#369,#370);
#243=CURVE_STYLE('',#371,POSITIVE_LENGTH_MEASURE(1.0E-006),#372);
#244=CIRCLE('',#373,3.0);
#245=CURVE_STYLE('',#374,POSITIVE_LENGTH_MEASURE(1.0E-006),#375);
#246=LINE('',#376,#377);
#247=SURFACE_STYLE_USAGE(.BOTH.,#378);
#248=FACE_OUTER_BOUND('',#379,.T.);
#249=CYLINDRICAL_SURFACE('',#380,2.0);
#250=SURFACE_STYLE_USAGE(.BOTH.,#381);
#251=FACE_OUTER_BOUND('',#382,.T.);
#252=PLANE('',#383);
#253=POINT_STYLE(' ',#384,POSITIVE_LENGTH_MEASURE(1.0E-006),#385);
#254=CARTESIAN_POINT('',(2.0,-4.59227382683391E-016,-7.5));
#255=CURVE_STYLE('',#386,POSITIVE_LENGTH_MEASURE(1.0E-006),#387);
#256=CIRCLE('',#388,2.0);
#257=CURVE_STYLE('',#389,POSITIVE_LENGTH_MEASURE(1.0E-006),#390);
#258=CIRCLE('',#391,2.0);
#259=POINT_STYLE(' ',#392,POSITIVE_LENGTH_MEASURE(1.0E-006),#393);
#260=CARTESIAN_POINT('',(3.0,2.47982786649031E-016,4.05));
#261=SURFACE_STYLE_USAGE(.BOTH.,#394);
#262=FACE_OUTER_BOUND('',#395,.T.);
#263=CONICAL_SURFACE('',#396,1.9,0.197395559849881);
#264=SURFACE_STYLE_USAGE(.BOTH.,#397);
#265=FACE_OUTER_BOUND('',#398,.T.);
#266=PLANE('',#399);
#267=PRODUCT_CONTEXT('',#53,'mechanical');
#268=PRODUCT_DEFINITION_FORMATION_WITH_SPECIFIED_SOURCE(' ','NONE',#152,.NOT_KNOWN.);
#269=CLOSED_SHELL('',(#85,#137,#127,#105,#139,#111,#109,#67,#87,#149,#151));
#270=CARTESIAN_POINT('',(0.0,0.0,0.0));
#271=DIRECTION('',(0.0,0.0,1.0));
#272=DIRECTION('',(1.0,0.0,0.0));
#273= (NAMED_UNIT(#161)LENGTH_UNIT()SI_UNIT(.MILLI.,.METRE.));
#274=SURFACE_SIDE_STYLE('',(#401));
#275=EDGE_LOOP('',(#402,#403));
#276=EDGE_LOOP('',(#404,#405));
#277=AXIS2_PLACEMENT_3D('',#406,#407,#408);
#278=DRAUGHTING_PRE_DEFINED_CURVE_FONT('continuous');
#279=COLOUR_RGB('',0.509803950786591,0.509803950786591,0.588235318660736);
#280=CARTESIAN_POINT('',(3.0,4.91373299471229E-016,2.025));
#281=VECTOR('',#409,1.0);
#282=DRAUGHTING_PRE_DEFINED_CURVE_FONT('continuous');
#283=COLOUR_RGB('',0.509803950786591,0.509803950786591,0.588235318660736);
#284=CARTESIAN_POINT('',(-2.775,-7.80686550561765E-017,4.275));
#285=VECTOR('',#410,1.0);
#286=DRAUGHTING_PRE_DEFINED_CURVE_FONT('continuous');
#287=COLOUR_RGB('',0.509803950786591,0.509803950786591,0.588235318660736);
#288=AXIS2_PLACEMENT_3D('',#411,#412,#413);
#289=DRAUGHTING_PRE_DEFINED_CURVE_FONT('continuous');
#290=COLOUR_RGB('',0.509803950786591,0.509803950786591,0.588235318660736);
#291=AXIS2_PLACEMENT_3D('',#414,#415,#416);
#292=PRE_DEFINED_MARKER('');
#293=COLOUR_RGB('',0.509803950786591,0.509803950786591,0.588235318660736);
#294=DRAUGHTING_PRE_DEFINED_CURVE_FONT('continuous');
#295=COLOUR_RGB('',0.509803950786591,0.509803950786591,0.588235318660736);
#296=AXIS2_PLACEMENT_3D('',#417,#418,#419);
#297=DRAUGHTING_PRE_DEFINED_CURVE_FONT('continuous');
#298=COLOUR_RGB('',0.509803950786591,0.509803950786591,0.588235318660736);
#299=AXIS2_PLACEMENT_3D('',#420,#421,#422);
#300=DRAUGHTING_PRE_DEFINED_CURVE_FONT('continuous');
#301=COLOUR_RGB('',0.509803950786591,0.509803950786591,0.588235318660736);
#302=AXIS2_PLACEMENT_3D('',#423,#424,#425);
#303=SURFACE_SIDE_STYLE('',(#426));
#304=EDGE_LOOP('',(#427,#428,#429,#430));
#305=AXIS2_PLACEMENT_3D('',#431,#432,#433);
#306=SURFACE_SIDE_STYLE('',(#434));
#307=EDGE_LOOP('',(#435,#436,#437,#438));
#308=AXIS2_PLACEMENT_3D('',#439,#440,#441);
#309=DRAUGHTING_PRE_DEFINED_CURVE_FONT('continuous');
#310=COLOUR_RGB('',0.509803950786591,0.509803950786591,0.588235318660736);
#311=AXIS2_PLACEMENT_3D('',#442,#443,#444);
#312=DRAUGHTING_PRE_DEFINED_CURVE_FONT('continuous');
#313=COLOUR_RGB('',0.509803950786591,0.509803950786591,0.588235318660736);
#314=AXIS2_PLACEMENT_3D('',#445,#446,#447);
#315=PRE_DEFINED_MARKER('');
#316=COLOUR_RGB('',0.509803950786591,0.509803950786591,0.588235318660736);
#317=DRAUGHTING_PRE_DEFINED_CURVE_FONT('continuous');
#318=COLOUR_RGB('',0.509803950786591,0.509803950786591,0.588235318660736);
#319=CARTESIAN_POINT('',(-1.9,-7.22517748755203E-016,-8.0));
#320=VECTOR('',#448,1.0);
#321=PRE_DEFINED_MARKER('');
#322=COLOUR_RGB('',0.509803950786591,0.509803950786591,0.588235318660736);
#323=PRE_DEFINED_MARKER('');
#324=COLOUR_RGB('',0.509803950786591,0.509803950786591,0.588235318660736);
#325=DRAUGHTING_PRE_DEFINED_CURVE_FONT('continuous');
#326=COLOUR_RGB('',0.509803950786591,0.509803950786591,0.588235318660736);
#327=CARTESIAN_POINT('',(2.775,6.01587871315243E-016,4.275));
#328=VECTOR('',#449,1.0);
#329=PRE_DEFINED_MARKER('');
#330=COLOUR_RGB('',0.509803950786591,0.509803950786591,0.588235318660736);
#331=SURFACE_SIDE_STYLE('',(#450));
#332=EDGE_LOOP('',(#451,#452,#453,#454));
#333=AXIS2_PLACEMENT_3D('',#455,#456,#457);
#334=DRAUGHTING_PRE_DEFINED_CURVE_FONT('continuous');
#335=COLOUR_RGB('',0.509803950786591,0.509803950786591,0.588235318660736);
#336=CARTESIAN_POINT('',(2.0,1.53075794227797E-017,-3.75));
#337=VECTOR('',#458,1.0);
#338=SURFACE_SIDE_STYLE('',(#459));
#339=EDGE_LOOP('',(#460,#461,#462,#463));
#340=AXIS2_PLACEMENT_3D('',#464,#465,#466);
#341=SURFACE_SIDE_STYLE('',(#467));
#342=EDGE_LOOP('',(#468,#469,#470,#471));
#343=AXIS2_PLACEMENT_3D('',#472,#473,#474);
#344=PRE_DEFINED_MARKER('');
#345=COLOUR_RGB('',0.509803950786591,0.509803950786591,0.588235318660736);
#346=PRE_DEFINED_MARKER('');
#347=COLOUR_RGB('',0.509803950786591,0.509803950786591,0.588235318660736);
#348=DRAUGHTING_PRE_DEFINED_CURVE_FONT('continuous');
#349=COLOUR_RGB('',0.509803950786591,0.509803950786591,0.588235318660736);
#350=AXIS2_PLACEMENT_3D('',#475,#476,#477);
#351=DRAUGHTING_PRE_DEFINED_CURVE_FONT('continuous');
#352=COLOUR_RGB('',0.509803950786591,0.509803950786591,0.588235318660736);
#353=AXIS2_PLACEMENT_3D('',#478,#479,#480);
#354=DRAUGHTING_PRE_DEFINED_CURVE_FONT('continuous');
#355=COLOUR_RGB('',0.509803950786591,0.509803950786591,0.588235318660736);
#356=CARTESIAN_POINT('',(-3.0,-2.43390512822198E-016,2.025));
#357=VECTOR('',#481,1.0);
#358=PRE_DEFINED_MARKER('');
#359=COLOUR_RGB('',0.509803950786591,0.509803950786591,0.588235318660736);
#360=PRE_DEFINED_MARKER('');
#361=COLOUR_RGB('',0.509803950786591,0.509803950786591,0.588235318660736);
#362=SURFACE_SIDE_STYLE('',(#482));
#363=EDGE_LOOP('',(#483,#484,#485,#486));
#364=AXIS2_PLACEMENT_3D('',#487,#488,#489);
#365=PRE_DEFINED_MARKER('');
#366=COLOUR_RGB('',0.509803950786591,0.509803950786591,0.588235318660736);
#367=DRAUGHTING_PRE_DEFINED_CURVE_FONT('continuous');
#368=COLOUR_RGB('',0.509803950786591,0.509803950786591,0.588235318660736);
#369=CARTESIAN_POINT('',(-2.0,-4.74534962106171E-016,-3.75));
#370=VECTOR('',#490,1.0);
#371=DRAUGHTING_PRE_DEFINED_CURVE_FONT('continuous');
#372=COLOUR_RGB('',0.509803950786591,0.509803950786591,0.588235318660736);
#373=AXIS2_PLACEMENT_3D('',#491,#492,#493);
#374=DRAUGHTING_PRE_DEFINED_CURVE_FONT('continuous');
#375=COLOUR_RGB('',0.509803950786591,0.509803950786591,0.588235318660736);
#376=CARTESIAN_POINT('',(1.9,-2.57167334302699E-016,-8.0));
#377=VECTOR('',#494,1.0);
#378=SURFACE_SIDE_STYLE('',(#495));
#379=EDGE_LOOP('',(#496,#497,#498,#499));
#380=AXIS2_PLACEMENT_3D('',#500,#501,#502);
#381=SURFACE_SIDE_STYLE('',(#503));
#382=EDGE_LOOP('',(#504,#505));
#383=AXIS2_PLACEMENT_3D('',#506,#507,#508);
#384=PRE_DEFINED_MARKER('');
#385=COLOUR_RGB('',0.509803950786591,0.509803950786591,0.588235318660736);
#386=DRAUGHTING_PRE_DEFINED_CURVE_FONT('continuous');
#387=COLOUR_RGB('',0.509803950786591,0.509803950786591,0.588235318660736);
#388=AXIS2_PLACEMENT_3D('',#509,#510,#511);
#389=DRAUGHTING_PRE_DEFINED_CURVE_FONT('continuous');
#390=COLOUR_RGB('',0.509803950786591,0.509803950786591,0.588235318660736);
#391=AXIS2_PLACEMENT_3D('',#512,#513,#514);
#392=PRE_DEFINED_MARKER('');
#393=COLOUR_RGB('',0.509803950786591,0.509803950786591,0.588235318660736);
#394=SURFACE_SIDE_STYLE('',(#515));
#395=EDGE_LOOP('',(#516,#517,#518,#519));
#396=AXIS2_PLACEMENT_3D('',#520,#521,#522);
#397=SURFACE_SIDE_STYLE('',(#523));
#398=EDGE_LOOP('',(#524,#525));
#399=AXIS2_PLACEMENT_3D('',#526,#527,#528);
#401=SURFACE_STYLE_FILL_AREA(#529);
#402=ORIENTED_EDGE('',*,*,#145,.F.);
#403=ORIENTED_EDGE('',*,*,#75,.F.);
#404=ORIENTED_EDGE('',*,*,#119,.T.);
#405=ORIENTED_EDGE('',*,*,#89,.T.);
#406=CARTESIAN_POINT('',(2.5,0.0,0.0));
#407=DIRECTION('',(0.0,-6.12303176911189E-017,-1.0));
#408=DIRECTION('',(1.0,0.0,0.0));
#409=DIRECTION('',(0.0,-6.12303176911189E-017,-1.0));
#410=DIRECTION('',(0.707106781186548,1.2988911856079E-016,0.707106781186548));
#411=CARTESIAN_POINT('',(0.0,2.75536429610035E-016,4.5));
#412=DIRECTION('',(0.0,-6.12303176911189E-017,-1.0));
#413=DIRECTION('',(1.0,0.0,0.0));
#414=CARTESIAN_POINT('',(0.0,0.0,0.0));
#415=DIRECTION('',(0.0,-6.12303176911189E-017,-1.0));
#416=DIRECTION('',(1.0,0.0,0.0));
#417=CARTESIAN_POINT('',(0.0,-4.59227382683391E-016,-7.5));
#418=DIRECTION('',(0.0,-6.12303176911189E-017,-1.0));
#419=DIRECTION('',(1.0,0.0,0.0));
#420=CARTESIAN_POINT('',(0.0,-5.2045770037451E-016,-8.5));
#421=DIRECTION('',(0.0,-6.12303176911189E-017,-1.0));
#422=DIRECTION('',(1.0,0.0,0.0));
#423=CARTESIAN_POINT('',(0.0,2.75536429610035E-016,4.5));
#424=DIRECTION('',(0.0,-6.12303176911189E-017,-1.0));
#425=DIRECTION('',(1.0,0.0,0.0));
#426=SURFACE_STYLE_FILL_AREA(#530);
#427=ORIENTED_EDGE('',*,*,#135,.F.);
#428=ORIENTED_EDGE('',*,*,#143,.T.);
#429=ORIENTED_EDGE('',*,*,#95,.F.);
#430=ORIENTED_EDGE('',*,*,#117,.F.);
#431=CARTESIAN_POINT('',(0.0,-4.89842541528951E-016,-8.0));
#432=DIRECTION('',(-0.0,6.12303176911189E-017,1.0));
#433=DIRECTION('',(1.0,0.0,0.0));
#434=SURFACE_STYLE_FILL_AREA(#531);
#435=ORIENTED_EDGE('',*,*,#107,.T.);
#436=ORIENTED_EDGE('',*,*,#79,.F.);
#437=ORIENTED_EDGE('',*,*,#131,.T.);
#438=ORIENTED_EDGE('',*,*,#75,.T.);
#439=CARTESIAN_POINT('',(0.0,-2.29613691341696E-016,-3.75));
#440=DIRECTION('',(-0.0,6.12303176911189E-017,1.0));
#441=DIRECTION('',(1.0,0.0,0.0));
#442=CARTESIAN_POINT('',(0.0,0.0,0.0));
#443=DIRECTION('',(0.0,-6.12303176911189E-017,-1.0));
#444=DIRECTION('',(1.0,0.0,0.0));
#445=CARTESIAN_POINT('',(0.0,2.47982786649031E-016,4.05));
#446=DIRECTION('',(0.0,-6.12303176911189E-017,-1.0));
#447=DIRECTION('',(1.0,0.0,0.0));
#448=DIRECTION('',(-0.196116135138184,3.60247597765962E-017,0.98058067569092));
#449=DIRECTION('',(0.707106781186548,4.32963728535968E-017,-0.707106781186548));
#450=SURFACE_STYLE_FILL_AREA(#532);
#451=ORIENTED_EDGE('',*,*,#101,.F.);
#452=ORIENTED_EDGE('',*,*,#83,.T.);
#453=ORIENTED_EDGE('',*,*,#71,.F.);
#454=ORIENTED_EDGE('',*,*,#133,.F.);
#455=CARTESIAN_POINT('',(0.0,2.61759608129533E-016,4.275));
#456=DIRECTION('',(0.0,-6.12303176911189E-017,-1.0));
#457=DIRECTION('',(1.0,0.0,0.0));
#458=DIRECTION('',(0.0,-6.12303176911189E-017,-1.0));
#459=SURFACE_STYLE_FILL_AREA(#533);
#460=ORIENTED_EDGE('',*,*,#69,.T.);
#461=ORIENTED_EDGE('',*,*,#89,.F.);
#462=ORIENTED_EDGE('',*,*,#121,.T.);
#463=ORIENTED_EDGE('',*,*,#91,.T.);
#464=CARTESIAN_POINT('',(0.0,1.23991393324516E-016,2.025));
#465=DIRECTION('',(-0.0,6.12303176911189E-017,1.0));
#466=DIRECTION('',(1.0,0.0,0.0));
#467=SURFACE_STYLE_FILL_AREA(#534);
#468=ORIENTED_EDGE('',*,*,#101,.T.);
#469=ORIENTED_EDGE('',*,*,#91,.F.);
#470=ORIENTED_EDGE('',*,*,#71,.T.);
#471=ORIENTED_EDGE('',*,*,#73,.T.);
#472=CARTESIAN_POINT('',(0.0,2.61759608129533E-016,4.275));
#473=DIRECTION('',(0.0,-6.12303176911189E-017,-1.0));
#474=DIRECTION('',(1.0,0.0,0.0));
#475=CARTESIAN_POINT('',(0.0,-5.2045770037451E-016,-8.5));
#476=DIRECTION('',(0.0,-6.12303176911189E-017,-1.0));
#477=DIRECTION('',(1.0,0.0,0.0));
#478=CARTESIAN_POINT('',(0.0,0.0,0.0));
#479=DIRECTION('',(0.0,-6.12303176911189E-017,-1.0));
#480=DIRECTION('',(1.0,0.0,0.0));
#481=DIRECTION('',(-0.0,6.12303176911189E-017,1.0));
#482=SURFACE_STYLE_FILL_AREA(#535);
#483=ORIENTED_EDGE('',*,*,#69,.F.);
#484=ORIENTED_EDGE('',*,*,#133,.T.);
#485=ORIENTED_EDGE('',*,*,#121,.F.);
#486=ORIENTED_EDGE('',*,*,#119,.F.);
#487=CARTESIAN_POINT('',(0.0,1.23991393324516E-016,2.025));
#488=DIRECTION('',(-0.0,6.12303176911189E-017,1.0));
#489=DIRECTION('',(1.0,0.0,0.0));
#490=DIRECTION('',(-0.0,6.12303176911189E-017,1.0));
#491=CARTESIAN_POINT('',(0.0,2.47982786649031E-016,4.05));
#492=DIRECTION('',(0.0,-6.12303176911189E-017,-1.0));
#493=DIRECTION('',(1.0,0.0,0.0));
#494=DIRECTION('',(-0.196116135138184,-8.40577728120578E-017,-0.98058067569092));
#495=SURFACE_STYLE_FILL_AREA(#536);
#496=ORIENTED_EDGE('',*,*,#107,.F.);
#497=ORIENTED_EDGE('',*,*,#145,.T.);
#498=ORIENTED_EDGE('',*,*,#131,.F.);
#499=ORIENTED_EDGE('',*,*,#143,.F.);
#500=CARTESIAN_POINT('',(0.0,-2.29613691341696E-016,-3.75));
#501=DIRECTION('',(-0.0,6.12303176911189E-017,1.0));
#502=DIRECTION('',(1.0,0.0,0.0));
#503=SURFACE_STYLE_FILL_AREA(#537);
#504=ORIENTED_EDGE('',*,*,#83,.F.);
#505=ORIENTED_EDGE('',*,*,#73,.F.);
#506=CARTESIAN_POINT('',(1.275,2.75536429610035E-016,4.5));
#507=DIRECTION('',(0.0,6.12303176911189E-017,1.0));
#508=DIRECTION('',(-1.0,0.0,0.0));
#509=CARTESIAN_POINT('',(0.0,-4.59227382683391E-016,-7.5));
#510=DIRECTION('',(0.0,-6.12303176911189E-017,-1.0));
#511=DIRECTION('',(1.0,0.0,0.0));
#512=CARTESIAN_POINT('',(0.0,0.0,0.0));
#513=DIRECTION('',(0.0,-6.12303176911189E-017,-1.0));
#514=DIRECTION('',(1.0,0.0,0.0));
#515=SURFACE_STYLE_FILL_AREA(#538);
#516=ORIENTED_EDGE('',*,*,#135,.T.);
#517=ORIENTED_EDGE('',*,*,#81,.F.);
#518=ORIENTED_EDGE('',*,*,#95,.T.);
#519=ORIENTED_EDGE('',*,*,#79,.T.);
#520=CARTESIAN_POINT('',(0.0,-4.89842541528951E-016,-8.0));
#521=DIRECTION('',(-0.0,6.12303176911189E-017,1.0));
#522=DIRECTION('',(1.0,0.0,0.0));
#523=SURFACE_STYLE_FILL_AREA(#539);
#524=ORIENTED_EDGE('',*,*,#117,.T.);
#525=ORIENTED_EDGE('',*,*,#81,.T.);
#526=CARTESIAN_POINT('',(0.9,-5.2045770037451E-016,-8.5));
#527=DIRECTION('',(0.0,-6.12303176911189E-017,-1.0));
#528=DIRECTION('',(1.0,0.0,0.0));
#529=FILL_AREA_STYLE('',(#540));
#530=FILL_AREA_STYLE('',(#541));
#531=FILL_AREA_STYLE('',(#542));
#532=FILL_AREA_STYLE('',(#543));
#533=FILL_AREA_STYLE('',(#544));
#534=FILL_AREA_STYLE('',(#545));
#535=FILL_AREA_STYLE('',(#546));
#536=FILL_AREA_STYLE('',(#547));
#537=FILL_AREA_STYLE('',(#548));
#538=FILL_AREA_STYLE('',(#549));
#539=FILL_AREA_STYLE('',(#550));
#540=FILL_AREA_STYLE_COLOUR('',#551);
#541=FILL_AREA_STYLE_COLOUR('',#552);
#542=FILL_AREA_STYLE_COLOUR('',#553);
#543=FILL_AREA_STYLE_COLOUR('',#554);
#544=FILL_AREA_STYLE_COLOUR('',#555);
#545=FILL_AREA_STYLE_COLOUR('',#556);
#546=FILL_AREA_STYLE_COLOUR('',#557);
#547=FILL_AREA_STYLE_COLOUR('',#558);
#548=FILL_AREA_STYLE_COLOUR('',#559);
#549=FILL_AREA_STYLE_COLOUR('',#560);
#550=FILL_AREA_STYLE_COLOUR('',#561);
#551=COLOUR_RGB('',0.509803950786591,0.509803950786591,0.588235318660736);
#552=COLOUR_RGB('',0.509803950786591,0.509803950786591,0.588235318660736);
#553=COLOUR_RGB('',0.509803950786591,0.509803950786591,0.588235318660736);
#554=COLOUR_RGB('',0.509803950786591,0.509803950786591,0.588235318660736);
#555=COLOUR_RGB('',0.509803950786591,0.509803950786591,0.588235318660736);
#556=COLOUR_RGB('',0.509803950786591,0.509803950786591,0.588235318660736);
#557=COLOUR_RGB('',0.509803950786591,0.509803950786591,0.588235318660736);
#558=COLOUR_RGB('',0.509803950786591,0.509803950786591,0.588235318660736);
#559=COLOUR_RGB('',0.509803950786591,0.509803950786591,0.588235318660736);
#560=COLOUR_RGB('',0.509803950786591,0.509803950786591,0.588235318660736);
#561=COLOUR_RGB('',0.509803950786591,0.509803950786591,0.588235318660736);
ENDSEC;
END-ISO-10303-21;
