ISO-10303-21;
HEADER;
FILE_DESCRIPTION(('STEP AP214'),'1');
FILE_NAME(' ','  ',('TraceParts'),('TraceParts S.A.'),'XStep 1.0',' ',' ');
FILE_SCHEMA(('automotive_design'));
ENDSEC;
DATA;
#1=MECHANICAL_DESIGN_GEOMETRIC_PRESENTATION_REPRESENTATION(' ',(#10,#11,#12,#13,#14,#15,#16,#17,#18,#19,#20,#21,#22,#23,#24,#25,#26,#27,#28,#29,#30,#31,#32,#33,#34,#35,#36,#37,#38,#39,#40,#41,#42,#43,#44,#45,#46,#47,#48,#49,#50,#51,#52),#6);
#2=PRODUCT_DEFINITION_CONTEXT('',#53,'design');
#3=APPLICATION_PROTOCOL_DEFINITION('INTERNATIONAL STANDARD','automotive_design',1994,#53);
#4=PRODUCT_CATEGORY_RELATIONSHIP('NONE','NONE',#54,#55);
#5=SHAPE_DEFINITION_REPRESENTATION(#56,#57);
#6= (GEOMETRIC_REPRESENTATION_CONTEXT(3)GLOBAL_UNCERTAINTY_ASSIGNED_CONTEXT((#60))GLOBAL_UNIT_ASSIGNED_CONTEXT((#62,#63,#64))REPRESENTATION_CONTEXT('NONE','WORKSPACE'));
#10=STYLED_ITEM('',(#66),#67);
#11=STYLED_ITEM('',(#68),#69);
#12=STYLED_ITEM('',(#70),#71);
#13=STYLED_ITEM('',(#72),#73);
#14=STYLED_ITEM('',(#74),#75);
#15=STYLED_ITEM('',(#76),#77);
#16=STYLED_ITEM('',(#78),#79);
#17=STYLED_ITEM('',(#80),#81);
#18=STYLED_ITEM('',(#82),#83);
#19=STYLED_ITEM('',(#84),#85);
#20=STYLED_ITEM('',(#86),#87);
#21=STYLED_ITEM('',(#88),#89);
#22=STYLED_ITEM('',(#90),#91);
#23=STYLED_ITEM('',(#92),#93);
#24=STYLED_ITEM('',(#94),#95);
#25=STYLED_ITEM('',(#96),#97);
#26=STYLED_ITEM('',(#98),#99);
#27=STYLED_ITEM('',(#100),#101);
#28=STYLED_ITEM('',(#102),#103);
#29=STYLED_ITEM('',(#104),#105);
#30=STYLED_ITEM('',(#106),#107);
#31=STYLED_ITEM('',(#108),#109);
#32=STYLED_ITEM('',(#110),#111);
#33=STYLED_ITEM('',(#112),#113);
#34=STYLED_ITEM('',(#114),#115);
#35=STYLED_ITEM('',(#116),#117);
#36=STYLED_ITEM('',(#118),#119);
#37=STYLED_ITEM('',(#120),#121);
#38=STYLED_ITEM('',(#122),#123);
#39=STYLED_ITEM('',(#124),#125);
#40=STYLED_ITEM('',(#126),#127);
#41=STYLED_ITEM('',(#128),#129);
#42=STYLED_ITEM('',(#130),#131);
#43=STYLED_ITEM('',(#132),#133);
#44=STYLED_ITEM('',(#134),#135);
#45=STYLED_ITEM('',(#136),#137);
#46=STYLED_ITEM('',(#138),#139);
#47=STYLED_ITEM('',(#140),#141);
#48=STYLED_ITEM('',(#142),#143);
#49=STYLED_ITEM('',(#144),#145);
#50=STYLED_ITEM('',(#146),#147);
#51=STYLED_ITEM('',(#148),#149);
#52=STYLED_ITEM('',(#150),#151);
#53=APPLICATION_CONTEXT(' ');
#54=PRODUCT_CATEGORY('part','NONE');
#55=PRODUCT_RELATED_PRODUCT_CATEGORY('detail',' ',(#152));
#56=PRODUCT_DEFINITION_SHAPE('NONE','NONE',#153);
#57=ADVANCED_BREP_SHAPE_REPRESENTATION('1',(#154,#155),#6);
#60=UNCERTAINTY_MEASURE_WITH_UNIT(LENGTH_MEASURE(1.0E-006),#62,'','');
#62= (CONVERSION_BASED_UNIT('MILLIMETRE',#158)LENGTH_UNIT()NAMED_UNIT(#161));
#63= (NAMED_UNIT(#163)PLANE_ANGLE_UNIT()SI_UNIT($,.RADIAN.));
#64= (NAMED_UNIT(#163)SOLID_ANGLE_UNIT()SI_UNIT($,.STERADIAN.));
#66=PRESENTATION_STYLE_ASSIGNMENT((#169));
#67=EDGE_CURVE('',#89,#113,#170,.T.);
#68=PRESENTATION_STYLE_ASSIGNMENT((#171));
#69=EDGE_CURVE('',#103,#79,#172,.T.);
#70=PRESENTATION_STYLE_ASSIGNMENT((#173));
#71=VERTEX_POINT('',#174);
#72=PRESENTATION_STYLE_ASSIGNMENT((#175));
#73=EDGE_CURVE('',#125,#71,#176,.T.);
#74=PRESENTATION_STYLE_ASSIGNMENT((#177));
#75=ADVANCED_FACE('',(#178),#179,.T.);
#76=PRESENTATION_STYLE_ASSIGNMENT((#180));
#77=EDGE_CURVE('',#131,#71,#181,.T.);
#78=PRESENTATION_STYLE_ASSIGNMENT((#182));
#79=VERTEX_POINT('',#183);
#80=PRESENTATION_STYLE_ASSIGNMENT((#184));
#81=EDGE_CURVE('',#109,#89,#185,.T.);
#82=PRESENTATION_STYLE_ASSIGNMENT((#186));
#83=ADVANCED_FACE('',(#187),#188,.T.);
#84=PRESENTATION_STYLE_ASSIGNMENT((#189));
#85=VERTEX_POINT('',#190);
#86=PRESENTATION_STYLE_ASSIGNMENT((#191));
#87=EDGE_CURVE('',#85,#141,#192,.T.);
#88=PRESENTATION_STYLE_ASSIGNMENT((#193));
#89=VERTEX_POINT('',#194);
#90=PRESENTATION_STYLE_ASSIGNMENT((#195));
#91=ADVANCED_FACE('',(#196),#197,.T.);
#92=PRESENTATION_STYLE_ASSIGNMENT((#198));
#93=ADVANCED_FACE('',(#199),#200,.T.);
#94=PRESENTATION_STYLE_ASSIGNMENT((#201));
#95=ADVANCED_FACE('',(#202,#203),#204,.T.);
#96=PRESENTATION_STYLE_ASSIGNMENT((#205));
#97=EDGE_CURVE('',#125,#109,#206,.T.);
#98=PRESENTATION_STYLE_ASSIGNMENT((#207));
#99=EDGE_CURVE('',#119,#133,#208,.T.);
#100=PRESENTATION_STYLE_ASSIGNMENT((#209));
#101=EDGE_CURVE('',#131,#109,#210,.T.);
#102=PRESENTATION_STYLE_ASSIGNMENT((#211));
#103=VERTEX_POINT('',#212);
#104=PRESENTATION_STYLE_ASSIGNMENT((#213));
#105=EDGE_CURVE('',#141,#85,#214,.T.);
#106=PRESENTATION_STYLE_ASSIGNMENT((#215));
#107=ADVANCED_FACE('',(#216),#217,.T.);
#108=PRESENTATION_STYLE_ASSIGNMENT((#218));
#109=VERTEX_POINT('',#219);
#110=PRESENTATION_STYLE_ASSIGNMENT((#220));
#111=ADVANCED_FACE('',(#221),#222,.T.);
#112=PRESENTATION_STYLE_ASSIGNMENT((#223));
#113=VERTEX_POINT('',#224);
#114=PRESENTATION_STYLE_ASSIGNMENT((#225));
#115=EDGE_CURVE('',#141,#79,#226,.T.);
#116=PRESENTATION_STYLE_ASSIGNMENT((#227));
#117=ADVANCED_FACE('',(#228),#229,.T.);
#118=PRESENTATION_STYLE_ASSIGNMENT((#230));
#119=VERTEX_POINT('',#231);
#120=PRESENTATION_STYLE_ASSIGNMENT((#232));
#121=EDGE_CURVE('',#133,#119,#233,.T.);
#122=PRESENTATION_STYLE_ASSIGNMENT((#234));
#123=EDGE_CURVE('',#85,#119,#235,.T.);
#124=PRESENTATION_STYLE_ASSIGNMENT((#236));
#125=VERTEX_POINT('',#237);
#126=PRESENTATION_STYLE_ASSIGNMENT((#238));
#127=EDGE_CURVE('',#113,#89,#239,.T.);
#128=PRESENTATION_STYLE_ASSIGNMENT((#240));
#129=ADVANCED_FACE('',(#241),#242,.T.);
#130=PRESENTATION_STYLE_ASSIGNMENT((#243));
#131=VERTEX_POINT('',#244);
#132=PRESENTATION_STYLE_ASSIGNMENT((#245));
#133=VERTEX_POINT('',#246);
#134=PRESENTATION_STYLE_ASSIGNMENT((#247));
#135=EDGE_CURVE('',#113,#125,#248,.T.);
#136=PRESENTATION_STYLE_ASSIGNMENT((#249));
#137=EDGE_CURVE('',#133,#141,#250,.T.);
#138=PRESENTATION_STYLE_ASSIGNMENT((#251));
#139=EDGE_CURVE('',#109,#125,#252,.T.);
#140=PRESENTATION_STYLE_ASSIGNMENT((#253));
#141=VERTEX_POINT('',#254);
#142=PRESENTATION_STYLE_ASSIGNMENT((#255));
#143=EDGE_CURVE('',#79,#103,#256,.T.);
#144=PRESENTATION_STYLE_ASSIGNMENT((#257));
#145=ADVANCED_FACE('',(#258),#259,.T.);
#146=PRESENTATION_STYLE_ASSIGNMENT((#260));
#147=EDGE_CURVE('',#71,#131,#261,.T.);
#148=PRESENTATION_STYLE_ASSIGNMENT((#262));
#149=EDGE_CURVE('',#103,#85,#263,.T.);
#150=PRESENTATION_STYLE_ASSIGNMENT((#264));
#151=ADVANCED_FACE('',(#265),#266,.T.);
#152=PRODUCT('1','1','PART-1-DESC',(#267));
#153=PRODUCT_DEFINITION('NONE','NONE',#268,#2);
#154=MANIFOLD_SOLID_BREP('1',#269);
#155=AXIS2_PLACEMENT_3D('',#270,#271,#272);
#158=LENGTH_MEASURE_WITH_UNIT(LENGTH_MEASURE(1.0),#273);
#161=DIMENSIONAL_EXPONENTS(1.0,0.0,0.0,0.0,0.0,0.0,0.0);
#163=DIMENSIONAL_EXPONENTS(0.0,0.0,0.0,0.0,0.0,0.0,0.0);
#169=CURVE_STYLE('',#274,POSITIVE_LENGTH_MEASURE(1.0E-006),#275);
#170=CIRCLE('',#276,2.5);
#171=CURVE_STYLE('',#277,POSITIVE_LENGTH_MEASURE(1.0E-006),#278);
#172=CIRCLE('',#279,4.0);
#173=POINT_STYLE(' ',#280,POSITIVE_LENGTH_MEASURE(1.0E-006),#281);
#174=CARTESIAN_POINT('',(2.25,-4.89842541528951E-016,-8.0));
#175=CURVE_STYLE('',#282,POSITIVE_LENGTH_MEASURE(1.0E-006),#283);
#176=LINE('',#284,#285);
#177=SURFACE_STYLE_USAGE(.BOTH.,#286);
#178=FACE_OUTER_BOUND('',#287,.T.);
#179=CYLINDRICAL_SURFACE('',#288,2.5);
#180=CURVE_STYLE('',#289,POSITIVE_LENGTH_MEASURE(1.0E-006),#290);
#181=CIRCLE('',#291,2.25);
#182=POINT_STYLE(' ',#292,POSITIVE_LENGTH_MEASURE(1.0E-006),#293);
#183=CARTESIAN_POINT('',(4.0,0.0,0.0));
#184=CURVE_STYLE('',#294,POSITIVE_LENGTH_MEASURE(1.0E-006),#295);
#185=LINE('',#296,#297);
#186=SURFACE_STYLE_USAGE(.BOTH.,#298);
#187=FACE_OUTER_BOUND('',#299,.T.);
#188=PLANE('',#300);
#189=POINT_STYLE(' ',#301,POSITIVE_LENGTH_MEASURE(1.0E-006),#302);
#190=CARTESIAN_POINT('',(-4.0,-2.69413397840923E-016,3.6));
#191=CURVE_STYLE('',#303,POSITIVE_LENGTH_MEASURE(1.0E-006),#304);
#192=CIRCLE('',#305,4.0);
#193=POINT_STYLE(' ',#306,POSITIVE_LENGTH_MEASURE(1.0E-006),#307);
#194=CARTESIAN_POINT('',(-2.5,-3.06151588455594E-016,1.87457590227767E-032));
#195=SURFACE_STYLE_USAGE(.BOTH.,#308);
#196=FACE_OUTER_BOUND('',#309,.T.);
#197=CONICAL_SURFACE('',#310,2.375,0.197395559849881);
#198=SURFACE_STYLE_USAGE(.BOTH.,#311);
#199=FACE_OUTER_BOUND('',#312,.T.);
#200=CYLINDRICAL_SURFACE('',#313,4.0);
#201=SURFACE_STYLE_USAGE(.BOTH.,#314);
#202=FACE_BOUND('',#315,.T.);
#203=FACE_OUTER_BOUND('',#316,.T.);
#204=PLANE('',#317);
#205=CURVE_STYLE('',#318,POSITIVE_LENGTH_MEASURE(1.0E-006),#319);
#206=CIRCLE('',#320,2.5);
#207=CURVE_STYLE('',#321,POSITIVE_LENGTH_MEASURE(1.0E-006),#322);
#208=CIRCLE('',#323,3.6);
#209=CURVE_STYLE('',#324,POSITIVE_LENGTH_MEASURE(1.0E-006),#325);
#210=LINE('',#326,#327);
#211=POINT_STYLE(' ',#328,POSITIVE_LENGTH_MEASURE(1.0E-006),#329);
#212=CARTESIAN_POINT('',(-4.0,-4.89842541528951E-016,2.99932144364427E-032));
#213=CURVE_STYLE('',#330,POSITIVE_LENGTH_MEASURE(1.0E-006),#331);
#214=CIRCLE('',#332,4.0);
#215=SURFACE_STYLE_USAGE(.BOTH.,#333);
#216=FACE_OUTER_BOUND('',#334,.T.);
#217=CONICAL_SURFACE('',#335,3.8,0.785398163397448);
#218=POINT_STYLE(' ',#336,POSITIVE_LENGTH_MEASURE(1.0E-006),#337);
#219=CARTESIAN_POINT('',(-2.5,-7.19456232870647E-016,-6.75));
#220=SURFACE_STYLE_USAGE(.BOTH.,#338);
#221=FACE_OUTER_BOUND('',#339,.T.);
#222=CONICAL_SURFACE('',#340,2.375,0.197395559849881);
#223=POINT_STYLE(' ',#341,POSITIVE_LENGTH_MEASURE(1.0E-006),#342);
#224=CARTESIAN_POINT('',(2.5,0.0,0.0));
#225=CURVE_STYLE('',#343,POSITIVE_LENGTH_MEASURE(1.0E-006),#344);
#226=LINE('',#345,#346);
#227=SURFACE_STYLE_USAGE(.BOTH.,#347);
#228=FACE_OUTER_BOUND('',#348,.T.);
#229=CYLINDRICAL_SURFACE('',#349,2.5);
#230=POINT_STYLE(' ',#350,POSITIVE_LENGTH_MEASURE(1.0E-006),#351);
#231=CARTESIAN_POINT('',(-3.6,-1.9593701661158E-016,4.0));
#232=CURVE_STYLE('',#352,POSITIVE_LENGTH_MEASURE(1.0E-006),#353);
#233=CIRCLE('',#354,3.6);
#234=CURVE_STYLE('',#355,POSITIVE_LENGTH_MEASURE(1.0E-006),#356);
#235=LINE('',#357,#358);
#236=POINT_STYLE(' ',#359,POSITIVE_LENGTH_MEASURE(1.0E-006),#360);
#237=CARTESIAN_POINT('',(2.5,-4.13304644415052E-016,-6.75));
#238=CURVE_STYLE('',#361,POSITIVE_LENGTH_MEASURE(1.0E-006),#362);
#239=CIRCLE('',#363,2.5);
#240=SURFACE_STYLE_USAGE(.BOTH.,#364);
#241=FACE_OUTER_BOUND('',#365,.T.);
#242=CYLINDRICAL_SURFACE('',#366,4.0);
#243=POINT_STYLE(' ',#367,POSITIVE_LENGTH_MEASURE(1.0E-006),#368);
#244=CARTESIAN_POINT('',(-2.25,-7.65378971138986E-016,-8.0));
#245=POINT_STYLE(' ',#369,POSITIVE_LENGTH_MEASURE(1.0E-006),#370);
#246=CARTESIAN_POINT('',(3.6,2.44921270764475E-016,4.0));
#247=CURVE_STYLE('',#371,POSITIVE_LENGTH_MEASURE(1.0E-006),#372);
#248=LINE('',#373,#374);
#249=CURVE_STYLE('',#375,POSITIVE_LENGTH_MEASURE(1.0E-006),#376);
#250=LINE('',#377,#378);
#251=CURVE_STYLE('',#379,POSITIVE_LENGTH_MEASURE(1.0E-006),#380);
#252=CIRCLE('',#381,2.5);
#253=POINT_STYLE(' ',#382,POSITIVE_LENGTH_MEASURE(1.0E-006),#383);
#254=CARTESIAN_POINT('',(4.0,2.20429143688028E-016,3.6));
#255=CURVE_STYLE('',#384,POSITIVE_LENGTH_MEASURE(1.0E-006),#385);
#256=CIRCLE('',#386,4.0);
#257=SURFACE_STYLE_USAGE(.BOTH.,#387);
#258=FACE_OUTER_BOUND('',#388,.T.);
#259=PLANE('',#389);
#260=CURVE_STYLE('',#390,POSITIVE_LENGTH_MEASURE(1.0E-006),#391);
#261=CIRCLE('',#392,2.25);
#262=CURVE_STYLE('',#393,POSITIVE_LENGTH_MEASURE(1.0E-006),#394);
#263=LINE('',#395,#396);
#264=SURFACE_STYLE_USAGE(.BOTH.,#397);
#265=FACE_OUTER_BOUND('',#398,.T.);
#266=CONICAL_SURFACE('',#399,3.8,0.785398163397448);
#267=PRODUCT_CONTEXT('',#53,'mechanical');
#268=PRODUCT_DEFINITION_FORMATION_WITH_SPECIFIED_SOURCE(' ','NONE',#152,.NOT_KNOWN.);
#269=CLOSED_SHELL('',(#91,#117,#93,#107,#145,#151,#129,#95,#75,#111,#83));
#270=CARTESIAN_POINT('',(0.0,0.0,0.0));
#271=DIRECTION('',(0.0,0.0,1.0));
#272=DIRECTION('',(1.0,0.0,0.0));
#273= (NAMED_UNIT(#161)LENGTH_UNIT()SI_UNIT(.MILLI.,.METRE.));
#274=DRAUGHTING_PRE_DEFINED_CURVE_FONT('continuous');
#275=COLOUR_RGB('',0.509803950786591,0.509803950786591,0.588235318660736);
#276=AXIS2_PLACEMENT_3D('',#401,#402,#403);
#277=DRAUGHTING_PRE_DEFINED_CURVE_FONT('continuous');
#278=COLOUR_RGB('',0.509803950786591,0.509803950786591,0.588235318660736);
#279=AXIS2_PLACEMENT_3D('',#404,#405,#406);
#280=PRE_DEFINED_MARKER('');
#281=COLOUR_RGB('',0.509803950786591,0.509803950786591,0.588235318660736);
#282=DRAUGHTING_PRE_DEFINED_CURVE_FONT('continuous');
#283=COLOUR_RGB('',0.509803950786591,0.509803950786591,0.588235318660736);
#284=CARTESIAN_POINT('',(2.375,-1.60729583939187E-016,-7.375));
#285=VECTOR('',#407,1.0);
#286=SURFACE_SIDE_STYLE('',(#408));
#287=EDGE_LOOP('',(#409,#410,#411,#412));
#288=AXIS2_PLACEMENT_3D('',#413,#414,#415);
#289=DRAUGHTING_PRE_DEFINED_CURVE_FONT('continuous');
#290=COLOUR_RGB('',0.509803950786591,0.509803950786591,0.588235318660736);
#291=AXIS2_PLACEMENT_3D('',#416,#417,#418);
#292=PRE_DEFINED_MARKER('');
#293=COLOUR_RGB('',0.509803950786591,0.509803950786591,0.588235318660736);
#294=DRAUGHTING_PRE_DEFINED_CURVE_FONT('continuous');
#295=COLOUR_RGB('',0.509803950786591,0.509803950786591,0.588235318660736);
#296=CARTESIAN_POINT('',(-2.5,-5.1280391066312E-016,-3.375));
#297=VECTOR('',#419,1.0);
#298=SURFACE_SIDE_STYLE('',(#420));
#299=EDGE_LOOP('',(#421,#422));
#300=AXIS2_PLACEMENT_3D('',#423,#424,#425);
#301=PRE_DEFINED_MARKER('');
#302=COLOUR_RGB('',0.509803950786591,0.509803950786591,0.588235318660736);
#303=DRAUGHTING_PRE_DEFINED_CURVE_FONT('continuous');
#304=COLOUR_RGB('',0.509803950786591,0.509803950786591,0.588235318660736);
#305=AXIS2_PLACEMENT_3D('',#426,#427,#428);
#306=PRE_DEFINED_MARKER('');
#307=COLOUR_RGB('',0.509803950786591,0.509803950786591,0.588235318660736);
#308=SURFACE_SIDE_STYLE('',(#429));
#309=EDGE_LOOP('',(#430,#431,#432,#433));
#310=AXIS2_PLACEMENT_3D('',#434,#435,#436);
#311=SURFACE_SIDE_STYLE('',(#437));
#312=EDGE_LOOP('',(#438,#439,#440,#441));
#313=AXIS2_PLACEMENT_3D('',#442,#443,#444);
#314=SURFACE_SIDE_STYLE('',(#445));
#315=EDGE_LOOP('',(#446,#447));
#316=EDGE_LOOP('',(#448,#449));
#317=AXIS2_PLACEMENT_3D('',#450,#451,#452);
#318=DRAUGHTING_PRE_DEFINED_CURVE_FONT('continuous');
#319=COLOUR_RGB('',0.509803950786591,0.509803950786591,0.588235318660736);
#320=AXIS2_PLACEMENT_3D('',#453,#454,#455);
#321=DRAUGHTING_PRE_DEFINED_CURVE_FONT('continuous');
#322=COLOUR_RGB('',0.509803950786591,0.509803950786591,0.588235318660736);
#323=AXIS2_PLACEMENT_3D('',#456,#457,#458);
#324=DRAUGHTING_PRE_DEFINED_CURVE_FONT('continuous');
#325=COLOUR_RGB('',0.509803950786591,0.509803950786591,0.588235318660736);
#326=CARTESIAN_POINT('',(-2.375,-7.42417602004816E-016,-7.375));
#327=VECTOR('',#459,1.0);
#328=PRE_DEFINED_MARKER('');
#329=COLOUR_RGB('',0.509803950786591,0.509803950786591,0.588235318660736);
#330=DRAUGHTING_PRE_DEFINED_CURVE_FONT('continuous');
#331=COLOUR_RGB('',0.509803950786591,0.509803950786591,0.588235318660736);
#332=AXIS2_PLACEMENT_3D('',#460,#461,#462);
#333=SURFACE_SIDE_STYLE('',(#463));
#334=EDGE_LOOP('',(#464,#465,#466,#467));
#335=AXIS2_PLACEMENT_3D('',#468,#469,#470);
#336=PRE_DEFINED_MARKER('');
#337=COLOUR_RGB('',0.509803950786591,0.509803950786591,0.588235318660736);
#338=SURFACE_SIDE_STYLE('',(#471));
#339=EDGE_LOOP('',(#472,#473,#474,#475));
#340=AXIS2_PLACEMENT_3D('',#476,#477,#478);
#341=PRE_DEFINED_MARKER('');
#342=COLOUR_RGB('',0.509803950786591,0.509803950786591,0.588235318660736);
#343=DRAUGHTING_PRE_DEFINED_CURVE_FONT('continuous');
#344=COLOUR_RGB('',0.509803950786591,0.509803950786591,0.588235318660736);
#345=CARTESIAN_POINT('',(4.0,6.00057113372965E-016,1.8));
#346=VECTOR('',#479,1.0);
#347=SURFACE_SIDE_STYLE('',(#480));
#348=EDGE_LOOP('',(#481,#482,#483,#484));
#349=AXIS2_PLACEMENT_3D('',#485,#486,#487);
#350=PRE_DEFINED_MARKER('');
#351=COLOUR_RGB('',0.509803950786591,0.509803950786591,0.588235318660736);
#352=DRAUGHTING_PRE_DEFINED_CURVE_FONT('continuous');
#353=COLOUR_RGB('',0.509803950786591,0.509803950786591,0.588235318660736);
#354=AXIS2_PLACEMENT_3D('',#488,#489,#490);
#355=DRAUGHTING_PRE_DEFINED_CURVE_FONT('continuous');
#356=COLOUR_RGB('',0.509803950786591,0.509803950786591,0.588235318660736);
#357=CARTESIAN_POINT('',(-3.8,-2.32675207226252E-016,3.8));
#358=VECTOR('',#491,1.0);
#359=PRE_DEFINED_MARKER('');
#360=COLOUR_RGB('',0.509803950786591,0.509803950786591,0.588235318660736);
#361=DRAUGHTING_PRE_DEFINED_CURVE_FONT('continuous');
#362=COLOUR_RGB('',0.509803950786591,0.509803950786591,0.588235318660736);
#363=AXIS2_PLACEMENT_3D('',#492,#493,#494);
#364=SURFACE_SIDE_STYLE('',(#495));
#365=EDGE_LOOP('',(#496,#497,#498,#499));
#366=AXIS2_PLACEMENT_3D('',#500,#501,#502);
#367=PRE_DEFINED_MARKER('');
#368=COLOUR_RGB('',0.509803950786591,0.509803950786591,0.588235318660736);
#369=PRE_DEFINED_MARKER('');
#370=COLOUR_RGB('',0.509803950786591,0.509803950786591,0.588235318660736);
#371=DRAUGHTING_PRE_DEFINED_CURVE_FONT('continuous');
#372=COLOUR_RGB('',0.509803950786591,0.509803950786591,0.588235318660736);
#373=CARTESIAN_POINT('',(2.5,9.94992662480682E-017,-3.375));
#374=VECTOR('',#503,1.0);
#375=DRAUGHTING_PRE_DEFINED_CURVE_FONT('continuous');
#376=COLOUR_RGB('',0.509803950786591,0.509803950786591,0.588235318660736);
#377=CARTESIAN_POINT('',(3.8,6.98025621678755E-016,3.8));
#378=VECTOR('',#504,1.0);
#379=DRAUGHTING_PRE_DEFINED_CURVE_FONT('continuous');
#380=COLOUR_RGB('',0.509803950786591,0.509803950786591,0.588235318660736);
#381=AXIS2_PLACEMENT_3D('',#505,#506,#507);
#382=PRE_DEFINED_MARKER('');
#383=COLOUR_RGB('',0.509803950786591,0.509803950786591,0.588235318660736);
#384=DRAUGHTING_PRE_DEFINED_CURVE_FONT('continuous');
#385=COLOUR_RGB('',0.509803950786591,0.509803950786591,0.588235318660736);
#386=AXIS2_PLACEMENT_3D('',#508,#509,#510);
#387=SURFACE_SIDE_STYLE('',(#511));
#388=EDGE_LOOP('',(#512,#513));
#389=AXIS2_PLACEMENT_3D('',#514,#515,#516);
#390=DRAUGHTING_PRE_DEFINED_CURVE_FONT('continuous');
#391=COLOUR_RGB('',0.509803950786591,0.509803950786591,0.588235318660736);
#392=AXIS2_PLACEMENT_3D('',#517,#518,#519);
#393=DRAUGHTING_PRE_DEFINED_CURVE_FONT('continuous');
#394=COLOUR_RGB('',0.509803950786591,0.509803950786591,0.588235318660736);
#395=CARTESIAN_POINT('',(-4.0,-3.79627969684937E-016,1.8));
#396=VECTOR('',#520,1.0);
#397=SURFACE_SIDE_STYLE('',(#521));
#398=EDGE_LOOP('',(#522,#523,#524,#525));
#399=AXIS2_PLACEMENT_3D('',#526,#527,#528);
#401=CARTESIAN_POINT('',(0.0,0.0,0.0));
#402=DIRECTION('',(0.0,-6.12303176911189E-017,-1.0));
#403=DIRECTION('',(1.0,0.0,0.0));
#404=CARTESIAN_POINT('',(0.0,0.0,0.0));
#405=DIRECTION('',(0.0,-6.12303176911189E-017,-1.0));
#406=DIRECTION('',(1.0,0.0,0.0));
#407=DIRECTION('',(-0.196116135138184,-8.40577728120578E-017,-0.98058067569092));
#408=SURFACE_STYLE_FILL_AREA(#529);
#409=ORIENTED_EDGE('',*,*,#135,.T.);
#410=ORIENTED_EDGE('',*,*,#139,.F.);
#411=ORIENTED_EDGE('',*,*,#81,.T.);
#412=ORIENTED_EDGE('',*,*,#67,.T.);
#413=CARTESIAN_POINT('',(0.0,-2.06652322207526E-016,-3.375));
#414=DIRECTION('',(-0.0,6.12303176911189E-017,1.0));
#415=DIRECTION('',(1.0,0.0,0.0));
#416=CARTESIAN_POINT('',(0.0,-4.89842541528951E-016,-8.0));
#417=DIRECTION('',(0.0,-6.12303176911189E-017,-1.0));
#418=DIRECTION('',(1.0,0.0,0.0));
#419=DIRECTION('',(-0.0,6.12303176911189E-017,1.0));
#420=SURFACE_STYLE_FILL_AREA(#530);
#421=ORIENTED_EDGE('',*,*,#147,.T.);
#422=ORIENTED_EDGE('',*,*,#77,.T.);
#423=CARTESIAN_POINT('',(1.125,-4.89842541528951E-016,-8.0));
#424=DIRECTION('',(0.0,-6.12303176911189E-017,-1.0));
#425=DIRECTION('',(1.0,0.0,0.0));
#426=CARTESIAN_POINT('',(0.0,2.20429143688028E-016,3.6));
#427=DIRECTION('',(0.0,-6.12303176911189E-017,-1.0));
#428=DIRECTION('',(1.0,0.0,0.0));
#429=SURFACE_STYLE_FILL_AREA(#531);
#430=ORIENTED_EDGE('',*,*,#73,.F.);
#431=ORIENTED_EDGE('',*,*,#97,.T.);
#432=ORIENTED_EDGE('',*,*,#101,.F.);
#433=ORIENTED_EDGE('',*,*,#147,.F.);
#434=CARTESIAN_POINT('',(0.0,-4.51573592972002E-016,-7.375));
#435=DIRECTION('',(-0.0,6.12303176911189E-017,1.0));
#436=DIRECTION('',(1.0,0.0,0.0));
#437=SURFACE_STYLE_FILL_AREA(#532);
#438=ORIENTED_EDGE('',*,*,#115,.F.);
#439=ORIENTED_EDGE('',*,*,#105,.T.);
#440=ORIENTED_EDGE('',*,*,#149,.F.);
#441=ORIENTED_EDGE('',*,*,#143,.F.);
#442=CARTESIAN_POINT('',(0.0,1.10214571844014E-016,1.8));
#443=DIRECTION('',(-0.0,6.12303176911189E-017,1.0));
#444=DIRECTION('',(1.0,0.0,0.0));
#445=SURFACE_STYLE_FILL_AREA(#533);
#446=ORIENTED_EDGE('',*,*,#127,.F.);
#447=ORIENTED_EDGE('',*,*,#67,.F.);
#448=ORIENTED_EDGE('',*,*,#143,.T.);
#449=ORIENTED_EDGE('',*,*,#69,.T.);
#450=CARTESIAN_POINT('',(3.25,0.0,0.0));
#451=DIRECTION('',(0.0,-6.12303176911189E-017,-1.0));
#452=DIRECTION('',(1.0,0.0,0.0));
#453=CARTESIAN_POINT('',(0.0,-4.13304644415052E-016,-6.75));
#454=DIRECTION('',(0.0,-6.12303176911189E-017,-1.0));
#455=DIRECTION('',(1.0,0.0,0.0));
#456=CARTESIAN_POINT('',(0.0,2.44921270764475E-016,4.0));
#457=DIRECTION('',(0.0,-6.12303176911189E-017,-1.0));
#458=DIRECTION('',(1.0,0.0,0.0));
#459=DIRECTION('',(-0.196116135138184,3.60247597765962E-017,0.98058067569092));
#460=CARTESIAN_POINT('',(0.0,2.20429143688028E-016,3.6));
#461=DIRECTION('',(0.0,-6.12303176911189E-017,-1.0));
#462=DIRECTION('',(1.0,0.0,0.0));
#463=SURFACE_STYLE_FILL_AREA(#534);
#464=ORIENTED_EDGE('',*,*,#137,.F.);
#465=ORIENTED_EDGE('',*,*,#121,.T.);
#466=ORIENTED_EDGE('',*,*,#123,.F.);
#467=ORIENTED_EDGE('',*,*,#105,.F.);
#468=CARTESIAN_POINT('',(0.0,2.32675207226252E-016,3.8));
#469=DIRECTION('',(0.0,-6.12303176911189E-017,-1.0));
#470=DIRECTION('',(1.0,0.0,0.0));
#471=SURFACE_STYLE_FILL_AREA(#535);
#472=ORIENTED_EDGE('',*,*,#73,.T.);
#473=ORIENTED_EDGE('',*,*,#77,.F.);
#474=ORIENTED_EDGE('',*,*,#101,.T.);
#475=ORIENTED_EDGE('',*,*,#139,.T.);
#476=CARTESIAN_POINT('',(0.0,-4.51573592972002E-016,-7.375));
#477=DIRECTION('',(-0.0,6.12303176911189E-017,1.0));
#478=DIRECTION('',(1.0,0.0,0.0));
#479=DIRECTION('',(0.0,-6.12303176911189E-017,-1.0));
#480=SURFACE_STYLE_FILL_AREA(#536);
#481=ORIENTED_EDGE('',*,*,#135,.F.);
#482=ORIENTED_EDGE('',*,*,#127,.T.);
#483=ORIENTED_EDGE('',*,*,#81,.F.);
#484=ORIENTED_EDGE('',*,*,#97,.F.);
#485=CARTESIAN_POINT('',(0.0,-2.06652322207526E-016,-3.375));
#486=DIRECTION('',(-0.0,6.12303176911189E-017,1.0));
#487=DIRECTION('',(1.0,0.0,0.0));
#488=CARTESIAN_POINT('',(0.0,2.44921270764475E-016,4.0));
#489=DIRECTION('',(0.0,-6.12303176911189E-017,-1.0));
#490=DIRECTION('',(1.0,0.0,0.0));
#491=DIRECTION('',(0.707106781186548,1.2988911856079E-016,0.707106781186548));
#492=CARTESIAN_POINT('',(0.0,0.0,0.0));
#493=DIRECTION('',(0.0,-6.12303176911189E-017,-1.0));
#494=DIRECTION('',(1.0,0.0,0.0));
#495=SURFACE_STYLE_FILL_AREA(#537);
#496=ORIENTED_EDGE('',*,*,#115,.T.);
#497=ORIENTED_EDGE('',*,*,#69,.F.);
#498=ORIENTED_EDGE('',*,*,#149,.T.);
#499=ORIENTED_EDGE('',*,*,#87,.T.);
#500=CARTESIAN_POINT('',(0.0,1.10214571844014E-016,1.8));
#501=DIRECTION('',(-0.0,6.12303176911189E-017,1.0));
#502=DIRECTION('',(1.0,0.0,0.0));
#503=DIRECTION('',(0.0,-6.12303176911189E-017,-1.0));
#504=DIRECTION('',(0.707106781186548,4.32963728535968E-017,-0.707106781186548));
#505=CARTESIAN_POINT('',(0.0,-4.13304644415052E-016,-6.75));
#506=DIRECTION('',(0.0,-6.12303176911189E-017,-1.0));
#507=DIRECTION('',(1.0,0.0,0.0));
#508=CARTESIAN_POINT('',(0.0,0.0,0.0));
#509=DIRECTION('',(0.0,-6.12303176911189E-017,-1.0));
#510=DIRECTION('',(1.0,0.0,0.0));
#511=SURFACE_STYLE_FILL_AREA(#538);
#512=ORIENTED_EDGE('',*,*,#121,.F.);
#513=ORIENTED_EDGE('',*,*,#99,.F.);
#514=CARTESIAN_POINT('',(1.8,2.44921270764475E-016,4.0));
#515=DIRECTION('',(0.0,6.12303176911189E-017,1.0));
#516=DIRECTION('',(-1.0,0.0,0.0));
#517=CARTESIAN_POINT('',(0.0,-4.89842541528951E-016,-8.0));
#518=DIRECTION('',(0.0,-6.12303176911189E-017,-1.0));
#519=DIRECTION('',(1.0,0.0,0.0));
#520=DIRECTION('',(-0.0,6.12303176911189E-017,1.0));
#521=SURFACE_STYLE_FILL_AREA(#539);
#522=ORIENTED_EDGE('',*,*,#137,.T.);
#523=ORIENTED_EDGE('',*,*,#87,.F.);
#524=ORIENTED_EDGE('',*,*,#123,.T.);
#525=ORIENTED_EDGE('',*,*,#99,.T.);
#526=CARTESIAN_POINT('',(0.0,2.32675207226252E-016,3.8));
#527=DIRECTION('',(0.0,-6.12303176911189E-017,-1.0));
#528=DIRECTION('',(1.0,0.0,0.0));
#529=FILL_AREA_STYLE('',(#540));
#530=FILL_AREA_STYLE('',(#541));
#531=FILL_AREA_STYLE('',(#542));
#532=FILL_AREA_STYLE('',(#543));
#533=FILL_AREA_STYLE('',(#544));
#534=FILL_AREA_STYLE('',(#545));
#535=FILL_AREA_STYLE('',(#546));
#536=FILL_AREA_STYLE('',(#547));
#537=FILL_AREA_STYLE('',(#548));
#538=FILL_AREA_STYLE('',(#549));
#539=FILL_AREA_STYLE('',(#550));
#540=FILL_AREA_STYLE_COLOUR('',#551);
#541=FILL_AREA_STYLE_COLOUR('',#552);
#542=FILL_AREA_STYLE_COLOUR('',#553);
#543=FILL_AREA_STYLE_COLOUR('',#554);
#544=FILL_AREA_STYLE_COLOUR('',#555);
#545=FILL_AREA_STYLE_COLOUR('',#556);
#546=FILL_AREA_STYLE_COLOUR('',#557);
#547=FILL_AREA_STYLE_COLOUR('',#558);
#548=FILL_AREA_STYLE_COLOUR('',#559);
#549=FILL_AREA_STYLE_COLOUR('',#560);
#550=FILL_AREA_STYLE_COLOUR('',#561);
#551=COLOUR_RGB('',0.509803950786591,0.509803950786591,0.588235318660736);
#552=COLOUR_RGB('',0.509803950786591,0.509803950786591,0.588235318660736);
#553=COLOUR_RGB('',0.509803950786591,0.509803950786591,0.588235318660736);
#554=COLOUR_RGB('',0.509803950786591,0.509803950786591,0.588235318660736);
#555=COLOUR_RGB('',0.509803950786591,0.509803950786591,0.588235318660736);
#556=COLOUR_RGB('',0.509803950786591,0.509803950786591,0.588235318660736);
#557=COLOUR_RGB('',0.509803950786591,0.509803950786591,0.588235318660736);
#558=COLOUR_RGB('',0.509803950786591,0.509803950786591,0.588235318660736);
#559=COLOUR_RGB('',0.509803950786591,0.509803950786591,0.588235318660736);
#560=COLOUR_RGB('',0.509803950786591,0.509803950786591,0.588235318660736);
#561=COLOUR_RGB('',0.509803950786591,0.509803950786591,0.588235318660736);
ENDSEC;
END-ISO-10303-21;
