ISO-10303-21;
HEADER;
FILE_DESCRIPTION(('STEP AP214'),'1');
FILE_NAME(' ','  ',('TraceParts'),('TraceParts S.A.'),'XStep 1.0',' ',' ');
FILE_SCHEMA(('automotive_design'));
ENDSEC;
DATA;
#1=MECHANICAL_DESIGN_GEOMETRIC_PRESENTATION_REPRESENTATION(' ',(#10,#11,#12,#13,#14,#15,#16,#17,#18,#19,#20,#21,#22,#23,#24,#25,#26,#27,#28,#29,#30,#31,#32,#33,#34,#35,#36,#37,#38,#39,#40,#41,#42,#43,#44,#45,#46,#47,#48,#49,#50,#51,#52),#6);
#2=PRODUCT_DEFINITION_CONTEXT('',#53,'design');
#3=APPLICATION_PROTOCOL_DEFINITION('INTERNATIONAL STANDARD','automotive_design',1994,#53);
#4=PRODUCT_CATEGORY_RELATIONSHIP('NONE','NONE',#54,#55);
#5=SHAPE_DEFINITION_REPRESENTATION(#56,#57);
#6= (GEOMETRIC_REPRESENTATION_CONTEXT(3)GLOBAL_UNCERTAINTY_ASSIGNED_CONTEXT((#60))GLOBAL_UNIT_ASSIGNED_CONTEXT((#62,#63,#64))REPRESENTATION_CONTEXT('NONE','WORKSPACE'));
#10=STYLED_ITEM('',(#66),#67);
#11=STYLED_ITEM('',(#68),#69);
#12=STYLED_ITEM('',(#70),#71);
#13=STYLED_ITEM('',(#72),#73);
#14=STYLED_ITEM('',(#74),#75);
#15=STYLED_ITEM('',(#76),#77);
#16=STYLED_ITEM('',(#78),#79);
#17=STYLED_ITEM('',(#80),#81);
#18=STYLED_ITEM('',(#82),#83);
#19=STYLED_ITEM('',(#84),#85);
#20=STYLED_ITEM('',(#86),#87);
#21=STYLED_ITEM('',(#88),#89);
#22=STYLED_ITEM('',(#90),#91);
#23=STYLED_ITEM('',(#92),#93);
#24=STYLED_ITEM('',(#94),#95);
#25=STYLED_ITEM('',(#96),#97);
#26=STYLED_ITEM('',(#98),#99);
#27=STYLED_ITEM('',(#100),#101);
#28=STYLED_ITEM('',(#102),#103);
#29=STYLED_ITEM('',(#104),#105);
#30=STYLED_ITEM('',(#106),#107);
#31=STYLED_ITEM('',(#108),#109);
#32=STYLED_ITEM('',(#110),#111);
#33=STYLED_ITEM('',(#112),#113);
#34=STYLED_ITEM('',(#114),#115);
#35=STYLED_ITEM('',(#116),#117);
#36=STYLED_ITEM('',(#118),#119);
#37=STYLED_ITEM('',(#120),#121);
#38=STYLED_ITEM('',(#122),#123);
#39=STYLED_ITEM('',(#124),#125);
#40=STYLED_ITEM('',(#126),#127);
#41=STYLED_ITEM('',(#128),#129);
#42=STYLED_ITEM('',(#130),#131);
#43=STYLED_ITEM('',(#132),#133);
#44=STYLED_ITEM('',(#134),#135);
#45=STYLED_ITEM('',(#136),#137);
#46=STYLED_ITEM('',(#138),#139);
#47=STYLED_ITEM('',(#140),#141);
#48=STYLED_ITEM('',(#142),#143);
#49=STYLED_ITEM('',(#144),#145);
#50=STYLED_ITEM('',(#146),#147);
#51=STYLED_ITEM('',(#148),#149);
#52=STYLED_ITEM('',(#150),#151);
#53=APPLICATION_CONTEXT(' ');
#54=PRODUCT_CATEGORY('part','NONE');
#55=PRODUCT_RELATED_PRODUCT_CATEGORY('detail',' ',(#152));
#56=PRODUCT_DEFINITION_SHAPE('NONE','NONE',#153);
#57=ADVANCED_BREP_SHAPE_REPRESENTATION('1',(#154,#155),#6);
#60=UNCERTAINTY_MEASURE_WITH_UNIT(LENGTH_MEASURE(1.0E-006),#62,'','');
#62= (CONVERSION_BASED_UNIT('MILLIMETRE',#158)LENGTH_UNIT()NAMED_UNIT(#161));
#63= (NAMED_UNIT(#163)PLANE_ANGLE_UNIT()SI_UNIT($,.RADIAN.));
#64= (NAMED_UNIT(#163)SOLID_ANGLE_UNIT()SI_UNIT($,.STERADIAN.));
#66=PRESENTATION_STYLE_ASSIGNMENT((#169));
#67=ADVANCED_FACE('',(#170),#171,.T.);
#68=PRESENTATION_STYLE_ASSIGNMENT((#172));
#69=EDGE_CURVE('',#129,#143,#173,.T.);
#70=PRESENTATION_STYLE_ASSIGNMENT((#174));
#71=EDGE_CURVE('',#143,#115,#175,.T.);
#72=PRESENTATION_STYLE_ASSIGNMENT((#176));
#73=EDGE_CURVE('',#89,#111,#177,.T.);
#74=PRESENTATION_STYLE_ASSIGNMENT((#178));
#75=EDGE_CURVE('',#129,#89,#179,.T.);
#76=PRESENTATION_STYLE_ASSIGNMENT((#180));
#77=EDGE_CURVE('',#95,#139,#181,.T.);
#78=PRESENTATION_STYLE_ASSIGNMENT((#182));
#79=EDGE_CURVE('',#111,#143,#183,.T.);
#80=PRESENTATION_STYLE_ASSIGNMENT((#184));
#81=ADVANCED_FACE('',(#185),#186,.T.);
#82=PRESENTATION_STYLE_ASSIGNMENT((#187));
#83=ADVANCED_FACE('',(#188),#189,.T.);
#84=PRESENTATION_STYLE_ASSIGNMENT((#190));
#85=ADVANCED_FACE('',(#191),#192,.T.);
#86=PRESENTATION_STYLE_ASSIGNMENT((#193));
#87=ADVANCED_FACE('',(#194),#195,.T.);
#88=PRESENTATION_STYLE_ASSIGNMENT((#196));
#89=VERTEX_POINT('',#197);
#90=PRESENTATION_STYLE_ASSIGNMENT((#198));
#91=ADVANCED_FACE('',(#199),#200,.T.);
#92=PRESENTATION_STYLE_ASSIGNMENT((#201));
#93=VERTEX_POINT('',#202);
#94=PRESENTATION_STYLE_ASSIGNMENT((#203));
#95=VERTEX_POINT('',#204);
#96=PRESENTATION_STYLE_ASSIGNMENT((#205));
#97=ADVANCED_FACE('',(#206),#207,.T.);
#98=PRESENTATION_STYLE_ASSIGNMENT((#208));
#99=EDGE_CURVE('',#141,#123,#209,.T.);
#100=PRESENTATION_STYLE_ASSIGNMENT((#210));
#101=EDGE_CURVE('',#123,#141,#211,.T.);
#102=PRESENTATION_STYLE_ASSIGNMENT((#212));
#103=ADVANCED_FACE('',(#213),#214,.T.);
#104=PRESENTATION_STYLE_ASSIGNMENT((#215));
#105=EDGE_CURVE('',#93,#129,#216,.T.);
#106=PRESENTATION_STYLE_ASSIGNMENT((#217));
#107=EDGE_CURVE('',#151,#123,#218,.T.);
#108=PRESENTATION_STYLE_ASSIGNMENT((#219));
#109=ADVANCED_FACE('',(#220),#221,.T.);
#110=PRESENTATION_STYLE_ASSIGNMENT((#222));
#111=VERTEX_POINT('',#223);
#112=PRESENTATION_STYLE_ASSIGNMENT((#224));
#113=EDGE_CURVE('',#111,#89,#225,.T.);
#114=PRESENTATION_STYLE_ASSIGNMENT((#226));
#115=VERTEX_POINT('',#227);
#116=PRESENTATION_STYLE_ASSIGNMENT((#228));
#117=EDGE_CURVE('',#143,#129,#229,.T.);
#118=PRESENTATION_STYLE_ASSIGNMENT((#230));
#119=VERTEX_POINT('',#231);
#120=PRESENTATION_STYLE_ASSIGNMENT((#232));
#121=EDGE_CURVE('',#119,#139,#233,.T.);
#122=PRESENTATION_STYLE_ASSIGNMENT((#234));
#123=VERTEX_POINT('',#235);
#124=PRESENTATION_STYLE_ASSIGNMENT((#236));
#125=EDGE_CURVE('',#151,#119,#237,.T.);
#126=PRESENTATION_STYLE_ASSIGNMENT((#238));
#127=EDGE_CURVE('',#93,#115,#239,.T.);
#128=PRESENTATION_STYLE_ASSIGNMENT((#240));
#129=VERTEX_POINT('',#241);
#130=PRESENTATION_STYLE_ASSIGNMENT((#242));
#131=EDGE_CURVE('',#141,#119,#243,.T.);
#132=PRESENTATION_STYLE_ASSIGNMENT((#244));
#133=EDGE_CURVE('',#115,#93,#245,.T.);
#134=PRESENTATION_STYLE_ASSIGNMENT((#246));
#135=ADVANCED_FACE('',(#247),#248,.T.);
#136=PRESENTATION_STYLE_ASSIGNMENT((#249));
#137=EDGE_CURVE('',#139,#95,#250,.T.);
#138=PRESENTATION_STYLE_ASSIGNMENT((#251));
#139=VERTEX_POINT('',#252);
#140=PRESENTATION_STYLE_ASSIGNMENT((#253));
#141=VERTEX_POINT('',#254);
#142=PRESENTATION_STYLE_ASSIGNMENT((#255));
#143=VERTEX_POINT('',#256);
#144=PRESENTATION_STYLE_ASSIGNMENT((#257));
#145=EDGE_CURVE('',#119,#151,#258,.T.);
#146=PRESENTATION_STYLE_ASSIGNMENT((#259));
#147=EDGE_CURVE('',#95,#151,#260,.T.);
#148=PRESENTATION_STYLE_ASSIGNMENT((#261));
#149=ADVANCED_FACE('',(#262,#263),#264,.T.);
#150=PRESENTATION_STYLE_ASSIGNMENT((#265));
#151=VERTEX_POINT('',#266);
#152=PRODUCT('1','1','PART-1-DESC',(#267));
#153=PRODUCT_DEFINITION('NONE','NONE',#268,#2);
#154=MANIFOLD_SOLID_BREP('1',#269);
#155=AXIS2_PLACEMENT_3D('',#270,#271,#272);
#158=LENGTH_MEASURE_WITH_UNIT(LENGTH_MEASURE(1.0),#273);
#161=DIMENSIONAL_EXPONENTS(1.0,0.0,0.0,0.0,0.0,0.0,0.0);
#163=DIMENSIONAL_EXPONENTS(0.0,0.0,0.0,0.0,0.0,0.0,0.0);
#169=SURFACE_STYLE_USAGE(.BOTH.,#274);
#170=FACE_OUTER_BOUND('',#275,.T.);
#171=CYLINDRICAL_SURFACE('',#276,6.0);
#172=CURVE_STYLE('',#277,POSITIVE_LENGTH_MEASURE(1.0E-006),#278);
#173=CIRCLE('',#279,3.0);
#174=CURVE_STYLE('',#280,POSITIVE_LENGTH_MEASURE(1.0E-006),#281);
#175=LINE('',#282,#283);
#176=CURVE_STYLE('',#284,POSITIVE_LENGTH_MEASURE(1.0E-006),#285);
#177=CIRCLE('',#286,3.0);
#178=CURVE_STYLE('',#287,POSITIVE_LENGTH_MEASURE(1.0E-006),#288);
#179=LINE('',#289,#290);
#180=CURVE_STYLE('',#291,POSITIVE_LENGTH_MEASURE(1.0E-006),#292);
#181=CIRCLE('',#293,6.0);
#182=CURVE_STYLE('',#294,POSITIVE_LENGTH_MEASURE(1.0E-006),#295);
#183=LINE('',#296,#297);
#184=SURFACE_STYLE_USAGE(.BOTH.,#298);
#185=FACE_OUTER_BOUND('',#299,.T.);
#186=CONICAL_SURFACE('',#300,2.85,0.197395559849881);
#187=SURFACE_STYLE_USAGE(.BOTH.,#301);
#188=FACE_OUTER_BOUND('',#302,.T.);
#189=CONICAL_SURFACE('',#303,2.85,0.197395559849881);
#190=SURFACE_STYLE_USAGE(.BOTH.,#304);
#191=FACE_OUTER_BOUND('',#305,.T.);
#192=CONICAL_SURFACE('',#306,5.5,0.785398163397448);
#193=SURFACE_STYLE_USAGE(.BOTH.,#307);
#194=FACE_OUTER_BOUND('',#308,.T.);
#195=CYLINDRICAL_SURFACE('',#309,3.0);
#196=POINT_STYLE(' ',#310,POSITIVE_LENGTH_MEASURE(1.0E-006),#311);
#197=CARTESIAN_POINT('',(-3.0,-3.67381906146713E-016,2.24949108273321E-032));
#198=SURFACE_STYLE_USAGE(.BOTH.,#312);
#199=FACE_OUTER_BOUND('',#313,.T.);
#200=PLANE('',#314);
#201=POINT_STYLE(' ',#315,POSITIVE_LENGTH_MEASURE(1.0E-006),#316);
#202=CARTESIAN_POINT('',(-2.7,-9.42946892443231E-016,-10.0));
#203=POINT_STYLE(' ',#317,POSITIVE_LENGTH_MEASURE(1.0E-006),#318);
#204=CARTESIAN_POINT('',(-6.0,-7.34763812293426E-016,4.49898216546641E-032));
#205=SURFACE_STYLE_USAGE(.BOTH.,#319);
#206=FACE_OUTER_BOUND('',#320,.T.);
#207=CYLINDRICAL_SURFACE('',#321,3.0);
#208=CURVE_STYLE('',#322,POSITIVE_LENGTH_MEASURE(1.0E-006),#323);
#209=CIRCLE('',#324,5.0);
#210=CURVE_STYLE('',#325,POSITIVE_LENGTH_MEASURE(1.0E-006),#326);
#211=CIRCLE('',#327,5.0);
#212=SURFACE_STYLE_USAGE(.BOTH.,#328);
#213=FACE_OUTER_BOUND('',#329,.T.);
#214=PLANE('',#330);
#215=CURVE_STYLE('',#331,POSITIVE_LENGTH_MEASURE(1.0E-006),#332);
#216=LINE('',#333,#334);
#217=CURVE_STYLE('',#335,POSITIVE_LENGTH_MEASURE(1.0E-006),#336);
#218=LINE('',#337,#338);
#219=SURFACE_STYLE_USAGE(.BOTH.,#339);
#220=FACE_OUTER_BOUND('',#340,.T.);
#221=CYLINDRICAL_SURFACE('',#341,6.0);
#222=POINT_STYLE(' ',#342,POSITIVE_LENGTH_MEASURE(1.0E-006),#343);
#223=CARTESIAN_POINT('',(3.0,0.0,0.0));
#224=CURVE_STYLE('',#344,POSITIVE_LENGTH_MEASURE(1.0E-006),#345);
#225=CIRCLE('',#346,3.0);
#226=POINT_STYLE(' ',#347,POSITIVE_LENGTH_MEASURE(1.0E-006),#348);
#227=CARTESIAN_POINT('',(2.7,-6.12303176911189E-016,-10.0));
#228=CURVE_STYLE('',#349,POSITIVE_LENGTH_MEASURE(1.0E-006),#350);
#229=CIRCLE('',#351,3.0);
#230=POINT_STYLE(' ',#352,POSITIVE_LENGTH_MEASURE(1.0E-006),#353);
#231=CARTESIAN_POINT('',(6.0,5.5107285922007E-016,9.0));
#232=CURVE_STYLE('',#354,POSITIVE_LENGTH_MEASURE(1.0E-006),#355);
#233=LINE('',#356,#357);
#234=POINT_STYLE(' ',#358,POSITIVE_LENGTH_MEASURE(1.0E-006),#359);
#235=CARTESIAN_POINT('',(-5.0,0.0,10.0));
#236=CURVE_STYLE('',#360,POSITIVE_LENGTH_MEASURE(1.0E-006),#361);
#237=CIRCLE('',#362,6.0);
#238=CURVE_STYLE('',#363,POSITIVE_LENGTH_MEASURE(1.0E-006),#364);
#239=CIRCLE('',#365,2.7);
#240=POINT_STYLE(' ',#366,POSITIVE_LENGTH_MEASURE(1.0E-006),#367);
#241=CARTESIAN_POINT('',(-3.0,-8.87839606521224E-016,-8.5));
#242=CURVE_STYLE('',#368,POSITIVE_LENGTH_MEASURE(1.0E-006),#369);
#243=LINE('',#370,#371);
#244=CURVE_STYLE('',#372,POSITIVE_LENGTH_MEASURE(1.0E-006),#373);
#245=CIRCLE('',#374,2.7);
#246=SURFACE_STYLE_USAGE(.BOTH.,#375);
#247=FACE_OUTER_BOUND('',#376,.T.);
#248=CONICAL_SURFACE('',#377,5.5,0.785398163397448);
#249=CURVE_STYLE('',#378,POSITIVE_LENGTH_MEASURE(1.0E-006),#379);
#250=CIRCLE('',#380,6.0);
#251=POINT_STYLE(' ',#381,POSITIVE_LENGTH_MEASURE(1.0E-006),#382);
#252=CARTESIAN_POINT('',(6.0,0.0,0.0));
#253=POINT_STYLE(' ',#383,POSITIVE_LENGTH_MEASURE(1.0E-006),#384);
#254=CARTESIAN_POINT('',(5.0,6.12303176911189E-016,10.0));
#255=POINT_STYLE(' ',#385,POSITIVE_LENGTH_MEASURE(1.0E-006),#386);
#256=CARTESIAN_POINT('',(3.0,-5.2045770037451E-016,-8.5));
#257=CURVE_STYLE('',#387,POSITIVE_LENGTH_MEASURE(1.0E-006),#388);
#258=CIRCLE('',#389,6.0);
#259=CURVE_STYLE('',#390,POSITIVE_LENGTH_MEASURE(1.0E-006),#391);
#260=LINE('',#392,#393);
#261=SURFACE_STYLE_USAGE(.BOTH.,#394);
#262=FACE_BOUND('',#395,.T.);
#263=FACE_OUTER_BOUND('',#396,.T.);
#264=PLANE('',#397);
#265=POINT_STYLE(' ',#398,POSITIVE_LENGTH_MEASURE(1.0E-006),#399);
#266=CARTESIAN_POINT('',(-6.0,-1.83690953073357E-016,9.0));
#267=PRODUCT_CONTEXT('',#53,'mechanical');
#268=PRODUCT_DEFINITION_FORMATION_WITH_SPECIFIED_SOURCE(' ','NONE',#152,.NOT_KNOWN.);
#269=CLOSED_SHELL('',(#81,#97,#109,#135,#91,#85,#67,#149,#87,#83,#103));
#270=CARTESIAN_POINT('',(0.0,0.0,0.0));
#271=DIRECTION('',(0.0,0.0,1.0));
#272=DIRECTION('',(1.0,0.0,0.0));
#273= (NAMED_UNIT(#161)LENGTH_UNIT()SI_UNIT(.MILLI.,.METRE.));
#274=SURFACE_SIDE_STYLE('',(#401));
#275=EDGE_LOOP('',(#402,#403,#404,#405));
#276=AXIS2_PLACEMENT_3D('',#406,#407,#408);
#277=DRAUGHTING_PRE_DEFINED_CURVE_FONT('continuous');
#278=COLOUR_RGB('',0.509803950786591,0.509803950786591,0.588235318660736);
#279=AXIS2_PLACEMENT_3D('',#409,#410,#411);
#280=DRAUGHTING_PRE_DEFINED_CURVE_FONT('continuous');
#281=COLOUR_RGB('',0.509803950786591,0.509803950786591,0.588235318660736);
#282=CARTESIAN_POINT('',(2.85,-2.17367627803472E-016,-9.25));
#283=VECTOR('',#412,1.0);
#284=DRAUGHTING_PRE_DEFINED_CURVE_FONT('continuous');
#285=COLOUR_RGB('',0.509803950786591,0.509803950786591,0.588235318660736);
#286=AXIS2_PLACEMENT_3D('',#413,#414,#415);
#287=DRAUGHTING_PRE_DEFINED_CURVE_FONT('continuous');
#288=COLOUR_RGB('',0.509803950786591,0.509803950786591,0.588235318660736);
#289=CARTESIAN_POINT('',(-3.0,-6.27610756333968E-016,-4.25));
#290=VECTOR('',#416,1.0);
#291=DRAUGHTING_PRE_DEFINED_CURVE_FONT('continuous');
#292=COLOUR_RGB('',0.509803950786591,0.509803950786591,0.588235318660736);
#293=AXIS2_PLACEMENT_3D('',#417,#418,#419);
#294=DRAUGHTING_PRE_DEFINED_CURVE_FONT('continuous');
#295=COLOUR_RGB('',0.509803950786591,0.509803950786591,0.588235318660736);
#296=CARTESIAN_POINT('',(3.0,1.07153055959458E-016,-4.25));
#297=VECTOR('',#420,1.0);
#298=SURFACE_SIDE_STYLE('',(#421));
#299=EDGE_LOOP('',(#422,#423,#424,#425));
#300=AXIS2_PLACEMENT_3D('',#426,#427,#428);
#301=SURFACE_SIDE_STYLE('',(#429));
#302=EDGE_LOOP('',(#430,#431,#432,#433));
#303=AXIS2_PLACEMENT_3D('',#434,#435,#436);
#304=SURFACE_SIDE_STYLE('',(#437));
#305=EDGE_LOOP('',(#438,#439,#440,#441));
#306=AXIS2_PLACEMENT_3D('',#442,#443,#444);
#307=SURFACE_SIDE_STYLE('',(#445));
#308=EDGE_LOOP('',(#446,#447,#448,#449));
#309=AXIS2_PLACEMENT_3D('',#450,#451,#452);
#310=PRE_DEFINED_MARKER('');
#311=COLOUR_RGB('',0.509803950786591,0.509803950786591,0.588235318660736);
#312=SURFACE_SIDE_STYLE('',(#453));
#313=EDGE_LOOP('',(#454,#455));
#314=AXIS2_PLACEMENT_3D('',#456,#457,#458);
#315=PRE_DEFINED_MARKER('');
#316=COLOUR_RGB('',0.509803950786591,0.509803950786591,0.588235318660736);
#317=PRE_DEFINED_MARKER('');
#318=COLOUR_RGB('',0.509803950786591,0.509803950786591,0.588235318660736);
#319=SURFACE_SIDE_STYLE('',(#459));
#320=EDGE_LOOP('',(#460,#461,#462,#463));
#321=AXIS2_PLACEMENT_3D('',#464,#465,#466);
#322=DRAUGHTING_PRE_DEFINED_CURVE_FONT('continuous');
#323=COLOUR_RGB('',0.509803950786591,0.509803950786591,0.588235318660736);
#324=AXIS2_PLACEMENT_3D('',#467,#468,#469);
#325=DRAUGHTING_PRE_DEFINED_CURVE_FONT('continuous');
#326=COLOUR_RGB('',0.509803950786591,0.509803950786591,0.588235318660736);
#327=AXIS2_PLACEMENT_3D('',#470,#471,#472);
#328=SURFACE_SIDE_STYLE('',(#473));
#329=EDGE_LOOP('',(#474,#475));
#330=AXIS2_PLACEMENT_3D('',#476,#477,#478);
#331=DRAUGHTING_PRE_DEFINED_CURVE_FONT('continuous');
#332=COLOUR_RGB('',0.509803950786591,0.509803950786591,0.588235318660736);
#333=CARTESIAN_POINT('',(-2.85,-9.15393249482227E-016,-9.25));
#334=VECTOR('',#479,1.0);
#335=DRAUGHTING_PRE_DEFINED_CURVE_FONT('continuous');
#336=COLOUR_RGB('',0.509803950786591,0.509803950786591,0.588235318660736);
#337=CARTESIAN_POINT('',(-5.5,-9.18454765366783E-017,9.5));
#338=VECTOR('',#480,1.0);
#339=SURFACE_SIDE_STYLE('',(#481));
#340=EDGE_LOOP('',(#482,#483,#484,#485));
#341=AXIS2_PLACEMENT_3D('',#486,#487,#488);
#342=PRE_DEFINED_MARKER('');
#343=COLOUR_RGB('',0.509803950786591,0.509803950786591,0.588235318660736);
#344=DRAUGHTING_PRE_DEFINED_CURVE_FONT('continuous');
#345=COLOUR_RGB('',0.509803950786591,0.509803950786591,0.588235318660736);
#346=AXIS2_PLACEMENT_3D('',#489,#490,#491);
#347=PRE_DEFINED_MARKER('');
#348=COLOUR_RGB('',0.509803950786591,0.509803950786591,0.588235318660736);
#349=DRAUGHTING_PRE_DEFINED_CURVE_FONT('continuous');
#350=COLOUR_RGB('',0.509803950786591,0.509803950786591,0.588235318660736);
#351=AXIS2_PLACEMENT_3D('',#492,#493,#494);
#352=PRE_DEFINED_MARKER('');
#353=COLOUR_RGB('',0.509803950786591,0.509803950786591,0.588235318660736);
#354=DRAUGHTING_PRE_DEFINED_CURVE_FONT('continuous');
#355=COLOUR_RGB('',0.509803950786591,0.509803950786591,0.588235318660736);
#356=CARTESIAN_POINT('',(6.0,1.01030024190346E-015,4.5));
#357=VECTOR('',#495,1.0);
#358=PRE_DEFINED_MARKER('');
#359=COLOUR_RGB('',0.509803950786591,0.509803950786591,0.588235318660736);
#360=DRAUGHTING_PRE_DEFINED_CURVE_FONT('continuous');
#361=COLOUR_RGB('',0.509803950786591,0.509803950786591,0.588235318660736);
#362=AXIS2_PLACEMENT_3D('',#496,#497,#498);
#363=DRAUGHTING_PRE_DEFINED_CURVE_FONT('continuous');
#364=COLOUR_RGB('',0.509803950786591,0.509803950786591,0.588235318660736);
#365=AXIS2_PLACEMENT_3D('',#499,#500,#501);
#366=PRE_DEFINED_MARKER('');
#367=COLOUR_RGB('',0.509803950786591,0.509803950786591,0.588235318660736);
#368=DRAUGHTING_PRE_DEFINED_CURVE_FONT('continuous');
#369=COLOUR_RGB('',0.509803950786591,0.509803950786591,0.588235318660736);
#370=CARTESIAN_POINT('',(5.5,1.25522151266794E-015,9.5));
#371=VECTOR('',#502,1.0);
#372=DRAUGHTING_PRE_DEFINED_CURVE_FONT('continuous');
#373=COLOUR_RGB('',0.509803950786591,0.509803950786591,0.588235318660736);
#374=AXIS2_PLACEMENT_3D('',#503,#504,#505);
#375=SURFACE_SIDE_STYLE('',(#506));
#376=EDGE_LOOP('',(#507,#508,#509,#510));
#377=AXIS2_PLACEMENT_3D('',#511,#512,#513);
#378=DRAUGHTING_PRE_DEFINED_CURVE_FONT('continuous');
#379=COLOUR_RGB('',0.509803950786591,0.509803950786591,0.588235318660736);
#380=AXIS2_PLACEMENT_3D('',#514,#515,#516);
#381=PRE_DEFINED_MARKER('');
#382=COLOUR_RGB('',0.509803950786591,0.509803950786591,0.588235318660736);
#383=PRE_DEFINED_MARKER('');
#384=COLOUR_RGB('',0.509803950786591,0.509803950786591,0.588235318660736);
#385=PRE_DEFINED_MARKER('');
#386=COLOUR_RGB('',0.509803950786591,0.509803950786591,0.588235318660736);
#387=DRAUGHTING_PRE_DEFINED_CURVE_FONT('continuous');
#388=COLOUR_RGB('',0.509803950786591,0.509803950786591,0.588235318660736);
#389=AXIS2_PLACEMENT_3D('',#517,#518,#519);
#390=DRAUGHTING_PRE_DEFINED_CURVE_FONT('continuous');
#391=COLOUR_RGB('',0.509803950786591,0.509803950786591,0.588235318660736);
#392=CARTESIAN_POINT('',(-6.0,-4.59227382683391E-016,4.5));
#393=VECTOR('',#520,1.0);
#394=SURFACE_SIDE_STYLE('',(#521));
#395=EDGE_LOOP('',(#522,#523));
#396=EDGE_LOOP('',(#524,#525));
#397=AXIS2_PLACEMENT_3D('',#526,#527,#528);
#398=PRE_DEFINED_MARKER('');
#399=COLOUR_RGB('',0.509803950786591,0.509803950786591,0.588235318660736);
#401=SURFACE_STYLE_FILL_AREA(#529);
#402=ORIENTED_EDGE('',*,*,#121,.T.);
#403=ORIENTED_EDGE('',*,*,#77,.F.);
#404=ORIENTED_EDGE('',*,*,#147,.T.);
#405=ORIENTED_EDGE('',*,*,#125,.T.);
#406=CARTESIAN_POINT('',(0.0,2.75536429610035E-016,4.5));
#407=DIRECTION('',(-0.0,6.12303176911189E-017,1.0));
#408=DIRECTION('',(1.0,0.0,0.0));
#409=CARTESIAN_POINT('',(0.0,-5.2045770037451E-016,-8.5));
#410=DIRECTION('',(0.0,-6.12303176911189E-017,-1.0));
#411=DIRECTION('',(1.0,0.0,0.0));
#412=DIRECTION('',(-0.196116135138184,-8.40577728120578E-017,-0.98058067569092));
#413=CARTESIAN_POINT('',(0.0,0.0,0.0));
#414=DIRECTION('',(0.0,-6.12303176911189E-017,-1.0));
#415=DIRECTION('',(1.0,0.0,0.0));
#416=DIRECTION('',(-0.0,6.12303176911189E-017,1.0));
#417=CARTESIAN_POINT('',(0.0,0.0,0.0));
#418=DIRECTION('',(0.0,-6.12303176911189E-017,-1.0));
#419=DIRECTION('',(1.0,0.0,0.0));
#420=DIRECTION('',(0.0,-6.12303176911189E-017,-1.0));
#421=SURFACE_STYLE_FILL_AREA(#530);
#422=ORIENTED_EDGE('',*,*,#71,.F.);
#423=ORIENTED_EDGE('',*,*,#117,.T.);
#424=ORIENTED_EDGE('',*,*,#105,.F.);
#425=ORIENTED_EDGE('',*,*,#133,.F.);
#426=CARTESIAN_POINT('',(0.0,-5.66380438642849E-016,-9.25));
#427=DIRECTION('',(-0.0,6.12303176911189E-017,1.0));
#428=DIRECTION('',(1.0,0.0,0.0));
#429=SURFACE_STYLE_FILL_AREA(#531);
#430=ORIENTED_EDGE('',*,*,#71,.T.);
#431=ORIENTED_EDGE('',*,*,#127,.F.);
#432=ORIENTED_EDGE('',*,*,#105,.T.);
#433=ORIENTED_EDGE('',*,*,#69,.T.);
#434=CARTESIAN_POINT('',(0.0,-5.66380438642849E-016,-9.25));
#435=DIRECTION('',(-0.0,6.12303176911189E-017,1.0));
#436=DIRECTION('',(1.0,0.0,0.0));
#437=SURFACE_STYLE_FILL_AREA(#532);
#438=ORIENTED_EDGE('',*,*,#131,.T.);
#439=ORIENTED_EDGE('',*,*,#125,.F.);
#440=ORIENTED_EDGE('',*,*,#107,.T.);
#441=ORIENTED_EDGE('',*,*,#101,.T.);
#442=CARTESIAN_POINT('',(0.0,5.81688018065629E-016,9.5));
#443=DIRECTION('',(0.0,-6.12303176911189E-017,-1.0));
#444=DIRECTION('',(1.0,0.0,0.0));
#445=SURFACE_STYLE_FILL_AREA(#533);
#446=ORIENTED_EDGE('',*,*,#79,.T.);
#447=ORIENTED_EDGE('',*,*,#69,.F.);
#448=ORIENTED_EDGE('',*,*,#75,.T.);
#449=ORIENTED_EDGE('',*,*,#73,.T.);
#450=CARTESIAN_POINT('',(0.0,-2.60228850187255E-016,-4.25));
#451=DIRECTION('',(-0.0,6.12303176911189E-017,1.0));
#452=DIRECTION('',(1.0,0.0,0.0));
#453=SURFACE_STYLE_FILL_AREA(#534);
#454=ORIENTED_EDGE('',*,*,#99,.F.);
#455=ORIENTED_EDGE('',*,*,#101,.F.);
#456=CARTESIAN_POINT('',(2.5,6.12303176911189E-016,10.0));
#457=DIRECTION('',(0.0,6.12303176911189E-017,1.0));
#458=DIRECTION('',(-1.0,0.0,0.0));
#459=SURFACE_STYLE_FILL_AREA(#535);
#460=ORIENTED_EDGE('',*,*,#79,.F.);
#461=ORIENTED_EDGE('',*,*,#113,.T.);
#462=ORIENTED_EDGE('',*,*,#75,.F.);
#463=ORIENTED_EDGE('',*,*,#117,.F.);
#464=CARTESIAN_POINT('',(0.0,-2.60228850187255E-016,-4.25));
#465=DIRECTION('',(-0.0,6.12303176911189E-017,1.0));
#466=DIRECTION('',(1.0,0.0,0.0));
#467=CARTESIAN_POINT('',(0.0,6.12303176911189E-016,10.0));
#468=DIRECTION('',(0.0,-6.12303176911189E-017,-1.0));
#469=DIRECTION('',(1.0,0.0,0.0));
#470=CARTESIAN_POINT('',(0.0,6.12303176911189E-016,10.0));
#471=DIRECTION('',(0.0,-6.12303176911189E-017,-1.0));
#472=DIRECTION('',(1.0,0.0,0.0));
#473=SURFACE_STYLE_FILL_AREA(#536);
#474=ORIENTED_EDGE('',*,*,#133,.T.);
#475=ORIENTED_EDGE('',*,*,#127,.T.);
#476=CARTESIAN_POINT('',(1.35,-6.12303176911189E-016,-10.0));
#477=DIRECTION('',(0.0,-6.12303176911189E-017,-1.0));
#478=DIRECTION('',(1.0,0.0,0.0));
#479=DIRECTION('',(-0.196116135138184,3.60247597765962E-017,0.98058067569092));
#480=DIRECTION('',(0.707106781186548,1.2988911856079E-016,0.707106781186548));
#481=SURFACE_STYLE_FILL_AREA(#537);
#482=ORIENTED_EDGE('',*,*,#121,.F.);
#483=ORIENTED_EDGE('',*,*,#145,.T.);
#484=ORIENTED_EDGE('',*,*,#147,.F.);
#485=ORIENTED_EDGE('',*,*,#137,.F.);
#486=CARTESIAN_POINT('',(0.0,2.75536429610035E-016,4.5));
#487=DIRECTION('',(-0.0,6.12303176911189E-017,1.0));
#488=DIRECTION('',(1.0,0.0,0.0));
#489=CARTESIAN_POINT('',(0.0,0.0,0.0));
#490=DIRECTION('',(0.0,-6.12303176911189E-017,-1.0));
#491=DIRECTION('',(1.0,0.0,0.0));
#492=CARTESIAN_POINT('',(0.0,-5.2045770037451E-016,-8.5));
#493=DIRECTION('',(0.0,-6.12303176911189E-017,-1.0));
#494=DIRECTION('',(1.0,0.0,0.0));
#495=DIRECTION('',(0.0,-6.12303176911189E-017,-1.0));
#496=CARTESIAN_POINT('',(0.0,5.5107285922007E-016,9.0));
#497=DIRECTION('',(0.0,-6.12303176911189E-017,-1.0));
#498=DIRECTION('',(1.0,0.0,0.0));
#499=CARTESIAN_POINT('',(0.0,-6.12303176911189E-016,-10.0));
#500=DIRECTION('',(0.0,-6.12303176911189E-017,-1.0));
#501=DIRECTION('',(1.0,0.0,0.0));
#502=DIRECTION('',(0.707106781186548,4.32963728535968E-017,-0.707106781186548));
#503=CARTESIAN_POINT('',(0.0,-6.12303176911189E-016,-10.0));
#504=DIRECTION('',(0.0,-6.12303176911189E-017,-1.0));
#505=DIRECTION('',(1.0,0.0,0.0));
#506=SURFACE_STYLE_FILL_AREA(#538);
#507=ORIENTED_EDGE('',*,*,#131,.F.);
#508=ORIENTED_EDGE('',*,*,#99,.T.);
#509=ORIENTED_EDGE('',*,*,#107,.F.);
#510=ORIENTED_EDGE('',*,*,#145,.F.);
#511=CARTESIAN_POINT('',(0.0,5.81688018065629E-016,9.5));
#512=DIRECTION('',(0.0,-6.12303176911189E-017,-1.0));
#513=DIRECTION('',(1.0,0.0,0.0));
#514=CARTESIAN_POINT('',(0.0,0.0,0.0));
#515=DIRECTION('',(0.0,-6.12303176911189E-017,-1.0));
#516=DIRECTION('',(1.0,0.0,0.0));
#517=CARTESIAN_POINT('',(0.0,5.5107285922007E-016,9.0));
#518=DIRECTION('',(0.0,-6.12303176911189E-017,-1.0));
#519=DIRECTION('',(1.0,0.0,0.0));
#520=DIRECTION('',(-0.0,6.12303176911189E-017,1.0));
#521=SURFACE_STYLE_FILL_AREA(#539);
#522=ORIENTED_EDGE('',*,*,#113,.F.);
#523=ORIENTED_EDGE('',*,*,#73,.F.);
#524=ORIENTED_EDGE('',*,*,#137,.T.);
#525=ORIENTED_EDGE('',*,*,#77,.T.);
#526=CARTESIAN_POINT('',(4.5,0.0,0.0));
#527=DIRECTION('',(0.0,-6.12303176911189E-017,-1.0));
#528=DIRECTION('',(1.0,0.0,0.0));
#529=FILL_AREA_STYLE('',(#540));
#530=FILL_AREA_STYLE('',(#541));
#531=FILL_AREA_STYLE('',(#542));
#532=FILL_AREA_STYLE('',(#543));
#533=FILL_AREA_STYLE('',(#544));
#534=FILL_AREA_STYLE('',(#545));
#535=FILL_AREA_STYLE('',(#546));
#536=FILL_AREA_STYLE('',(#547));
#537=FILL_AREA_STYLE('',(#548));
#538=FILL_AREA_STYLE('',(#549));
#539=FILL_AREA_STYLE('',(#550));
#540=FILL_AREA_STYLE_COLOUR('',#551);
#541=FILL_AREA_STYLE_COLOUR('',#552);
#542=FILL_AREA_STYLE_COLOUR('',#553);
#543=FILL_AREA_STYLE_COLOUR('',#554);
#544=FILL_AREA_STYLE_COLOUR('',#555);
#545=FILL_AREA_STYLE_COLOUR('',#556);
#546=FILL_AREA_STYLE_COLOUR('',#557);
#547=FILL_AREA_STYLE_COLOUR('',#558);
#548=FILL_AREA_STYLE_COLOUR('',#559);
#549=FILL_AREA_STYLE_COLOUR('',#560);
#550=FILL_AREA_STYLE_COLOUR('',#561);
#551=COLOUR_RGB('',0.509803950786591,0.509803950786591,0.588235318660736);
#552=COLOUR_RGB('',0.509803950786591,0.509803950786591,0.588235318660736);
#553=COLOUR_RGB('',0.509803950786591,0.509803950786591,0.588235318660736);
#554=COLOUR_RGB('',0.509803950786591,0.509803950786591,0.588235318660736);
#555=COLOUR_RGB('',0.509803950786591,0.509803950786591,0.588235318660736);
#556=COLOUR_RGB('',0.509803950786591,0.509803950786591,0.588235318660736);
#557=COLOUR_RGB('',0.509803950786591,0.509803950786591,0.588235318660736);
#558=COLOUR_RGB('',0.509803950786591,0.509803950786591,0.588235318660736);
#559=COLOUR_RGB('',0.509803950786591,0.509803950786591,0.588235318660736);
#560=COLOUR_RGB('',0.509803950786591,0.509803950786591,0.588235318660736);
#561=COLOUR_RGB('',0.509803950786591,0.509803950786591,0.588235318660736);
ENDSEC;
END-ISO-10303-21;
