ISO-10303-21;
HEADER;
FILE_DESCRIPTION(('STEP AP214'),'1');
FILE_NAME(' ','  ',('TraceParts'),('TraceParts S.A.'),'XStep 1.0',' ',' ');
FILE_SCHEMA(('automotive_design'));
ENDSEC;
DATA;
#1=MECHANICAL_DESIGN_GEOMETRIC_PRESENTATION_REPRESENTATION(' ',(#10,#11,#12,#13,#14,#15,#16,#17,#18,#19,#20,#21,#22,#23,#24,#25,#26,#27,#28,#29,#30,#31,#32,#33,#34,#35,#36,#37,#38,#39,#40,#41,#42,#43,#44,#45,#46,#47,#48,#49,#50,#51,#52),#6);
#2=PRODUCT_DEFINITION_CONTEXT('',#53,'design');
#3=APPLICATION_PROTOCOL_DEFINITION('INTERNATIONAL STANDARD','automotive_design',1994,#53);
#4=PRODUCT_CATEGORY_RELATIONSHIP('NONE','NONE',#54,#55);
#5=SHAPE_DEFINITION_REPRESENTATION(#56,#57);
#6= (GEOMETRIC_REPRESENTATION_CONTEXT(3)GLOBAL_UNCERTAINTY_ASSIGNED_CONTEXT((#60))GLOBAL_UNIT_ASSIGNED_CONTEXT((#62,#63,#64))REPRESENTATION_CONTEXT('NONE','WORKSPACE'));
#10=STYLED_ITEM('',(#66),#67);
#11=STYLED_ITEM('',(#68),#69);
#12=STYLED_ITEM('',(#70),#71);
#13=STYLED_ITEM('',(#72),#73);
#14=STYLED_ITEM('',(#74),#75);
#15=STYLED_ITEM('',(#76),#77);
#16=STYLED_ITEM('',(#78),#79);
#17=STYLED_ITEM('',(#80),#81);
#18=STYLED_ITEM('',(#82),#83);
#19=STYLED_ITEM('',(#84),#85);
#20=STYLED_ITEM('',(#86),#87);
#21=STYLED_ITEM('',(#88),#89);
#22=STYLED_ITEM('',(#90),#91);
#23=STYLED_ITEM('',(#92),#93);
#24=STYLED_ITEM('',(#94),#95);
#25=STYLED_ITEM('',(#96),#97);
#26=STYLED_ITEM('',(#98),#99);
#27=STYLED_ITEM('',(#100),#101);
#28=STYLED_ITEM('',(#102),#103);
#29=STYLED_ITEM('',(#104),#105);
#30=STYLED_ITEM('',(#106),#107);
#31=STYLED_ITEM('',(#108),#109);
#32=STYLED_ITEM('',(#110),#111);
#33=STYLED_ITEM('',(#112),#113);
#34=STYLED_ITEM('',(#114),#115);
#35=STYLED_ITEM('',(#116),#117);
#36=STYLED_ITEM('',(#118),#119);
#37=STYLED_ITEM('',(#120),#121);
#38=STYLED_ITEM('',(#122),#123);
#39=STYLED_ITEM('',(#124),#125);
#40=STYLED_ITEM('',(#126),#127);
#41=STYLED_ITEM('',(#128),#129);
#42=STYLED_ITEM('',(#130),#131);
#43=STYLED_ITEM('',(#132),#133);
#44=STYLED_ITEM('',(#134),#135);
#45=STYLED_ITEM('',(#136),#137);
#46=STYLED_ITEM('',(#138),#139);
#47=STYLED_ITEM('',(#140),#141);
#48=STYLED_ITEM('',(#142),#143);
#49=STYLED_ITEM('',(#144),#145);
#50=STYLED_ITEM('',(#146),#147);
#51=STYLED_ITEM('',(#148),#149);
#52=STYLED_ITEM('',(#150),#151);
#53=APPLICATION_CONTEXT(' ');
#54=PRODUCT_CATEGORY('part','NONE');
#55=PRODUCT_RELATED_PRODUCT_CATEGORY('detail',' ',(#152));
#56=PRODUCT_DEFINITION_SHAPE('NONE','NONE',#153);
#57=ADVANCED_BREP_SHAPE_REPRESENTATION('1',(#154,#155),#6);
#60=UNCERTAINTY_MEASURE_WITH_UNIT(LENGTH_MEASURE(1.0E-006),#62,'','');
#62= (CONVERSION_BASED_UNIT('MILLIMETRE',#158)LENGTH_UNIT()NAMED_UNIT(#161));
#63= (NAMED_UNIT(#163)PLANE_ANGLE_UNIT()SI_UNIT($,.RADIAN.));
#64= (NAMED_UNIT(#163)SOLID_ANGLE_UNIT()SI_UNIT($,.STERADIAN.));
#66=PRESENTATION_STYLE_ASSIGNMENT((#169));
#67=EDGE_CURVE('',#73,#139,#170,.T.);
#68=PRESENTATION_STYLE_ASSIGNMENT((#171));
#69=VERTEX_POINT('',#172);
#70=PRESENTATION_STYLE_ASSIGNMENT((#173));
#71=ADVANCED_FACE('',(#174),#175,.T.);
#72=PRESENTATION_STYLE_ASSIGNMENT((#176));
#73=VERTEX_POINT('',#177);
#74=PRESENTATION_STYLE_ASSIGNMENT((#178));
#75=EDGE_CURVE('',#99,#103,#179,.T.);
#76=PRESENTATION_STYLE_ASSIGNMENT((#180));
#77=EDGE_CURVE('',#145,#129,#181,.T.);
#78=PRESENTATION_STYLE_ASSIGNMENT((#182));
#79=EDGE_CURVE('',#105,#99,#183,.T.);
#80=PRESENTATION_STYLE_ASSIGNMENT((#184));
#81=ADVANCED_FACE('',(#185),#186,.T.);
#82=PRESENTATION_STYLE_ASSIGNMENT((#187));
#83=EDGE_CURVE('',#69,#149,#188,.T.);
#84=PRESENTATION_STYLE_ASSIGNMENT((#189));
#85=VERTEX_POINT('',#190);
#86=PRESENTATION_STYLE_ASSIGNMENT((#191));
#87=ADVANCED_FACE('',(#192),#193,.T.);
#88=PRESENTATION_STYLE_ASSIGNMENT((#194));
#89=ADVANCED_FACE('',(#195),#196,.T.);
#90=PRESENTATION_STYLE_ASSIGNMENT((#197));
#91=ADVANCED_FACE('',(#198),#199,.T.);
#92=PRESENTATION_STYLE_ASSIGNMENT((#200));
#93=EDGE_CURVE('',#129,#145,#201,.T.);
#94=PRESENTATION_STYLE_ASSIGNMENT((#202));
#95=EDGE_CURVE('',#99,#105,#203,.T.);
#96=PRESENTATION_STYLE_ASSIGNMENT((#204));
#97=ADVANCED_FACE('',(#205,#206),#207,.T.);
#98=PRESENTATION_STYLE_ASSIGNMENT((#208));
#99=VERTEX_POINT('',#209);
#100=PRESENTATION_STYLE_ASSIGNMENT((#210));
#101=EDGE_CURVE('',#123,#131,#211,.T.);
#102=PRESENTATION_STYLE_ASSIGNMENT((#212));
#103=VERTEX_POINT('',#213);
#104=PRESENTATION_STYLE_ASSIGNMENT((#214));
#105=VERTEX_POINT('',#215);
#106=PRESENTATION_STYLE_ASSIGNMENT((#216));
#107=EDGE_CURVE('',#129,#123,#217,.T.);
#108=PRESENTATION_STYLE_ASSIGNMENT((#218));
#109=ADVANCED_FACE('',(#219),#220,.T.);
#110=PRESENTATION_STYLE_ASSIGNMENT((#221));
#111=EDGE_CURVE('',#145,#149,#222,.T.);
#112=PRESENTATION_STYLE_ASSIGNMENT((#223));
#113=EDGE_CURVE('',#131,#123,#224,.T.);
#114=PRESENTATION_STYLE_ASSIGNMENT((#225));
#115=ADVANCED_FACE('',(#226),#227,.T.);
#116=PRESENTATION_STYLE_ASSIGNMENT((#228));
#117=ADVANCED_FACE('',(#229),#230,.T.);
#118=PRESENTATION_STYLE_ASSIGNMENT((#231));
#119=EDGE_CURVE('',#103,#73,#232,.T.);
#120=PRESENTATION_STYLE_ASSIGNMENT((#233));
#121=EDGE_CURVE('',#131,#145,#234,.T.);
#122=PRESENTATION_STYLE_ASSIGNMENT((#235));
#123=VERTEX_POINT('',#236);
#124=PRESENTATION_STYLE_ASSIGNMENT((#237));
#125=EDGE_CURVE('',#139,#73,#238,.T.);
#126=PRESENTATION_STYLE_ASSIGNMENT((#239));
#127=ADVANCED_FACE('',(#240),#241,.T.);
#128=PRESENTATION_STYLE_ASSIGNMENT((#242));
#129=VERTEX_POINT('',#243);
#130=PRESENTATION_STYLE_ASSIGNMENT((#244));
#131=VERTEX_POINT('',#245);
#132=PRESENTATION_STYLE_ASSIGNMENT((#246));
#133=EDGE_CURVE('',#103,#85,#247,.T.);
#134=PRESENTATION_STYLE_ASSIGNMENT((#248));
#135=EDGE_CURVE('',#139,#85,#249,.T.);
#136=PRESENTATION_STYLE_ASSIGNMENT((#250));
#137=ADVANCED_FACE('',(#251),#252,.T.);
#138=PRESENTATION_STYLE_ASSIGNMENT((#253));
#139=VERTEX_POINT('',#254);
#140=PRESENTATION_STYLE_ASSIGNMENT((#255));
#141=EDGE_CURVE('',#85,#105,#256,.T.);
#142=PRESENTATION_STYLE_ASSIGNMENT((#257));
#143=EDGE_CURVE('',#149,#69,#258,.T.);
#144=PRESENTATION_STYLE_ASSIGNMENT((#259));
#145=VERTEX_POINT('',#260);
#146=PRESENTATION_STYLE_ASSIGNMENT((#261));
#147=EDGE_CURVE('',#69,#129,#262,.T.);
#148=PRESENTATION_STYLE_ASSIGNMENT((#263));
#149=VERTEX_POINT('',#264);
#150=PRESENTATION_STYLE_ASSIGNMENT((#265));
#151=EDGE_CURVE('',#85,#103,#266,.T.);
#152=PRODUCT('1','1','PART-1-DESC',(#267));
#153=PRODUCT_DEFINITION('NONE','NONE',#268,#2);
#154=MANIFOLD_SOLID_BREP('1',#269);
#155=AXIS2_PLACEMENT_3D('',#270,#271,#272);
#158=LENGTH_MEASURE_WITH_UNIT(LENGTH_MEASURE(1.0),#273);
#161=DIMENSIONAL_EXPONENTS(1.0,0.0,0.0,0.0,0.0,0.0,0.0);
#163=DIMENSIONAL_EXPONENTS(0.0,0.0,0.0,0.0,0.0,0.0,0.0);
#169=CURVE_STYLE('',#274,POSITIVE_LENGTH_MEASURE(1.0E-006),#275);
#170=CIRCLE('',#276,7.2);
#171=POINT_STYLE(' ',#277,POSITIVE_LENGTH_MEASURE(1.0E-006),#278);
#172=CARTESIAN_POINT('',(-15.0,-1.83690953073357E-015,1.1247455413666E-031));
#173=SURFACE_STYLE_USAGE(.BOTH.,#279);
#174=FACE_OUTER_BOUND('',#280,.T.);
#175=CYLINDRICAL_SURFACE('',#281,8.0);
#176=POINT_STYLE(' ',#282,POSITIVE_LENGTH_MEASURE(1.0E-006),#283);
#177=CARTESIAN_POINT('',(7.2,-1.22460635382238E-015,-20.0));
#178=CURVE_STYLE('',#284,POSITIVE_LENGTH_MEASURE(1.0E-006),#285);
#179=LINE('',#286,#287);
#180=CURVE_STYLE('',#288,POSITIVE_LENGTH_MEASURE(1.0E-006),#289);
#181=CIRCLE('',#290,15.0);
#182=CURVE_STYLE('',#291,POSITIVE_LENGTH_MEASURE(1.0E-006),#292);
#183=CIRCLE('',#293,8.0);
#184=SURFACE_STYLE_USAGE(.BOTH.,#294);
#185=FACE_OUTER_BOUND('',#295,.T.);
#186=PLANE('',#296);
#187=CURVE_STYLE('',#297,POSITIVE_LENGTH_MEASURE(1.0E-006),#298);
#188=CIRCLE('',#299,15.0);
#189=POINT_STYLE(' ',#300,POSITIVE_LENGTH_MEASURE(1.0E-006),#301);
#190=CARTESIAN_POINT('',(-8.0,-1.9593701661158E-015,-16.0));
#191=SURFACE_STYLE_USAGE(.BOTH.,#302);
#192=FACE_OUTER_BOUND('',#303,.T.);
#193=CYLINDRICAL_SURFACE('',#304,15.0);
#194=SURFACE_STYLE_USAGE(.BOTH.,#305);
#195=FACE_OUTER_BOUND('',#306,.T.);
#196=CONICAL_SURFACE('',#307,7.6,0.197395559849881);
#197=SURFACE_STYLE_USAGE(.BOTH.,#308);
#198=FACE_OUTER_BOUND('',#309,.T.);
#199=PLANE('',#310);
#200=CURVE_STYLE('',#311,POSITIVE_LENGTH_MEASURE(1.0E-006),#312);
#201=CIRCLE('',#313,15.0);
#202=CURVE_STYLE('',#314,POSITIVE_LENGTH_MEASURE(1.0E-006),#315);
#203=CIRCLE('',#316,8.0);
#204=SURFACE_STYLE_USAGE(.BOTH.,#317);
#205=FACE_BOUND('',#318,.T.);
#206=FACE_OUTER_BOUND('',#319,.T.);
#207=PLANE('',#320);
#208=POINT_STYLE(' ',#321,POSITIVE_LENGTH_MEASURE(1.0E-006),#322);
#209=CARTESIAN_POINT('',(8.0,0.0,0.0));
#210=CURVE_STYLE('',#323,POSITIVE_LENGTH_MEASURE(1.0E-006),#324);
#211=CIRCLE('',#325,11.0);
#212=POINT_STYLE(' ',#326,POSITIVE_LENGTH_MEASURE(1.0E-006),#327);
#213=CARTESIAN_POINT('',(8.0,-9.79685083057902E-016,-16.0));
#214=POINT_STYLE(' ',#328,POSITIVE_LENGTH_MEASURE(1.0E-006),#329);
#215=CARTESIAN_POINT('',(-8.0,-9.79685083057902E-016,5.99864288728855E-032));
#216=CURVE_STYLE('',#330,POSITIVE_LENGTH_MEASURE(1.0E-006),#331);
#217=LINE('',#332,#333);
#218=SURFACE_STYLE_USAGE(.BOTH.,#334);
#219=FACE_OUTER_BOUND('',#335,.T.);
#220=CYLINDRICAL_SURFACE('',#336,15.0);
#221=CURVE_STYLE('',#337,POSITIVE_LENGTH_MEASURE(1.0E-006),#338);
#222=LINE('',#339,#340);
#223=CURVE_STYLE('',#341,POSITIVE_LENGTH_MEASURE(1.0E-006),#342);
#224=CIRCLE('',#343,11.0);
#225=SURFACE_STYLE_USAGE(.BOTH.,#344);
#226=FACE_OUTER_BOUND('',#345,.T.);
#227=CONICAL_SURFACE('',#346,13.0,0.785398163397448);
#228=SURFACE_STYLE_USAGE(.BOTH.,#347);
#229=FACE_OUTER_BOUND('',#348,.T.);
#230=CYLINDRICAL_SURFACE('',#349,8.0);
#231=CURVE_STYLE('',#350,POSITIVE_LENGTH_MEASURE(1.0E-006),#351);
#232=LINE('',#352,#353);
#233=CURVE_STYLE('',#354,POSITIVE_LENGTH_MEASURE(1.0E-006),#355);
#234=LINE('',#356,#357);
#235=POINT_STYLE(' ',#358,POSITIVE_LENGTH_MEASURE(1.0E-006),#359);
#236=CARTESIAN_POINT('',(-11.0,1.10214571844014E-015,40.0));
#237=CURVE_STYLE('',#360,POSITIVE_LENGTH_MEASURE(1.0E-006),#361);
#238=CIRCLE('',#362,7.2);
#239=SURFACE_STYLE_USAGE(.BOTH.,#363);
#240=FACE_OUTER_BOUND('',#364,.T.);
#241=CONICAL_SURFACE('',#365,13.0,0.785398163397448);
#242=POINT_STYLE(' ',#366,POSITIVE_LENGTH_MEASURE(1.0E-006),#367);
#243=CARTESIAN_POINT('',(-15.0,3.67381906146713E-016,36.0));
#244=POINT_STYLE(' ',#368,POSITIVE_LENGTH_MEASURE(1.0E-006),#369);
#245=CARTESIAN_POINT('',(11.0,2.44921270764475E-015,40.0));
#246=CURVE_STYLE('',#370,POSITIVE_LENGTH_MEASURE(1.0E-006),#371);
#247=CIRCLE('',#372,8.0);
#248=CURVE_STYLE('',#373,POSITIVE_LENGTH_MEASURE(1.0E-006),#374);
#249=LINE('',#375,#376);
#250=SURFACE_STYLE_USAGE(.BOTH.,#377);
#251=FACE_OUTER_BOUND('',#378,.T.);
#252=CONICAL_SURFACE('',#379,7.6,0.197395559849881);
#253=POINT_STYLE(' ',#380,POSITIVE_LENGTH_MEASURE(1.0E-006),#381);
#254=CARTESIAN_POINT('',(-7.2,-2.10632292857449E-015,-20.0));
#255=CURVE_STYLE('',#382,POSITIVE_LENGTH_MEASURE(1.0E-006),#383);
#256=LINE('',#384,#385);
#257=CURVE_STYLE('',#386,POSITIVE_LENGTH_MEASURE(1.0E-006),#387);
#258=CIRCLE('',#388,15.0);
#259=POINT_STYLE(' ',#389,POSITIVE_LENGTH_MEASURE(1.0E-006),#390);
#260=CARTESIAN_POINT('',(15.0,2.20429143688028E-015,36.0));
#261=CURVE_STYLE('',#391,POSITIVE_LENGTH_MEASURE(1.0E-006),#392);
#262=LINE('',#393,#394);
#263=POINT_STYLE(' ',#395,POSITIVE_LENGTH_MEASURE(1.0E-006),#396);
#264=CARTESIAN_POINT('',(15.0,0.0,0.0));
#265=CURVE_STYLE('',#397,POSITIVE_LENGTH_MEASURE(1.0E-006),#398);
#266=CIRCLE('',#399,8.0);
#267=PRODUCT_CONTEXT('',#53,'mechanical');
#268=PRODUCT_DEFINITION_FORMATION_WITH_SPECIFIED_SOURCE(' ','NONE',#152,.NOT_KNOWN.);
#269=CLOSED_SHELL('',(#137,#117,#87,#115,#81,#127,#109,#97,#71,#89,#91));
#270=CARTESIAN_POINT('',(0.0,0.0,0.0));
#271=DIRECTION('',(0.0,0.0,1.0));
#272=DIRECTION('',(1.0,0.0,0.0));
#273= (NAMED_UNIT(#161)LENGTH_UNIT()SI_UNIT(.MILLI.,.METRE.));
#274=DRAUGHTING_PRE_DEFINED_CURVE_FONT('continuous');
#275=COLOUR_RGB('',0.509803950786591,0.509803950786591,0.588235318660736);
#276=AXIS2_PLACEMENT_3D('',#401,#402,#403);
#277=PRE_DEFINED_MARKER('');
#278=COLOUR_RGB('',0.509803950786591,0.509803950786591,0.588235318660736);
#279=SURFACE_SIDE_STYLE('',(#404));
#280=EDGE_LOOP('',(#405,#406,#407,#408));
#281=AXIS2_PLACEMENT_3D('',#409,#410,#411);
#282=PRE_DEFINED_MARKER('');
#283=COLOUR_RGB('',0.509803950786591,0.509803950786591,0.588235318660736);
#284=DRAUGHTING_PRE_DEFINED_CURVE_FONT('continuous');
#285=COLOUR_RGB('',0.509803950786591,0.509803950786591,0.588235318660736);
#286=CARTESIAN_POINT('',(8.0,4.89842541528951E-016,-8.0));
#287=VECTOR('',#412,1.0);
#288=DRAUGHTING_PRE_DEFINED_CURVE_FONT('continuous');
#289=COLOUR_RGB('',0.509803950786591,0.509803950786591,0.588235318660736);
#290=AXIS2_PLACEMENT_3D('',#413,#414,#415);
#291=DRAUGHTING_PRE_DEFINED_CURVE_FONT('continuous');
#292=COLOUR_RGB('',0.509803950786591,0.509803950786591,0.588235318660736);
#293=AXIS2_PLACEMENT_3D('',#416,#417,#418);
#294=SURFACE_SIDE_STYLE('',(#419));
#295=EDGE_LOOP('',(#420,#421));
#296=AXIS2_PLACEMENT_3D('',#422,#423,#424);
#297=DRAUGHTING_PRE_DEFINED_CURVE_FONT('continuous');
#298=COLOUR_RGB('',0.509803950786591,0.509803950786591,0.588235318660736);
#299=AXIS2_PLACEMENT_3D('',#425,#426,#427);
#300=PRE_DEFINED_MARKER('');
#301=COLOUR_RGB('',0.509803950786591,0.509803950786591,0.588235318660736);
#302=SURFACE_SIDE_STYLE('',(#428));
#303=EDGE_LOOP('',(#429,#430,#431,#432));
#304=AXIS2_PLACEMENT_3D('',#433,#434,#435);
#305=SURFACE_SIDE_STYLE('',(#436));
#306=EDGE_LOOP('',(#437,#438,#439,#440));
#307=AXIS2_PLACEMENT_3D('',#441,#442,#443);
#308=SURFACE_SIDE_STYLE('',(#444));
#309=EDGE_LOOP('',(#445,#446));
#310=AXIS2_PLACEMENT_3D('',#447,#448,#449);
#311=DRAUGHTING_PRE_DEFINED_CURVE_FONT('continuous');
#312=COLOUR_RGB('',0.509803950786591,0.509803950786591,0.588235318660736);
#313=AXIS2_PLACEMENT_3D('',#450,#451,#452);
#314=DRAUGHTING_PRE_DEFINED_CURVE_FONT('continuous');
#315=COLOUR_RGB('',0.509803950786591,0.509803950786591,0.588235318660736);
#316=AXIS2_PLACEMENT_3D('',#453,#454,#455);
#317=SURFACE_SIDE_STYLE('',(#456));
#318=EDGE_LOOP('',(#457,#458));
#319=EDGE_LOOP('',(#459,#460));
#320=AXIS2_PLACEMENT_3D('',#461,#462,#463);
#321=PRE_DEFINED_MARKER('');
#322=COLOUR_RGB('',0.509803950786591,0.509803950786591,0.588235318660736);
#323=DRAUGHTING_PRE_DEFINED_CURVE_FONT('continuous');
#324=COLOUR_RGB('',0.509803950786591,0.509803950786591,0.588235318660736);
#325=AXIS2_PLACEMENT_3D('',#464,#465,#466);
#326=PRE_DEFINED_MARKER('');
#327=COLOUR_RGB('',0.509803950786591,0.509803950786591,0.588235318660736);
#328=PRE_DEFINED_MARKER('');
#329=COLOUR_RGB('',0.509803950786591,0.509803950786591,0.588235318660736);
#330=DRAUGHTING_PRE_DEFINED_CURVE_FONT('continuous');
#331=COLOUR_RGB('',0.509803950786591,0.509803950786591,0.588235318660736);
#332=CARTESIAN_POINT('',(-13.0,7.34763812293426E-016,38.0));
#333=VECTOR('',#467,1.0);
#334=SURFACE_SIDE_STYLE('',(#468));
#335=EDGE_LOOP('',(#469,#470,#471,#472));
#336=AXIS2_PLACEMENT_3D('',#473,#474,#475);
#337=DRAUGHTING_PRE_DEFINED_CURVE_FONT('continuous');
#338=COLOUR_RGB('',0.509803950786591,0.509803950786591,0.588235318660736);
#339=CARTESIAN_POINT('',(15.0,2.93905524917371E-015,18.0));
#340=VECTOR('',#476,1.0);
#341=DRAUGHTING_PRE_DEFINED_CURVE_FONT('continuous');
#342=COLOUR_RGB('',0.509803950786591,0.509803950786591,0.588235318660736);
#343=AXIS2_PLACEMENT_3D('',#477,#478,#479);
#344=SURFACE_SIDE_STYLE('',(#480));
#345=EDGE_LOOP('',(#481,#482,#483,#484));
#346=AXIS2_PLACEMENT_3D('',#485,#486,#487);
#347=SURFACE_SIDE_STYLE('',(#488));
#348=EDGE_LOOP('',(#489,#490,#491,#492));
#349=AXIS2_PLACEMENT_3D('',#493,#494,#495);
#350=DRAUGHTING_PRE_DEFINED_CURVE_FONT('continuous');
#351=COLOUR_RGB('',0.509803950786591,0.509803950786591,0.588235318660736);
#352=CARTESIAN_POINT('',(7.6,-1.71444889535134E-016,-18.0));
#353=VECTOR('',#496,1.0);
#354=DRAUGHTING_PRE_DEFINED_CURVE_FONT('continuous');
#355=COLOUR_RGB('',0.509803950786591,0.509803950786591,0.588235318660736);
#356=CARTESIAN_POINT('',(13.0,3.91874033223161E-015,38.0));
#357=VECTOR('',#497,1.0);
#358=PRE_DEFINED_MARKER('');
#359=COLOUR_RGB('',0.509803950786591,0.509803950786591,0.588235318660736);
#360=DRAUGHTING_PRE_DEFINED_CURVE_FONT('continuous');
#361=COLOUR_RGB('',0.509803950786591,0.509803950786591,0.588235318660736);
#362=AXIS2_PLACEMENT_3D('',#498,#499,#500);
#363=SURFACE_SIDE_STYLE('',(#501));
#364=EDGE_LOOP('',(#502,#503,#504,#505));
#365=AXIS2_PLACEMENT_3D('',#506,#507,#508);
#366=PRE_DEFINED_MARKER('');
#367=COLOUR_RGB('',0.509803950786591,0.509803950786591,0.588235318660736);
#368=PRE_DEFINED_MARKER('');
#369=COLOUR_RGB('',0.509803950786591,0.509803950786591,0.588235318660736);
#370=DRAUGHTING_PRE_DEFINED_CURVE_FONT('continuous');
#371=COLOUR_RGB('',0.509803950786591,0.509803950786591,0.588235318660736);
#372=AXIS2_PLACEMENT_3D('',#509,#510,#511);
#373=DRAUGHTING_PRE_DEFINED_CURVE_FONT('continuous');
#374=COLOUR_RGB('',0.509803950786591,0.509803950786591,0.588235318660736);
#375=CARTESIAN_POINT('',(-7.6,-2.03284654734515E-015,-18.0));
#376=VECTOR('',#512,1.0);
#377=SURFACE_SIDE_STYLE('',(#513));
#378=EDGE_LOOP('',(#514,#515,#516,#517));
#379=AXIS2_PLACEMENT_3D('',#518,#519,#520);
#380=PRE_DEFINED_MARKER('');
#381=COLOUR_RGB('',0.509803950786591,0.509803950786591,0.588235318660736);
#382=DRAUGHTING_PRE_DEFINED_CURVE_FONT('continuous');
#383=COLOUR_RGB('',0.509803950786591,0.509803950786591,0.588235318660736);
#384=CARTESIAN_POINT('',(-8.0,-1.46952762458685E-015,-8.0));
#385=VECTOR('',#521,1.0);
#386=DRAUGHTING_PRE_DEFINED_CURVE_FONT('continuous');
#387=COLOUR_RGB('',0.509803950786591,0.509803950786591,0.588235318660736);
#388=AXIS2_PLACEMENT_3D('',#522,#523,#524);
#389=PRE_DEFINED_MARKER('');
#390=COLOUR_RGB('',0.509803950786591,0.509803950786591,0.588235318660736);
#391=DRAUGHTING_PRE_DEFINED_CURVE_FONT('continuous');
#392=COLOUR_RGB('',0.509803950786591,0.509803950786591,0.588235318660736);
#393=CARTESIAN_POINT('',(-15.0,-7.34763812293426E-016,18.0));
#394=VECTOR('',#525,1.0);
#395=PRE_DEFINED_MARKER('');
#396=COLOUR_RGB('',0.509803950786591,0.509803950786591,0.588235318660736);
#397=DRAUGHTING_PRE_DEFINED_CURVE_FONT('continuous');
#398=COLOUR_RGB('',0.509803950786591,0.509803950786591,0.588235318660736);
#399=AXIS2_PLACEMENT_3D('',#526,#527,#528);
#401=CARTESIAN_POINT('',(0.0,-1.22460635382238E-015,-20.0));
#402=DIRECTION('',(0.0,-6.12303176911189E-017,-1.0));
#403=DIRECTION('',(1.0,0.0,0.0));
#404=SURFACE_STYLE_FILL_AREA(#529);
#405=ORIENTED_EDGE('',*,*,#75,.T.);
#406=ORIENTED_EDGE('',*,*,#151,.F.);
#407=ORIENTED_EDGE('',*,*,#141,.T.);
#408=ORIENTED_EDGE('',*,*,#79,.T.);
#409=CARTESIAN_POINT('',(0.0,-4.89842541528951E-016,-8.0));
#410=DIRECTION('',(-0.0,6.12303176911189E-017,1.0));
#411=DIRECTION('',(1.0,0.0,0.0));
#412=DIRECTION('',(0.0,-6.12303176911189E-017,-1.0));
#413=CARTESIAN_POINT('',(0.0,2.20429143688028E-015,36.0));
#414=DIRECTION('',(0.0,-6.12303176911189E-017,-1.0));
#415=DIRECTION('',(1.0,0.0,0.0));
#416=CARTESIAN_POINT('',(0.0,0.0,0.0));
#417=DIRECTION('',(0.0,-6.12303176911189E-017,-1.0));
#418=DIRECTION('',(1.0,0.0,0.0));
#419=SURFACE_STYLE_FILL_AREA(#530);
#420=ORIENTED_EDGE('',*,*,#113,.F.);
#421=ORIENTED_EDGE('',*,*,#101,.F.);
#422=CARTESIAN_POINT('',(5.5,2.44921270764475E-015,40.0));
#423=DIRECTION('',(0.0,6.12303176911189E-017,1.0));
#424=DIRECTION('',(-1.0,0.0,0.0));
#425=CARTESIAN_POINT('',(0.0,0.0,0.0));
#426=DIRECTION('',(0.0,-6.12303176911189E-017,-1.0));
#427=DIRECTION('',(1.0,0.0,0.0));
#428=SURFACE_STYLE_FILL_AREA(#531);
#429=ORIENTED_EDGE('',*,*,#111,.F.);
#430=ORIENTED_EDGE('',*,*,#77,.T.);
#431=ORIENTED_EDGE('',*,*,#147,.F.);
#432=ORIENTED_EDGE('',*,*,#143,.F.);
#433=CARTESIAN_POINT('',(0.0,1.10214571844014E-015,18.0));
#434=DIRECTION('',(-0.0,6.12303176911189E-017,1.0));
#435=DIRECTION('',(1.0,0.0,0.0));
#436=SURFACE_STYLE_FILL_AREA(#532);
#437=ORIENTED_EDGE('',*,*,#119,.T.);
#438=ORIENTED_EDGE('',*,*,#125,.F.);
#439=ORIENTED_EDGE('',*,*,#135,.T.);
#440=ORIENTED_EDGE('',*,*,#151,.T.);
#441=CARTESIAN_POINT('',(0.0,-1.10214571844014E-015,-18.0));
#442=DIRECTION('',(-0.0,6.12303176911189E-017,1.0));
#443=DIRECTION('',(1.0,0.0,0.0));
#444=SURFACE_STYLE_FILL_AREA(#533);
#445=ORIENTED_EDGE('',*,*,#67,.T.);
#446=ORIENTED_EDGE('',*,*,#125,.T.);
#447=CARTESIAN_POINT('',(3.6,-1.22460635382238E-015,-20.0));
#448=DIRECTION('',(0.0,-6.12303176911189E-017,-1.0));
#449=DIRECTION('',(1.0,0.0,0.0));
#450=CARTESIAN_POINT('',(0.0,2.20429143688028E-015,36.0));
#451=DIRECTION('',(0.0,-6.12303176911189E-017,-1.0));
#452=DIRECTION('',(1.0,0.0,0.0));
#453=CARTESIAN_POINT('',(0.0,0.0,0.0));
#454=DIRECTION('',(0.0,-6.12303176911189E-017,-1.0));
#455=DIRECTION('',(1.0,0.0,0.0));
#456=SURFACE_STYLE_FILL_AREA(#534);
#457=ORIENTED_EDGE('',*,*,#95,.F.);
#458=ORIENTED_EDGE('',*,*,#79,.F.);
#459=ORIENTED_EDGE('',*,*,#143,.T.);
#460=ORIENTED_EDGE('',*,*,#83,.T.);
#461=CARTESIAN_POINT('',(11.5,0.0,0.0));
#462=DIRECTION('',(0.0,-6.12303176911189E-017,-1.0));
#463=DIRECTION('',(1.0,0.0,0.0));
#464=CARTESIAN_POINT('',(0.0,2.44921270764475E-015,40.0));
#465=DIRECTION('',(0.0,-6.12303176911189E-017,-1.0));
#466=DIRECTION('',(1.0,0.0,0.0));
#467=DIRECTION('',(0.707106781186547,1.2988911856079E-016,0.707106781186548));
#468=SURFACE_STYLE_FILL_AREA(#535);
#469=ORIENTED_EDGE('',*,*,#111,.T.);
#470=ORIENTED_EDGE('',*,*,#83,.F.);
#471=ORIENTED_EDGE('',*,*,#147,.T.);
#472=ORIENTED_EDGE('',*,*,#93,.T.);
#473=CARTESIAN_POINT('',(0.0,1.10214571844014E-015,18.0));
#474=DIRECTION('',(-0.0,6.12303176911189E-017,1.0));
#475=DIRECTION('',(1.0,0.0,0.0));
#476=DIRECTION('',(0.0,-6.12303176911189E-017,-1.0));
#477=CARTESIAN_POINT('',(0.0,2.44921270764475E-015,40.0));
#478=DIRECTION('',(0.0,-6.12303176911189E-017,-1.0));
#479=DIRECTION('',(1.0,0.0,0.0));
#480=SURFACE_STYLE_FILL_AREA(#536);
#481=ORIENTED_EDGE('',*,*,#121,.F.);
#482=ORIENTED_EDGE('',*,*,#113,.T.);
#483=ORIENTED_EDGE('',*,*,#107,.F.);
#484=ORIENTED_EDGE('',*,*,#77,.F.);
#485=CARTESIAN_POINT('',(0.0,2.32675207226252E-015,38.0));
#486=DIRECTION('',(0.0,-6.12303176911189E-017,-1.0));
#487=DIRECTION('',(1.0,0.0,0.0));
#488=SURFACE_STYLE_FILL_AREA(#537);
#489=ORIENTED_EDGE('',*,*,#75,.F.);
#490=ORIENTED_EDGE('',*,*,#95,.T.);
#491=ORIENTED_EDGE('',*,*,#141,.F.);
#492=ORIENTED_EDGE('',*,*,#133,.F.);
#493=CARTESIAN_POINT('',(0.0,-4.89842541528951E-016,-8.0));
#494=DIRECTION('',(-0.0,6.12303176911189E-017,1.0));
#495=DIRECTION('',(1.0,0.0,0.0));
#496=DIRECTION('',(-0.196116135138184,-8.40577728120578E-017,-0.98058067569092));
#497=DIRECTION('',(0.707106781186547,4.32963728535967E-017,-0.707106781186548));
#498=CARTESIAN_POINT('',(0.0,-1.22460635382238E-015,-20.0));
#499=DIRECTION('',(0.0,-6.12303176911189E-017,-1.0));
#500=DIRECTION('',(1.0,0.0,0.0));
#501=SURFACE_STYLE_FILL_AREA(#538);
#502=ORIENTED_EDGE('',*,*,#121,.T.);
#503=ORIENTED_EDGE('',*,*,#93,.F.);
#504=ORIENTED_EDGE('',*,*,#107,.T.);
#505=ORIENTED_EDGE('',*,*,#101,.T.);
#506=CARTESIAN_POINT('',(0.0,2.32675207226252E-015,38.0));
#507=DIRECTION('',(0.0,-6.12303176911189E-017,-1.0));
#508=DIRECTION('',(1.0,0.0,0.0));
#509=CARTESIAN_POINT('',(0.0,-9.79685083057902E-016,-16.0));
#510=DIRECTION('',(0.0,-6.12303176911189E-017,-1.0));
#511=DIRECTION('',(1.0,0.0,0.0));
#512=DIRECTION('',(-0.196116135138184,3.60247597765962E-017,0.98058067569092));
#513=SURFACE_STYLE_FILL_AREA(#539);
#514=ORIENTED_EDGE('',*,*,#119,.F.);
#515=ORIENTED_EDGE('',*,*,#133,.T.);
#516=ORIENTED_EDGE('',*,*,#135,.F.);
#517=ORIENTED_EDGE('',*,*,#67,.F.);
#518=CARTESIAN_POINT('',(0.0,-1.10214571844014E-015,-18.0));
#519=DIRECTION('',(-0.0,6.12303176911189E-017,1.0));
#520=DIRECTION('',(1.0,0.0,0.0));
#521=DIRECTION('',(-0.0,6.12303176911189E-017,1.0));
#522=CARTESIAN_POINT('',(0.0,0.0,0.0));
#523=DIRECTION('',(0.0,-6.12303176911189E-017,-1.0));
#524=DIRECTION('',(1.0,0.0,0.0));
#525=DIRECTION('',(-0.0,6.12303176911189E-017,1.0));
#526=CARTESIAN_POINT('',(0.0,-9.79685083057902E-016,-16.0));
#527=DIRECTION('',(0.0,-6.12303176911189E-017,-1.0));
#528=DIRECTION('',(1.0,0.0,0.0));
#529=FILL_AREA_STYLE('',(#540));
#530=FILL_AREA_STYLE('',(#541));
#531=FILL_AREA_STYLE('',(#542));
#532=FILL_AREA_STYLE('',(#543));
#533=FILL_AREA_STYLE('',(#544));
#534=FILL_AREA_STYLE('',(#545));
#535=FILL_AREA_STYLE('',(#546));
#536=FILL_AREA_STYLE('',(#547));
#537=FILL_AREA_STYLE('',(#548));
#538=FILL_AREA_STYLE('',(#549));
#539=FILL_AREA_STYLE('',(#550));
#540=FILL_AREA_STYLE_COLOUR('',#551);
#541=FILL_AREA_STYLE_COLOUR('',#552);
#542=FILL_AREA_STYLE_COLOUR('',#553);
#543=FILL_AREA_STYLE_COLOUR('',#554);
#544=FILL_AREA_STYLE_COLOUR('',#555);
#545=FILL_AREA_STYLE_COLOUR('',#556);
#546=FILL_AREA_STYLE_COLOUR('',#557);
#547=FILL_AREA_STYLE_COLOUR('',#558);
#548=FILL_AREA_STYLE_COLOUR('',#559);
#549=FILL_AREA_STYLE_COLOUR('',#560);
#550=FILL_AREA_STYLE_COLOUR('',#561);
#551=COLOUR_RGB('',0.509803950786591,0.509803950786591,0.588235318660736);
#552=COLOUR_RGB('',0.509803950786591,0.509803950786591,0.588235318660736);
#553=COLOUR_RGB('',0.509803950786591,0.509803950786591,0.588235318660736);
#554=COLOUR_RGB('',0.509803950786591,0.509803950786591,0.588235318660736);
#555=COLOUR_RGB('',0.509803950786591,0.509803950786591,0.588235318660736);
#556=COLOUR_RGB('',0.509803950786591,0.509803950786591,0.588235318660736);
#557=COLOUR_RGB('',0.509803950786591,0.509803950786591,0.588235318660736);
#558=COLOUR_RGB('',0.509803950786591,0.509803950786591,0.588235318660736);
#559=COLOUR_RGB('',0.509803950786591,0.509803950786591,0.588235318660736);
#560=COLOUR_RGB('',0.509803950786591,0.509803950786591,0.588235318660736);
#561=COLOUR_RGB('',0.509803950786591,0.509803950786591,0.588235318660736);
ENDSEC;
END-ISO-10303-21;
