ISO-10303-21;
HEADER;
FILE_DESCRIPTION(('STEP AP214'),'1');
FILE_NAME(' ','  ',('TraceParts'),('TraceParts S.A.'),'XStep 1.0',' ',' ');
FILE_SCHEMA(('automotive_design'));
ENDSEC;
DATA;
#1=MECHANICAL_DESIGN_GEOMETRIC_PRESENTATION_REPRESENTATION(' ',(#10,#11,#12,#13,#14,#15,#16,#17,#18,#19,#20,#21,#22,#23,#24,#25,#26,#27,#28,#29,#30,#31,#32,#33,#34,#35,#36,#37,#38,#39,#40,#41,#42,#43,#44,#45,#46,#47,#48,#49,#50,#51,#52),#6);
#2=PRODUCT_DEFINITION_CONTEXT('',#53,'design');
#3=APPLICATION_PROTOCOL_DEFINITION('INTERNATIONAL STANDARD','automotive_design',1994,#53);
#4=PRODUCT_CATEGORY_RELATIONSHIP('NONE','NONE',#54,#55);
#5=SHAPE_DEFINITION_REPRESENTATION(#56,#57);
#6= (GEOMETRIC_REPRESENTATION_CONTEXT(3)GLOBAL_UNCERTAINTY_ASSIGNED_CONTEXT((#60))GLOBAL_UNIT_ASSIGNED_CONTEXT((#62,#63,#64))REPRESENTATION_CONTEXT('NONE','WORKSPACE'));
#10=STYLED_ITEM('',(#66),#67);
#11=STYLED_ITEM('',(#68),#69);
#12=STYLED_ITEM('',(#70),#71);
#13=STYLED_ITEM('',(#72),#73);
#14=STYLED_ITEM('',(#74),#75);
#15=STYLED_ITEM('',(#76),#77);
#16=STYLED_ITEM('',(#78),#79);
#17=STYLED_ITEM('',(#80),#81);
#18=STYLED_ITEM('',(#82),#83);
#19=STYLED_ITEM('',(#84),#85);
#20=STYLED_ITEM('',(#86),#87);
#21=STYLED_ITEM('',(#88),#89);
#22=STYLED_ITEM('',(#90),#91);
#23=STYLED_ITEM('',(#92),#93);
#24=STYLED_ITEM('',(#94),#95);
#25=STYLED_ITEM('',(#96),#97);
#26=STYLED_ITEM('',(#98),#99);
#27=STYLED_ITEM('',(#100),#101);
#28=STYLED_ITEM('',(#102),#103);
#29=STYLED_ITEM('',(#104),#105);
#30=STYLED_ITEM('',(#106),#107);
#31=STYLED_ITEM('',(#108),#109);
#32=STYLED_ITEM('',(#110),#111);
#33=STYLED_ITEM('',(#112),#113);
#34=STYLED_ITEM('',(#114),#115);
#35=STYLED_ITEM('',(#116),#117);
#36=STYLED_ITEM('',(#118),#119);
#37=STYLED_ITEM('',(#120),#121);
#38=STYLED_ITEM('',(#122),#123);
#39=STYLED_ITEM('',(#124),#125);
#40=STYLED_ITEM('',(#126),#127);
#41=STYLED_ITEM('',(#128),#129);
#42=STYLED_ITEM('',(#130),#131);
#43=STYLED_ITEM('',(#132),#133);
#44=STYLED_ITEM('',(#134),#135);
#45=STYLED_ITEM('',(#136),#137);
#46=STYLED_ITEM('',(#138),#139);
#47=STYLED_ITEM('',(#140),#141);
#48=STYLED_ITEM('',(#142),#143);
#49=STYLED_ITEM('',(#144),#145);
#50=STYLED_ITEM('',(#146),#147);
#51=STYLED_ITEM('',(#148),#149);
#52=STYLED_ITEM('',(#150),#151);
#53=APPLICATION_CONTEXT(' ');
#54=PRODUCT_CATEGORY('part','NONE');
#55=PRODUCT_RELATED_PRODUCT_CATEGORY('detail',' ',(#152));
#56=PRODUCT_DEFINITION_SHAPE('NONE','NONE',#153);
#57=ADVANCED_BREP_SHAPE_REPRESENTATION('1',(#154,#155),#6);
#60=UNCERTAINTY_MEASURE_WITH_UNIT(LENGTH_MEASURE(1.0E-006),#62,'','');
#62= (CONVERSION_BASED_UNIT('MILLIMETRE',#158)LENGTH_UNIT()NAMED_UNIT(#161));
#63= (NAMED_UNIT(#163)PLANE_ANGLE_UNIT()SI_UNIT($,.RADIAN.));
#64= (NAMED_UNIT(#163)SOLID_ANGLE_UNIT()SI_UNIT($,.STERADIAN.));
#66=PRESENTATION_STYLE_ASSIGNMENT((#169));
#67=ADVANCED_FACE('',(#170),#171,.T.);
#68=PRESENTATION_STYLE_ASSIGNMENT((#172));
#69=ADVANCED_FACE('',(#173),#174,.T.);
#70=PRESENTATION_STYLE_ASSIGNMENT((#175));
#71=VERTEX_POINT('',#176);
#72=PRESENTATION_STYLE_ASSIGNMENT((#177));
#73=EDGE_CURVE('',#85,#71,#178,.T.);
#74=PRESENTATION_STYLE_ASSIGNMENT((#179));
#75=ADVANCED_FACE('',(#180),#181,.T.);
#76=PRESENTATION_STYLE_ASSIGNMENT((#182));
#77=EDGE_CURVE('',#85,#151,#183,.T.);
#78=PRESENTATION_STYLE_ASSIGNMENT((#184));
#79=EDGE_CURVE('',#71,#135,#185,.T.);
#80=PRESENTATION_STYLE_ASSIGNMENT((#186));
#81=EDGE_CURVE('',#113,#103,#187,.T.);
#82=PRESENTATION_STYLE_ASSIGNMENT((#188));
#83=EDGE_CURVE('',#135,#71,#189,.T.);
#84=PRESENTATION_STYLE_ASSIGNMENT((#190));
#85=VERTEX_POINT('',#191);
#86=PRESENTATION_STYLE_ASSIGNMENT((#192));
#87=EDGE_CURVE('',#99,#121,#193,.T.);
#88=PRESENTATION_STYLE_ASSIGNMENT((#194));
#89=ADVANCED_FACE('',(#195),#196,.T.);
#90=PRESENTATION_STYLE_ASSIGNMENT((#197));
#91=EDGE_CURVE('',#117,#137,#198,.T.);
#92=PRESENTATION_STYLE_ASSIGNMENT((#199));
#93=EDGE_CURVE('',#103,#113,#200,.T.);
#94=PRESENTATION_STYLE_ASSIGNMENT((#201));
#95=ADVANCED_FACE('',(#202),#203,.T.);
#96=PRESENTATION_STYLE_ASSIGNMENT((#204));
#97=EDGE_CURVE('',#119,#131,#205,.T.);
#98=PRESENTATION_STYLE_ASSIGNMENT((#206));
#99=VERTEX_POINT('',#207);
#100=PRESENTATION_STYLE_ASSIGNMENT((#208));
#101=ADVANCED_FACE('',(#209,#210),#211,.T.);
#102=PRESENTATION_STYLE_ASSIGNMENT((#212));
#103=VERTEX_POINT('',#213);
#104=PRESENTATION_STYLE_ASSIGNMENT((#214));
#105=EDGE_CURVE('',#137,#121,#215,.T.);
#106=PRESENTATION_STYLE_ASSIGNMENT((#216));
#107=EDGE_CURVE('',#137,#117,#217,.T.);
#108=PRESENTATION_STYLE_ASSIGNMENT((#218));
#109=EDGE_CURVE('',#117,#119,#219,.T.);
#110=PRESENTATION_STYLE_ASSIGNMENT((#220));
#111=ADVANCED_FACE('',(#221),#222,.T.);
#112=PRESENTATION_STYLE_ASSIGNMENT((#223));
#113=VERTEX_POINT('',#224);
#114=PRESENTATION_STYLE_ASSIGNMENT((#225));
#115=EDGE_CURVE('',#131,#119,#226,.T.);
#116=PRESENTATION_STYLE_ASSIGNMENT((#227));
#117=VERTEX_POINT('',#228);
#118=PRESENTATION_STYLE_ASSIGNMENT((#229));
#119=VERTEX_POINT('',#230);
#120=PRESENTATION_STYLE_ASSIGNMENT((#231));
#121=VERTEX_POINT('',#232);
#122=PRESENTATION_STYLE_ASSIGNMENT((#233));
#123=EDGE_CURVE('',#135,#151,#234,.T.);
#124=PRESENTATION_STYLE_ASSIGNMENT((#235));
#125=EDGE_CURVE('',#151,#113,#236,.T.);
#126=PRESENTATION_STYLE_ASSIGNMENT((#237));
#127=ADVANCED_FACE('',(#238),#239,.T.);
#128=PRESENTATION_STYLE_ASSIGNMENT((#240));
#129=EDGE_CURVE('',#131,#137,#241,.T.);
#130=PRESENTATION_STYLE_ASSIGNMENT((#242));
#131=VERTEX_POINT('',#243);
#132=PRESENTATION_STYLE_ASSIGNMENT((#244));
#133=ADVANCED_FACE('',(#245),#246,.T.);
#134=PRESENTATION_STYLE_ASSIGNMENT((#247));
#135=VERTEX_POINT('',#248);
#136=PRESENTATION_STYLE_ASSIGNMENT((#249));
#137=VERTEX_POINT('',#250);
#138=PRESENTATION_STYLE_ASSIGNMENT((#251));
#139=ADVANCED_FACE('',(#252),#253,.T.);
#140=PRESENTATION_STYLE_ASSIGNMENT((#254));
#141=EDGE_CURVE('',#103,#85,#255,.T.);
#142=PRESENTATION_STYLE_ASSIGNMENT((#256));
#143=EDGE_CURVE('',#121,#99,#257,.T.);
#144=PRESENTATION_STYLE_ASSIGNMENT((#258));
#145=EDGE_CURVE('',#99,#117,#259,.T.);
#146=PRESENTATION_STYLE_ASSIGNMENT((#260));
#147=EDGE_CURVE('',#151,#85,#261,.T.);
#148=PRESENTATION_STYLE_ASSIGNMENT((#262));
#149=ADVANCED_FACE('',(#263),#264,.T.);
#150=PRESENTATION_STYLE_ASSIGNMENT((#265));
#151=VERTEX_POINT('',#266);
#152=PRODUCT('1','1','PART-1-DESC',(#267));
#153=PRODUCT_DEFINITION('NONE','NONE',#268,#2);
#154=MANIFOLD_SOLID_BREP('1',#269);
#155=AXIS2_PLACEMENT_3D('',#270,#271,#272);
#158=LENGTH_MEASURE_WITH_UNIT(LENGTH_MEASURE(1.0),#273);
#161=DIMENSIONAL_EXPONENTS(1.0,0.0,0.0,0.0,0.0,0.0,0.0);
#163=DIMENSIONAL_EXPONENTS(0.0,0.0,0.0,0.0,0.0,0.0,0.0);
#169=SURFACE_STYLE_USAGE(.BOTH.,#274);
#170=FACE_OUTER_BOUND('',#275,.T.);
#171=CYLINDRICAL_SURFACE('',#276,15.0);
#172=SURFACE_STYLE_USAGE(.BOTH.,#277);
#173=FACE_OUTER_BOUND('',#278,.T.);
#174=CYLINDRICAL_SURFACE('',#279,8.0);
#175=POINT_STYLE(' ',#280,POSITIVE_LENGTH_MEASURE(1.0E-006),#281);
#176=CARTESIAN_POINT('',(7.2,-1.22460635382238E-015,-20.0));
#177=CURVE_STYLE('',#282,POSITIVE_LENGTH_MEASURE(1.0E-006),#283);
#178=LINE('',#284,#285);
#179=SURFACE_STYLE_USAGE(.BOTH.,#286);
#180=FACE_OUTER_BOUND('',#287,.T.);
#181=CYLINDRICAL_SURFACE('',#288,15.0);
#182=CURVE_STYLE('',#289,POSITIVE_LENGTH_MEASURE(1.0E-006),#290);
#183=CIRCLE('',#291,8.0);
#184=CURVE_STYLE('',#292,POSITIVE_LENGTH_MEASURE(1.0E-006),#293);
#185=CIRCLE('',#294,7.2);
#186=CURVE_STYLE('',#295,POSITIVE_LENGTH_MEASURE(1.0E-006),#296);
#187=CIRCLE('',#297,8.0);
#188=CURVE_STYLE('',#298,POSITIVE_LENGTH_MEASURE(1.0E-006),#299);
#189=CIRCLE('',#300,7.2);
#190=POINT_STYLE(' ',#301,POSITIVE_LENGTH_MEASURE(1.0E-006),#302);
#191=CARTESIAN_POINT('',(8.0,-9.79685083057902E-016,-16.0));
#192=CURVE_STYLE('',#303,POSITIVE_LENGTH_MEASURE(1.0E-006),#304);
#193=CIRCLE('',#305,15.0);
#194=SURFACE_STYLE_USAGE(.BOTH.,#306);
#195=FACE_OUTER_BOUND('',#307,.T.);
#196=PLANE('',#308);
#197=CURVE_STYLE('',#309,POSITIVE_LENGTH_MEASURE(1.0E-006),#310);
#198=CIRCLE('',#311,15.0);
#199=CURVE_STYLE('',#312,POSITIVE_LENGTH_MEASURE(1.0E-006),#313);
#200=CIRCLE('',#314,8.0);
#201=SURFACE_STYLE_USAGE(.BOTH.,#315);
#202=FACE_OUTER_BOUND('',#316,.T.);
#203=CONICAL_SURFACE('',#317,12.5,0.785398163397448);
#204=CURVE_STYLE('',#318,POSITIVE_LENGTH_MEASURE(1.0E-006),#319);
#205=CIRCLE('',#320,10.0);
#206=POINT_STYLE(' ',#321,POSITIVE_LENGTH_MEASURE(1.0E-006),#322);
#207=CARTESIAN_POINT('',(-15.0,-1.83690953073357E-015,1.1247455413666E-031));
#208=SURFACE_STYLE_USAGE(.BOTH.,#323);
#209=FACE_BOUND('',#324,.T.);
#210=FACE_OUTER_BOUND('',#325,.T.);
#211=PLANE('',#326);
#212=POINT_STYLE(' ',#327,POSITIVE_LENGTH_MEASURE(1.0E-006),#328);
#213=CARTESIAN_POINT('',(8.0,0.0,0.0));
#214=CURVE_STYLE('',#329,POSITIVE_LENGTH_MEASURE(1.0E-006),#330);
#215=LINE('',#331,#332);
#216=CURVE_STYLE('',#333,POSITIVE_LENGTH_MEASURE(1.0E-006),#334);
#217=CIRCLE('',#335,15.0);
#218=CURVE_STYLE('',#336,POSITIVE_LENGTH_MEASURE(1.0E-006),#337);
#219=LINE('',#338,#339);
#220=SURFACE_STYLE_USAGE(.BOTH.,#340);
#221=FACE_OUTER_BOUND('',#341,.T.);
#222=CONICAL_SURFACE('',#342,12.5,0.785398163397448);
#223=POINT_STYLE(' ',#343,POSITIVE_LENGTH_MEASURE(1.0E-006),#344);
#224=CARTESIAN_POINT('',(-8.0,-9.79685083057902E-016,5.99864288728855E-032));
#225=CURVE_STYLE('',#345,POSITIVE_LENGTH_MEASURE(1.0E-006),#346);
#226=CIRCLE('',#347,10.0);
#227=POINT_STYLE(' ',#348,POSITIVE_LENGTH_MEASURE(1.0E-006),#349);
#228=CARTESIAN_POINT('',(-15.0,9.18454765366783E-016,45.0));
#229=POINT_STYLE(' ',#350,POSITIVE_LENGTH_MEASURE(1.0E-006),#351);
#230=CARTESIAN_POINT('',(-10.0,1.83690953073357E-015,50.0));
#231=POINT_STYLE(' ',#352,POSITIVE_LENGTH_MEASURE(1.0E-006),#353);
#232=CARTESIAN_POINT('',(15.0,0.0,0.0));
#233=CURVE_STYLE('',#354,POSITIVE_LENGTH_MEASURE(1.0E-006),#355);
#234=LINE('',#356,#357);
#235=CURVE_STYLE('',#358,POSITIVE_LENGTH_MEASURE(1.0E-006),#359);
#236=LINE('',#360,#361);
#237=SURFACE_STYLE_USAGE(.BOTH.,#362);
#238=FACE_OUTER_BOUND('',#363,.T.);
#239=CYLINDRICAL_SURFACE('',#364,8.0);
#240=CURVE_STYLE('',#365,POSITIVE_LENGTH_MEASURE(1.0E-006),#366);
#241=LINE('',#367,#368);
#242=POINT_STYLE(' ',#369,POSITIVE_LENGTH_MEASURE(1.0E-006),#370);
#243=CARTESIAN_POINT('',(10.0,3.06151588455594E-015,50.0));
#244=SURFACE_STYLE_USAGE(.BOTH.,#371);
#245=FACE_OUTER_BOUND('',#372,.T.);
#246=CONICAL_SURFACE('',#373,7.6,0.197395559849881);
#247=POINT_STYLE(' ',#374,POSITIVE_LENGTH_MEASURE(1.0E-006),#375);
#248=CARTESIAN_POINT('',(-7.2,-2.10632292857449E-015,-20.0));
#249=POINT_STYLE(' ',#376,POSITIVE_LENGTH_MEASURE(1.0E-006),#377);
#250=CARTESIAN_POINT('',(15.0,2.75536429610035E-015,45.0));
#251=SURFACE_STYLE_USAGE(.BOTH.,#378);
#252=FACE_OUTER_BOUND('',#379,.T.);
#253=PLANE('',#380);
#254=CURVE_STYLE('',#381,POSITIVE_LENGTH_MEASURE(1.0E-006),#382);
#255=LINE('',#383,#384);
#256=CURVE_STYLE('',#385,POSITIVE_LENGTH_MEASURE(1.0E-006),#386);
#257=CIRCLE('',#387,15.0);
#258=CURVE_STYLE('',#388,POSITIVE_LENGTH_MEASURE(1.0E-006),#389);
#259=LINE('',#390,#391);
#260=CURVE_STYLE('',#392,POSITIVE_LENGTH_MEASURE(1.0E-006),#393);
#261=CIRCLE('',#394,8.0);
#262=SURFACE_STYLE_USAGE(.BOTH.,#395);
#263=FACE_OUTER_BOUND('',#396,.T.);
#264=CONICAL_SURFACE('',#397,7.6,0.197395559849881);
#265=POINT_STYLE(' ',#398,POSITIVE_LENGTH_MEASURE(1.0E-006),#399);
#266=CARTESIAN_POINT('',(-8.0,-1.9593701661158E-015,-16.0));
#267=PRODUCT_CONTEXT('',#53,'mechanical');
#268=PRODUCT_DEFINITION_FORMATION_WITH_SPECIFIED_SOURCE(' ','NONE',#152,.NOT_KNOWN.);
#269=CLOSED_SHELL('',(#133,#127,#67,#111,#89,#95,#75,#101,#69,#149,#139));
#270=CARTESIAN_POINT('',(0.0,0.0,0.0));
#271=DIRECTION('',(0.0,0.0,1.0));
#272=DIRECTION('',(1.0,0.0,0.0));
#273= (NAMED_UNIT(#161)LENGTH_UNIT()SI_UNIT(.MILLI.,.METRE.));
#274=SURFACE_SIDE_STYLE('',(#401));
#275=EDGE_LOOP('',(#402,#403,#404,#405));
#276=AXIS2_PLACEMENT_3D('',#406,#407,#408);
#277=SURFACE_SIDE_STYLE('',(#409));
#278=EDGE_LOOP('',(#410,#411,#412,#413));
#279=AXIS2_PLACEMENT_3D('',#414,#415,#416);
#280=PRE_DEFINED_MARKER('');
#281=COLOUR_RGB('',0.509803950786591,0.509803950786591,0.588235318660736);
#282=DRAUGHTING_PRE_DEFINED_CURVE_FONT('continuous');
#283=COLOUR_RGB('',0.509803950786591,0.509803950786591,0.588235318660736);
#284=CARTESIAN_POINT('',(7.6,-1.71444889535134E-016,-18.0));
#285=VECTOR('',#417,1.0);
#286=SURFACE_SIDE_STYLE('',(#418));
#287=EDGE_LOOP('',(#419,#420,#421,#422));
#288=AXIS2_PLACEMENT_3D('',#423,#424,#425);
#289=DRAUGHTING_PRE_DEFINED_CURVE_FONT('continuous');
#290=COLOUR_RGB('',0.509803950786591,0.509803950786591,0.588235318660736);
#291=AXIS2_PLACEMENT_3D('',#426,#427,#428);
#292=DRAUGHTING_PRE_DEFINED_CURVE_FONT('continuous');
#293=COLOUR_RGB('',0.509803950786591,0.509803950786591,0.588235318660736);
#294=AXIS2_PLACEMENT_3D('',#429,#430,#431);
#295=DRAUGHTING_PRE_DEFINED_CURVE_FONT('continuous');
#296=COLOUR_RGB('',0.509803950786591,0.509803950786591,0.588235318660736);
#297=AXIS2_PLACEMENT_3D('',#432,#433,#434);
#298=DRAUGHTING_PRE_DEFINED_CURVE_FONT('continuous');
#299=COLOUR_RGB('',0.509803950786591,0.509803950786591,0.588235318660736);
#300=AXIS2_PLACEMENT_3D('',#435,#436,#437);
#301=PRE_DEFINED_MARKER('');
#302=COLOUR_RGB('',0.509803950786591,0.509803950786591,0.588235318660736);
#303=DRAUGHTING_PRE_DEFINED_CURVE_FONT('continuous');
#304=COLOUR_RGB('',0.509803950786591,0.509803950786591,0.588235318660736);
#305=AXIS2_PLACEMENT_3D('',#438,#439,#440);
#306=SURFACE_SIDE_STYLE('',(#441));
#307=EDGE_LOOP('',(#442,#443));
#308=AXIS2_PLACEMENT_3D('',#444,#445,#446);
#309=DRAUGHTING_PRE_DEFINED_CURVE_FONT('continuous');
#310=COLOUR_RGB('',0.509803950786591,0.509803950786591,0.588235318660736);
#311=AXIS2_PLACEMENT_3D('',#447,#448,#449);
#312=DRAUGHTING_PRE_DEFINED_CURVE_FONT('continuous');
#313=COLOUR_RGB('',0.509803950786591,0.509803950786591,0.588235318660736);
#314=AXIS2_PLACEMENT_3D('',#450,#451,#452);
#315=SURFACE_SIDE_STYLE('',(#453));
#316=EDGE_LOOP('',(#454,#455,#456,#457));
#317=AXIS2_PLACEMENT_3D('',#458,#459,#460);
#318=DRAUGHTING_PRE_DEFINED_CURVE_FONT('continuous');
#319=COLOUR_RGB('',0.509803950786591,0.509803950786591,0.588235318660736);
#320=AXIS2_PLACEMENT_3D('',#461,#462,#463);
#321=PRE_DEFINED_MARKER('');
#322=COLOUR_RGB('',0.509803950786591,0.509803950786591,0.588235318660736);
#323=SURFACE_SIDE_STYLE('',(#464));
#324=EDGE_LOOP('',(#465,#466));
#325=EDGE_LOOP('',(#467,#468));
#326=AXIS2_PLACEMENT_3D('',#469,#470,#471);
#327=PRE_DEFINED_MARKER('');
#328=COLOUR_RGB('',0.509803950786591,0.509803950786591,0.588235318660736);
#329=DRAUGHTING_PRE_DEFINED_CURVE_FONT('continuous');
#330=COLOUR_RGB('',0.509803950786591,0.509803950786591,0.588235318660736);
#331=CARTESIAN_POINT('',(15.0,3.21459167878374E-015,22.5));
#332=VECTOR('',#472,1.0);
#333=DRAUGHTING_PRE_DEFINED_CURVE_FONT('continuous');
#334=COLOUR_RGB('',0.509803950786591,0.509803950786591,0.588235318660736);
#335=AXIS2_PLACEMENT_3D('',#473,#474,#475);
#336=DRAUGHTING_PRE_DEFINED_CURVE_FONT('continuous');
#337=COLOUR_RGB('',0.509803950786591,0.509803950786591,0.588235318660736);
#338=CARTESIAN_POINT('',(-12.5,1.37768214805017E-015,47.5));
#339=VECTOR('',#476,1.0);
#340=SURFACE_SIDE_STYLE('',(#477));
#341=EDGE_LOOP('',(#478,#479,#480,#481));
#342=AXIS2_PLACEMENT_3D('',#482,#483,#484);
#343=PRE_DEFINED_MARKER('');
#344=COLOUR_RGB('',0.509803950786591,0.509803950786591,0.588235318660736);
#345=DRAUGHTING_PRE_DEFINED_CURVE_FONT('continuous');
#346=COLOUR_RGB('',0.509803950786591,0.509803950786591,0.588235318660736);
#347=AXIS2_PLACEMENT_3D('',#485,#486,#487);
#348=PRE_DEFINED_MARKER('');
#349=COLOUR_RGB('',0.509803950786591,0.509803950786591,0.588235318660736);
#350=PRE_DEFINED_MARKER('');
#351=COLOUR_RGB('',0.509803950786591,0.509803950786591,0.588235318660736);
#352=PRE_DEFINED_MARKER('');
#353=COLOUR_RGB('',0.509803950786591,0.509803950786591,0.588235318660736);
#354=DRAUGHTING_PRE_DEFINED_CURVE_FONT('continuous');
#355=COLOUR_RGB('',0.509803950786591,0.509803950786591,0.588235318660736);
#356=CARTESIAN_POINT('',(-7.6,-2.03284654734515E-015,-18.0));
#357=VECTOR('',#488,1.0);
#358=DRAUGHTING_PRE_DEFINED_CURVE_FONT('continuous');
#359=COLOUR_RGB('',0.509803950786591,0.509803950786591,0.588235318660736);
#360=CARTESIAN_POINT('',(-8.0,-1.46952762458685E-015,-8.0));
#361=VECTOR('',#489,1.0);
#362=SURFACE_SIDE_STYLE('',(#490));
#363=EDGE_LOOP('',(#491,#492,#493,#494));
#364=AXIS2_PLACEMENT_3D('',#495,#496,#497);
#365=DRAUGHTING_PRE_DEFINED_CURVE_FONT('continuous');
#366=COLOUR_RGB('',0.509803950786591,0.509803950786591,0.588235318660736);
#367=CARTESIAN_POINT('',(12.5,4.43919803260612E-015,47.5));
#368=VECTOR('',#498,1.0);
#369=PRE_DEFINED_MARKER('');
#370=COLOUR_RGB('',0.509803950786591,0.509803950786591,0.588235318660736);
#371=SURFACE_SIDE_STYLE('',(#499));
#372=EDGE_LOOP('',(#500,#501,#502,#503));
#373=AXIS2_PLACEMENT_3D('',#504,#505,#506);
#374=PRE_DEFINED_MARKER('');
#375=COLOUR_RGB('',0.509803950786591,0.509803950786591,0.588235318660736);
#376=PRE_DEFINED_MARKER('');
#377=COLOUR_RGB('',0.509803950786591,0.509803950786591,0.588235318660736);
#378=SURFACE_SIDE_STYLE('',(#507));
#379=EDGE_LOOP('',(#508,#509));
#380=AXIS2_PLACEMENT_3D('',#510,#511,#512);
#381=DRAUGHTING_PRE_DEFINED_CURVE_FONT('continuous');
#382=COLOUR_RGB('',0.509803950786591,0.509803950786591,0.588235318660736);
#383=CARTESIAN_POINT('',(8.0,4.89842541528951E-016,-8.0));
#384=VECTOR('',#513,1.0);
#385=DRAUGHTING_PRE_DEFINED_CURVE_FONT('continuous');
#386=COLOUR_RGB('',0.509803950786591,0.509803950786591,0.588235318660736);
#387=AXIS2_PLACEMENT_3D('',#514,#515,#516);
#388=DRAUGHTING_PRE_DEFINED_CURVE_FONT('continuous');
#389=COLOUR_RGB('',0.509803950786591,0.509803950786591,0.588235318660736);
#390=CARTESIAN_POINT('',(-15.0,-4.59227382683391E-016,22.5));
#391=VECTOR('',#517,1.0);
#392=DRAUGHTING_PRE_DEFINED_CURVE_FONT('continuous');
#393=COLOUR_RGB('',0.509803950786591,0.509803950786591,0.588235318660736);
#394=AXIS2_PLACEMENT_3D('',#518,#519,#520);
#395=SURFACE_SIDE_STYLE('',(#521));
#396=EDGE_LOOP('',(#522,#523,#524,#525));
#397=AXIS2_PLACEMENT_3D('',#526,#527,#528);
#398=PRE_DEFINED_MARKER('');
#399=COLOUR_RGB('',0.509803950786591,0.509803950786591,0.588235318660736);
#401=SURFACE_STYLE_FILL_AREA(#529);
#402=ORIENTED_EDGE('',*,*,#105,.F.);
#403=ORIENTED_EDGE('',*,*,#107,.T.);
#404=ORIENTED_EDGE('',*,*,#145,.F.);
#405=ORIENTED_EDGE('',*,*,#143,.F.);
#406=CARTESIAN_POINT('',(0.0,1.37768214805017E-015,22.5));
#407=DIRECTION('',(-0.0,6.12303176911189E-017,1.0));
#408=DIRECTION('',(1.0,0.0,0.0));
#409=SURFACE_STYLE_FILL_AREA(#530);
#410=ORIENTED_EDGE('',*,*,#141,.T.);
#411=ORIENTED_EDGE('',*,*,#147,.F.);
#412=ORIENTED_EDGE('',*,*,#125,.T.);
#413=ORIENTED_EDGE('',*,*,#81,.T.);
#414=CARTESIAN_POINT('',(0.0,-4.89842541528951E-016,-8.0));
#415=DIRECTION('',(-0.0,6.12303176911189E-017,1.0));
#416=DIRECTION('',(1.0,0.0,0.0));
#417=DIRECTION('',(-0.196116135138184,-8.40577728120578E-017,-0.98058067569092));
#418=SURFACE_STYLE_FILL_AREA(#531);
#419=ORIENTED_EDGE('',*,*,#105,.T.);
#420=ORIENTED_EDGE('',*,*,#87,.F.);
#421=ORIENTED_EDGE('',*,*,#145,.T.);
#422=ORIENTED_EDGE('',*,*,#91,.T.);
#423=CARTESIAN_POINT('',(0.0,1.37768214805017E-015,22.5));
#424=DIRECTION('',(-0.0,6.12303176911189E-017,1.0));
#425=DIRECTION('',(1.0,0.0,0.0));
#426=CARTESIAN_POINT('',(0.0,-9.79685083057902E-016,-16.0));
#427=DIRECTION('',(0.0,-6.12303176911189E-017,-1.0));
#428=DIRECTION('',(1.0,0.0,0.0));
#429=CARTESIAN_POINT('',(0.0,-1.22460635382238E-015,-20.0));
#430=DIRECTION('',(0.0,-6.12303176911189E-017,-1.0));
#431=DIRECTION('',(1.0,0.0,0.0));
#432=CARTESIAN_POINT('',(0.0,0.0,0.0));
#433=DIRECTION('',(0.0,-6.12303176911189E-017,-1.0));
#434=DIRECTION('',(1.0,0.0,0.0));
#435=CARTESIAN_POINT('',(0.0,-1.22460635382238E-015,-20.0));
#436=DIRECTION('',(0.0,-6.12303176911189E-017,-1.0));
#437=DIRECTION('',(1.0,0.0,0.0));
#438=CARTESIAN_POINT('',(0.0,0.0,0.0));
#439=DIRECTION('',(0.0,-6.12303176911189E-017,-1.0));
#440=DIRECTION('',(1.0,0.0,0.0));
#441=SURFACE_STYLE_FILL_AREA(#532);
#442=ORIENTED_EDGE('',*,*,#115,.F.);
#443=ORIENTED_EDGE('',*,*,#97,.F.);
#444=CARTESIAN_POINT('',(5.0,3.06151588455594E-015,50.0));
#445=DIRECTION('',(0.0,6.12303176911189E-017,1.0));
#446=DIRECTION('',(-1.0,0.0,0.0));
#447=CARTESIAN_POINT('',(0.0,2.75536429610035E-015,45.0));
#448=DIRECTION('',(0.0,-6.12303176911189E-017,-1.0));
#449=DIRECTION('',(1.0,0.0,0.0));
#450=CARTESIAN_POINT('',(0.0,0.0,0.0));
#451=DIRECTION('',(0.0,-6.12303176911189E-017,-1.0));
#452=DIRECTION('',(1.0,0.0,0.0));
#453=SURFACE_STYLE_FILL_AREA(#533);
#454=ORIENTED_EDGE('',*,*,#129,.T.);
#455=ORIENTED_EDGE('',*,*,#91,.F.);
#456=ORIENTED_EDGE('',*,*,#109,.T.);
#457=ORIENTED_EDGE('',*,*,#97,.T.);
#458=CARTESIAN_POINT('',(0.0,2.90844009032815E-015,47.5));
#459=DIRECTION('',(0.0,-6.12303176911189E-017,-1.0));
#460=DIRECTION('',(1.0,0.0,0.0));
#461=CARTESIAN_POINT('',(0.0,3.06151588455594E-015,50.0));
#462=DIRECTION('',(0.0,-6.12303176911189E-017,-1.0));
#463=DIRECTION('',(1.0,0.0,0.0));
#464=SURFACE_STYLE_FILL_AREA(#534);
#465=ORIENTED_EDGE('',*,*,#93,.F.);
#466=ORIENTED_EDGE('',*,*,#81,.F.);
#467=ORIENTED_EDGE('',*,*,#143,.T.);
#468=ORIENTED_EDGE('',*,*,#87,.T.);
#469=CARTESIAN_POINT('',(11.5,0.0,0.0));
#470=DIRECTION('',(0.0,-6.12303176911189E-017,-1.0));
#471=DIRECTION('',(1.0,0.0,0.0));
#472=DIRECTION('',(0.0,-6.12303176911189E-017,-1.0));
#473=CARTESIAN_POINT('',(0.0,2.75536429610035E-015,45.0));
#474=DIRECTION('',(0.0,-6.12303176911189E-017,-1.0));
#475=DIRECTION('',(1.0,0.0,0.0));
#476=DIRECTION('',(0.707106781186547,1.2988911856079E-016,0.707106781186548));
#477=SURFACE_STYLE_FILL_AREA(#535);
#478=ORIENTED_EDGE('',*,*,#129,.F.);
#479=ORIENTED_EDGE('',*,*,#115,.T.);
#480=ORIENTED_EDGE('',*,*,#109,.F.);
#481=ORIENTED_EDGE('',*,*,#107,.F.);
#482=CARTESIAN_POINT('',(0.0,2.90844009032815E-015,47.5));
#483=DIRECTION('',(0.0,-6.12303176911189E-017,-1.0));
#484=DIRECTION('',(1.0,0.0,0.0));
#485=CARTESIAN_POINT('',(0.0,3.06151588455594E-015,50.0));
#486=DIRECTION('',(0.0,-6.12303176911189E-017,-1.0));
#487=DIRECTION('',(1.0,0.0,0.0));
#488=DIRECTION('',(-0.196116135138184,3.60247597765962E-017,0.98058067569092));
#489=DIRECTION('',(-0.0,6.12303176911189E-017,1.0));
#490=SURFACE_STYLE_FILL_AREA(#536);
#491=ORIENTED_EDGE('',*,*,#141,.F.);
#492=ORIENTED_EDGE('',*,*,#93,.T.);
#493=ORIENTED_EDGE('',*,*,#125,.F.);
#494=ORIENTED_EDGE('',*,*,#77,.F.);
#495=CARTESIAN_POINT('',(0.0,-4.89842541528951E-016,-8.0));
#496=DIRECTION('',(-0.0,6.12303176911189E-017,1.0));
#497=DIRECTION('',(1.0,0.0,0.0));
#498=DIRECTION('',(0.707106781186547,4.32963728535967E-017,-0.707106781186548));
#499=SURFACE_STYLE_FILL_AREA(#537);
#500=ORIENTED_EDGE('',*,*,#73,.F.);
#501=ORIENTED_EDGE('',*,*,#77,.T.);
#502=ORIENTED_EDGE('',*,*,#123,.F.);
#503=ORIENTED_EDGE('',*,*,#79,.F.);
#504=CARTESIAN_POINT('',(0.0,-1.10214571844014E-015,-18.0));
#505=DIRECTION('',(-0.0,6.12303176911189E-017,1.0));
#506=DIRECTION('',(1.0,0.0,0.0));
#507=SURFACE_STYLE_FILL_AREA(#538);
#508=ORIENTED_EDGE('',*,*,#79,.T.);
#509=ORIENTED_EDGE('',*,*,#83,.T.);
#510=CARTESIAN_POINT('',(3.6,-1.22460635382238E-015,-20.0));
#511=DIRECTION('',(0.0,-6.12303176911189E-017,-1.0));
#512=DIRECTION('',(1.0,0.0,0.0));
#513=DIRECTION('',(0.0,-6.12303176911189E-017,-1.0));
#514=CARTESIAN_POINT('',(0.0,0.0,0.0));
#515=DIRECTION('',(0.0,-6.12303176911189E-017,-1.0));
#516=DIRECTION('',(1.0,0.0,0.0));
#517=DIRECTION('',(-0.0,6.12303176911189E-017,1.0));
#518=CARTESIAN_POINT('',(0.0,-9.79685083057902E-016,-16.0));
#519=DIRECTION('',(0.0,-6.12303176911189E-017,-1.0));
#520=DIRECTION('',(1.0,0.0,0.0));
#521=SURFACE_STYLE_FILL_AREA(#539);
#522=ORIENTED_EDGE('',*,*,#73,.T.);
#523=ORIENTED_EDGE('',*,*,#83,.F.);
#524=ORIENTED_EDGE('',*,*,#123,.T.);
#525=ORIENTED_EDGE('',*,*,#147,.T.);
#526=CARTESIAN_POINT('',(0.0,-1.10214571844014E-015,-18.0));
#527=DIRECTION('',(-0.0,6.12303176911189E-017,1.0));
#528=DIRECTION('',(1.0,0.0,0.0));
#529=FILL_AREA_STYLE('',(#540));
#530=FILL_AREA_STYLE('',(#541));
#531=FILL_AREA_STYLE('',(#542));
#532=FILL_AREA_STYLE('',(#543));
#533=FILL_AREA_STYLE('',(#544));
#534=FILL_AREA_STYLE('',(#545));
#535=FILL_AREA_STYLE('',(#546));
#536=FILL_AREA_STYLE('',(#547));
#537=FILL_AREA_STYLE('',(#548));
#538=FILL_AREA_STYLE('',(#549));
#539=FILL_AREA_STYLE('',(#550));
#540=FILL_AREA_STYLE_COLOUR('',#551);
#541=FILL_AREA_STYLE_COLOUR('',#552);
#542=FILL_AREA_STYLE_COLOUR('',#553);
#543=FILL_AREA_STYLE_COLOUR('',#554);
#544=FILL_AREA_STYLE_COLOUR('',#555);
#545=FILL_AREA_STYLE_COLOUR('',#556);
#546=FILL_AREA_STYLE_COLOUR('',#557);
#547=FILL_AREA_STYLE_COLOUR('',#558);
#548=FILL_AREA_STYLE_COLOUR('',#559);
#549=FILL_AREA_STYLE_COLOUR('',#560);
#550=FILL_AREA_STYLE_COLOUR('',#561);
#551=COLOUR_RGB('',0.509803950786591,0.509803950786591,0.588235318660736);
#552=COLOUR_RGB('',0.509803950786591,0.509803950786591,0.588235318660736);
#553=COLOUR_RGB('',0.509803950786591,0.509803950786591,0.588235318660736);
#554=COLOUR_RGB('',0.509803950786591,0.509803950786591,0.588235318660736);
#555=COLOUR_RGB('',0.509803950786591,0.509803950786591,0.588235318660736);
#556=COLOUR_RGB('',0.509803950786591,0.509803950786591,0.588235318660736);
#557=COLOUR_RGB('',0.509803950786591,0.509803950786591,0.588235318660736);
#558=COLOUR_RGB('',0.509803950786591,0.509803950786591,0.588235318660736);
#559=COLOUR_RGB('',0.509803950786591,0.509803950786591,0.588235318660736);
#560=COLOUR_RGB('',0.509803950786591,0.509803950786591,0.588235318660736);
#561=COLOUR_RGB('',0.509803950786591,0.509803950786591,0.588235318660736);
ENDSEC;
END-ISO-10303-21;
