ISO-10303-21;
HEADER;
FILE_DESCRIPTION(('STEP AP214'),'1');
FILE_NAME(' ','  ',('TraceParts'),('TraceParts S.A.'),'XStep 1.0',' ',' ');
FILE_SCHEMA(('automotive_design'));
ENDSEC;
DATA;
#1=MECHANICAL_DESIGN_GEOMETRIC_PRESENTATION_REPRESENTATION(' ',(#10,#11,#12,#13,#14,#15,#16,#17,#18,#19,#20,#21,#22,#23,#24,#25,#26,#27,#28,#29,#30,#31,#32,#33,#34,#35,#36,#37,#38,#39,#40,#41,#42,#43,#44,#45,#46,#47,#48,#49,#50,#51,#52),#6);
#2=PRODUCT_DEFINITION_CONTEXT('',#53,'design');
#3=APPLICATION_PROTOCOL_DEFINITION('INTERNATIONAL STANDARD','automotive_design',1994,#53);
#4=PRODUCT_CATEGORY_RELATIONSHIP('NONE','NONE',#54,#55);
#5=SHAPE_DEFINITION_REPRESENTATION(#56,#57);
#6= (GEOMETRIC_REPRESENTATION_CONTEXT(3)GLOBAL_UNCERTAINTY_ASSIGNED_CONTEXT((#60))GLOBAL_UNIT_ASSIGNED_CONTEXT((#62,#63,#64))REPRESENTATION_CONTEXT('NONE','WORKSPACE'));
#10=STYLED_ITEM('',(#66),#67);
#11=STYLED_ITEM('',(#68),#69);
#12=STYLED_ITEM('',(#70),#71);
#13=STYLED_ITEM('',(#72),#73);
#14=STYLED_ITEM('',(#74),#75);
#15=STYLED_ITEM('',(#76),#77);
#16=STYLED_ITEM('',(#78),#79);
#17=STYLED_ITEM('',(#80),#81);
#18=STYLED_ITEM('',(#82),#83);
#19=STYLED_ITEM('',(#84),#85);
#20=STYLED_ITEM('',(#86),#87);
#21=STYLED_ITEM('',(#88),#89);
#22=STYLED_ITEM('',(#90),#91);
#23=STYLED_ITEM('',(#92),#93);
#24=STYLED_ITEM('',(#94),#95);
#25=STYLED_ITEM('',(#96),#97);
#26=STYLED_ITEM('',(#98),#99);
#27=STYLED_ITEM('',(#100),#101);
#28=STYLED_ITEM('',(#102),#103);
#29=STYLED_ITEM('',(#104),#105);
#30=STYLED_ITEM('',(#106),#107);
#31=STYLED_ITEM('',(#108),#109);
#32=STYLED_ITEM('',(#110),#111);
#33=STYLED_ITEM('',(#112),#113);
#34=STYLED_ITEM('',(#114),#115);
#35=STYLED_ITEM('',(#116),#117);
#36=STYLED_ITEM('',(#118),#119);
#37=STYLED_ITEM('',(#120),#121);
#38=STYLED_ITEM('',(#122),#123);
#39=STYLED_ITEM('',(#124),#125);
#40=STYLED_ITEM('',(#126),#127);
#41=STYLED_ITEM('',(#128),#129);
#42=STYLED_ITEM('',(#130),#131);
#43=STYLED_ITEM('',(#132),#133);
#44=STYLED_ITEM('',(#134),#135);
#45=STYLED_ITEM('',(#136),#137);
#46=STYLED_ITEM('',(#138),#139);
#47=STYLED_ITEM('',(#140),#141);
#48=STYLED_ITEM('',(#142),#143);
#49=STYLED_ITEM('',(#144),#145);
#50=STYLED_ITEM('',(#146),#147);
#51=STYLED_ITEM('',(#148),#149);
#52=STYLED_ITEM('',(#150),#151);
#53=APPLICATION_CONTEXT(' ');
#54=PRODUCT_CATEGORY('part','NONE');
#55=PRODUCT_RELATED_PRODUCT_CATEGORY('detail',' ',(#152));
#56=PRODUCT_DEFINITION_SHAPE('NONE','NONE',#153);
#57=ADVANCED_BREP_SHAPE_REPRESENTATION('1',(#154,#155),#6);
#60=UNCERTAINTY_MEASURE_WITH_UNIT(LENGTH_MEASURE(1.0E-006),#62,'','');
#62= (CONVERSION_BASED_UNIT('MILLIMETRE',#158)LENGTH_UNIT()NAMED_UNIT(#161));
#63= (NAMED_UNIT(#163)PLANE_ANGLE_UNIT()SI_UNIT($,.RADIAN.));
#64= (NAMED_UNIT(#163)SOLID_ANGLE_UNIT()SI_UNIT($,.STERADIAN.));
#66=PRESENTATION_STYLE_ASSIGNMENT((#169));
#67=EDGE_CURVE('',#79,#69,#170,.T.);
#68=PRESENTATION_STYLE_ASSIGNMENT((#171));
#69=VERTEX_POINT('',#172);
#70=PRESENTATION_STYLE_ASSIGNMENT((#173));
#71=ADVANCED_FACE('',(#174,#175),#176,.T.);
#72=PRESENTATION_STYLE_ASSIGNMENT((#177));
#73=EDGE_CURVE('',#93,#119,#178,.T.);
#74=PRESENTATION_STYLE_ASSIGNMENT((#179));
#75=EDGE_CURVE('',#137,#141,#180,.T.);
#76=PRESENTATION_STYLE_ASSIGNMENT((#181));
#77=ADVANCED_FACE('',(#182),#183,.T.);
#78=PRESENTATION_STYLE_ASSIGNMENT((#184));
#79=VERTEX_POINT('',#185);
#80=PRESENTATION_STYLE_ASSIGNMENT((#186));
#81=ADVANCED_FACE('',(#187),#188,.T.);
#82=PRESENTATION_STYLE_ASSIGNMENT((#189));
#83=EDGE_CURVE('',#131,#141,#190,.T.);
#84=PRESENTATION_STYLE_ASSIGNMENT((#191));
#85=EDGE_CURVE('',#115,#139,#192,.T.);
#86=PRESENTATION_STYLE_ASSIGNMENT((#193));
#87=ADVANCED_FACE('',(#194),#195,.T.);
#88=PRESENTATION_STYLE_ASSIGNMENT((#196));
#89=ADVANCED_FACE('',(#197),#198,.T.);
#90=PRESENTATION_STYLE_ASSIGNMENT((#199));
#91=EDGE_CURVE('',#139,#119,#200,.T.);
#92=PRESENTATION_STYLE_ASSIGNMENT((#201));
#93=VERTEX_POINT('',#202);
#94=PRESENTATION_STYLE_ASSIGNMENT((#203));
#95=EDGE_CURVE('',#117,#147,#204,.T.);
#96=PRESENTATION_STYLE_ASSIGNMENT((#205));
#97=VERTEX_POINT('',#206);
#98=PRESENTATION_STYLE_ASSIGNMENT((#207));
#99=EDGE_CURVE('',#69,#79,#208,.T.);
#100=PRESENTATION_STYLE_ASSIGNMENT((#209));
#101=ADVANCED_FACE('',(#210),#211,.T.);
#102=PRESENTATION_STYLE_ASSIGNMENT((#212));
#103=EDGE_CURVE('',#115,#117,#213,.T.);
#104=PRESENTATION_STYLE_ASSIGNMENT((#214));
#105=EDGE_CURVE('',#137,#97,#215,.T.);
#106=PRESENTATION_STYLE_ASSIGNMENT((#216));
#107=EDGE_CURVE('',#147,#117,#217,.T.);
#108=PRESENTATION_STYLE_ASSIGNMENT((#218));
#109=ADVANCED_FACE('',(#219),#220,.T.);
#110=PRESENTATION_STYLE_ASSIGNMENT((#221));
#111=ADVANCED_FACE('',(#222),#223,.T.);
#112=PRESENTATION_STYLE_ASSIGNMENT((#224));
#113=EDGE_CURVE('',#131,#97,#225,.T.);
#114=PRESENTATION_STYLE_ASSIGNMENT((#226));
#115=VERTEX_POINT('',#227);
#116=PRESENTATION_STYLE_ASSIGNMENT((#228));
#117=VERTEX_POINT('',#229);
#118=PRESENTATION_STYLE_ASSIGNMENT((#230));
#119=VERTEX_POINT('',#231);
#120=PRESENTATION_STYLE_ASSIGNMENT((#232));
#121=EDGE_CURVE('',#97,#79,#233,.T.);
#122=PRESENTATION_STYLE_ASSIGNMENT((#234));
#123=EDGE_CURVE('',#141,#137,#235,.T.);
#124=PRESENTATION_STYLE_ASSIGNMENT((#236));
#125=EDGE_CURVE('',#139,#115,#237,.T.);
#126=PRESENTATION_STYLE_ASSIGNMENT((#238));
#127=EDGE_CURVE('',#147,#139,#239,.T.);
#128=PRESENTATION_STYLE_ASSIGNMENT((#240));
#129=EDGE_CURVE('',#97,#131,#241,.T.);
#130=PRESENTATION_STYLE_ASSIGNMENT((#242));
#131=VERTEX_POINT('',#243);
#132=PRESENTATION_STYLE_ASSIGNMENT((#244));
#133=EDGE_CURVE('',#69,#131,#245,.T.);
#134=PRESENTATION_STYLE_ASSIGNMENT((#246));
#135=ADVANCED_FACE('',(#247),#248,.T.);
#136=PRESENTATION_STYLE_ASSIGNMENT((#249));
#137=VERTEX_POINT('',#250);
#138=PRESENTATION_STYLE_ASSIGNMENT((#251));
#139=VERTEX_POINT('',#252);
#140=PRESENTATION_STYLE_ASSIGNMENT((#253));
#141=VERTEX_POINT('',#254);
#142=PRESENTATION_STYLE_ASSIGNMENT((#255));
#143=ADVANCED_FACE('',(#256),#257,.T.);
#144=PRESENTATION_STYLE_ASSIGNMENT((#258));
#145=EDGE_CURVE('',#119,#93,#259,.T.);
#146=PRESENTATION_STYLE_ASSIGNMENT((#260));
#147=VERTEX_POINT('',#261);
#148=PRESENTATION_STYLE_ASSIGNMENT((#262));
#149=ADVANCED_FACE('',(#263),#264,.T.);
#150=PRESENTATION_STYLE_ASSIGNMENT((#265));
#151=EDGE_CURVE('',#93,#115,#266,.T.);
#152=PRODUCT('1','1','PART-1-DESC',(#267));
#153=PRODUCT_DEFINITION('NONE','NONE',#268,#2);
#154=MANIFOLD_SOLID_BREP('1',#269);
#155=AXIS2_PLACEMENT_3D('',#270,#271,#272);
#158=LENGTH_MEASURE_WITH_UNIT(LENGTH_MEASURE(1.0),#273);
#161=DIMENSIONAL_EXPONENTS(1.0,0.0,0.0,0.0,0.0,0.0,0.0);
#163=DIMENSIONAL_EXPONENTS(0.0,0.0,0.0,0.0,0.0,0.0,0.0);
#169=CURVE_STYLE('',#274,POSITIVE_LENGTH_MEASURE(1.0E-006),#275);
#170=CIRCLE('',#276,8.0);
#171=POINT_STYLE(' ',#277,POSITIVE_LENGTH_MEASURE(1.0E-006),#278);
#172=CARTESIAN_POINT('',(8.0,0.0,0.0));
#173=SURFACE_STYLE_USAGE(.BOTH.,#279);
#174=FACE_BOUND('',#280,.T.);
#175=FACE_OUTER_BOUND('',#281,.T.);
#176=PLANE('',#282);
#177=CURVE_STYLE('',#283,POSITIVE_LENGTH_MEASURE(1.0E-006),#284);
#178=CIRCLE('',#285,15.0);
#179=CURVE_STYLE('',#286,POSITIVE_LENGTH_MEASURE(1.0E-006),#287);
#180=CIRCLE('',#288,7.2);
#181=SURFACE_STYLE_USAGE(.BOTH.,#289);
#182=FACE_OUTER_BOUND('',#290,.T.);
#183=CONICAL_SURFACE('',#291,11.75,0.785398163397448);
#184=POINT_STYLE(' ',#292,POSITIVE_LENGTH_MEASURE(1.0E-006),#293);
#185=CARTESIAN_POINT('',(-8.0,-9.79685083057902E-016,5.99864288728855E-032));
#186=SURFACE_STYLE_USAGE(.BOTH.,#294);
#187=FACE_OUTER_BOUND('',#295,.T.);
#188=CONICAL_SURFACE('',#296,11.75,0.785398163397448);
#189=CURVE_STYLE('',#297,POSITIVE_LENGTH_MEASURE(1.0E-006),#298);
#190=LINE('',#299,#300);
#191=CURVE_STYLE('',#301,POSITIVE_LENGTH_MEASURE(1.0E-006),#302);
#192=CIRCLE('',#303,15.0);
#193=SURFACE_STYLE_USAGE(.BOTH.,#304);
#194=FACE_OUTER_BOUND('',#305,.T.);
#195=CYLINDRICAL_SURFACE('',#306,15.0);
#196=SURFACE_STYLE_USAGE(.BOTH.,#307);
#197=FACE_OUTER_BOUND('',#308,.T.);
#198=CYLINDRICAL_SURFACE('',#309,8.0);
#199=CURVE_STYLE('',#310,POSITIVE_LENGTH_MEASURE(1.0E-006),#311);
#200=LINE('',#312,#313);
#201=POINT_STYLE(' ',#314,POSITIVE_LENGTH_MEASURE(1.0E-006),#315);
#202=CARTESIAN_POINT('',(-15.0,-1.83690953073357E-015,1.1247455413666E-031));
#203=CURVE_STYLE('',#316,POSITIVE_LENGTH_MEASURE(1.0E-006),#317);
#204=CIRCLE('',#318,8.5);
#205=POINT_STYLE(' ',#319,POSITIVE_LENGTH_MEASURE(1.0E-006),#320);
#206=CARTESIAN_POINT('',(-8.0,-1.9593701661158E-015,-16.0));
#207=CURVE_STYLE('',#321,POSITIVE_LENGTH_MEASURE(1.0E-006),#322);
#208=CIRCLE('',#323,8.0);
#209=SURFACE_STYLE_USAGE(.BOTH.,#324);
#210=FACE_OUTER_BOUND('',#325,.T.);
#211=PLANE('',#326);
#212=CURVE_STYLE('',#327,POSITIVE_LENGTH_MEASURE(1.0E-006),#328);
#213=LINE('',#329,#330);
#214=CURVE_STYLE('',#331,POSITIVE_LENGTH_MEASURE(1.0E-006),#332);
#215=LINE('',#333,#334);
#216=CURVE_STYLE('',#335,POSITIVE_LENGTH_MEASURE(1.0E-006),#336);
#217=CIRCLE('',#337,8.5);
#218=SURFACE_STYLE_USAGE(.BOTH.,#338);
#219=FACE_OUTER_BOUND('',#339,.T.);
#220=CYLINDRICAL_SURFACE('',#340,8.0);
#221=SURFACE_STYLE_USAGE(.BOTH.,#341);
#222=FACE_OUTER_BOUND('',#342,.T.);
#223=CYLINDRICAL_SURFACE('',#343,15.0);
#224=CURVE_STYLE('',#344,POSITIVE_LENGTH_MEASURE(1.0E-006),#345);
#225=CIRCLE('',#346,8.0);
#226=POINT_STYLE(' ',#347,POSITIVE_LENGTH_MEASURE(1.0E-006),#348);
#227=CARTESIAN_POINT('',(-15.0,1.74506405419689E-015,58.5));
#228=POINT_STYLE(' ',#349,POSITIVE_LENGTH_MEASURE(1.0E-006),#350);
#229=CARTESIAN_POINT('',(-8.5,2.93905524917371E-015,65.0));
#230=POINT_STYLE(' ',#351,POSITIVE_LENGTH_MEASURE(1.0E-006),#352);
#231=CARTESIAN_POINT('',(15.0,0.0,0.0));
#232=CURVE_STYLE('',#353,POSITIVE_LENGTH_MEASURE(1.0E-006),#354);
#233=LINE('',#355,#356);
#234=CURVE_STYLE('',#357,POSITIVE_LENGTH_MEASURE(1.0E-006),#358);
#235=CIRCLE('',#359,7.2);
#236=CURVE_STYLE('',#360,POSITIVE_LENGTH_MEASURE(1.0E-006),#361);
#237=CIRCLE('',#362,15.0);
#238=CURVE_STYLE('',#363,POSITIVE_LENGTH_MEASURE(1.0E-006),#364);
#239=LINE('',#365,#366);
#240=CURVE_STYLE('',#367,POSITIVE_LENGTH_MEASURE(1.0E-006),#368);
#241=CIRCLE('',#369,8.0);
#242=POINT_STYLE(' ',#370,POSITIVE_LENGTH_MEASURE(1.0E-006),#371);
#243=CARTESIAN_POINT('',(8.0,-9.79685083057902E-016,-16.0));
#244=CURVE_STYLE('',#372,POSITIVE_LENGTH_MEASURE(1.0E-006),#373);
#245=LINE('',#374,#375);
#246=SURFACE_STYLE_USAGE(.BOTH.,#376);
#247=FACE_OUTER_BOUND('',#377,.T.);
#248=PLANE('',#378);
#249=POINT_STYLE(' ',#379,POSITIVE_LENGTH_MEASURE(1.0E-006),#380);
#250=CARTESIAN_POINT('',(-7.2,-2.10632292857449E-015,-20.0));
#251=POINT_STYLE(' ',#381,POSITIVE_LENGTH_MEASURE(1.0E-006),#382);
#252=CARTESIAN_POINT('',(15.0,3.58197358493045E-015,58.5));
#253=POINT_STYLE(' ',#383,POSITIVE_LENGTH_MEASURE(1.0E-006),#384);
#254=CARTESIAN_POINT('',(7.2,-1.22460635382238E-015,-20.0));
#255=SURFACE_STYLE_USAGE(.BOTH.,#385);
#256=FACE_OUTER_BOUND('',#386,.T.);
#257=CONICAL_SURFACE('',#387,7.6,0.197395559849881);
#258=CURVE_STYLE('',#388,POSITIVE_LENGTH_MEASURE(1.0E-006),#389);
#259=CIRCLE('',#390,15.0);
#260=POINT_STYLE(' ',#391,POSITIVE_LENGTH_MEASURE(1.0E-006),#392);
#261=CARTESIAN_POINT('',(8.5,3.97997064992273E-015,65.0));
#262=SURFACE_STYLE_USAGE(.BOTH.,#393);
#263=FACE_OUTER_BOUND('',#394,.T.);
#264=CONICAL_SURFACE('',#395,7.6,0.197395559849881);
#265=CURVE_STYLE('',#396,POSITIVE_LENGTH_MEASURE(1.0E-006),#397);
#266=LINE('',#398,#399);
#267=PRODUCT_CONTEXT('',#53,'mechanical');
#268=PRODUCT_DEFINITION_FORMATION_WITH_SPECIFIED_SOURCE(' ','NONE',#152,.NOT_KNOWN.);
#269=CLOSED_SHELL('',(#149,#109,#111,#81,#101,#77,#87,#71,#89,#143,#135));
#270=CARTESIAN_POINT('',(0.0,0.0,0.0));
#271=DIRECTION('',(0.0,0.0,1.0));
#272=DIRECTION('',(1.0,0.0,0.0));
#273= (NAMED_UNIT(#161)LENGTH_UNIT()SI_UNIT(.MILLI.,.METRE.));
#274=DRAUGHTING_PRE_DEFINED_CURVE_FONT('continuous');
#275=COLOUR_RGB('',0.509803950786591,0.509803950786591,0.588235318660736);
#276=AXIS2_PLACEMENT_3D('',#401,#402,#403);
#277=PRE_DEFINED_MARKER('');
#278=COLOUR_RGB('',0.509803950786591,0.509803950786591,0.588235318660736);
#279=SURFACE_SIDE_STYLE('',(#404));
#280=EDGE_LOOP('',(#405,#406));
#281=EDGE_LOOP('',(#407,#408));
#282=AXIS2_PLACEMENT_3D('',#409,#410,#411);
#283=DRAUGHTING_PRE_DEFINED_CURVE_FONT('continuous');
#284=COLOUR_RGB('',0.509803950786591,0.509803950786591,0.588235318660736);
#285=AXIS2_PLACEMENT_3D('',#412,#413,#414);
#286=DRAUGHTING_PRE_DEFINED_CURVE_FONT('continuous');
#287=COLOUR_RGB('',0.509803950786591,0.509803950786591,0.588235318660736);
#288=AXIS2_PLACEMENT_3D('',#415,#416,#417);
#289=SURFACE_SIDE_STYLE('',(#418));
#290=EDGE_LOOP('',(#419,#420,#421,#422));
#291=AXIS2_PLACEMENT_3D('',#423,#424,#425);
#292=PRE_DEFINED_MARKER('');
#293=COLOUR_RGB('',0.509803950786591,0.509803950786591,0.588235318660736);
#294=SURFACE_SIDE_STYLE('',(#426));
#295=EDGE_LOOP('',(#427,#428,#429,#430));
#296=AXIS2_PLACEMENT_3D('',#431,#432,#433);
#297=DRAUGHTING_PRE_DEFINED_CURVE_FONT('continuous');
#298=COLOUR_RGB('',0.509803950786591,0.509803950786591,0.588235318660736);
#299=CARTESIAN_POINT('',(7.6,-1.71444889535134E-016,-18.0));
#300=VECTOR('',#434,1.0);
#301=DRAUGHTING_PRE_DEFINED_CURVE_FONT('continuous');
#302=COLOUR_RGB('',0.509803950786591,0.509803950786591,0.588235318660736);
#303=AXIS2_PLACEMENT_3D('',#435,#436,#437);
#304=SURFACE_SIDE_STYLE('',(#438));
#305=EDGE_LOOP('',(#439,#440,#441,#442));
#306=AXIS2_PLACEMENT_3D('',#443,#444,#445);
#307=SURFACE_SIDE_STYLE('',(#446));
#308=EDGE_LOOP('',(#447,#448,#449,#450));
#309=AXIS2_PLACEMENT_3D('',#451,#452,#453);
#310=DRAUGHTING_PRE_DEFINED_CURVE_FONT('continuous');
#311=COLOUR_RGB('',0.509803950786591,0.509803950786591,0.588235318660736);
#312=CARTESIAN_POINT('',(15.0,3.62789632319879E-015,29.25));
#313=VECTOR('',#454,1.0);
#314=PRE_DEFINED_MARKER('');
#315=COLOUR_RGB('',0.509803950786591,0.509803950786591,0.588235318660736);
#316=DRAUGHTING_PRE_DEFINED_CURVE_FONT('continuous');
#317=COLOUR_RGB('',0.509803950786591,0.509803950786591,0.588235318660736);
#318=AXIS2_PLACEMENT_3D('',#455,#456,#457);
#319=PRE_DEFINED_MARKER('');
#320=COLOUR_RGB('',0.509803950786591,0.509803950786591,0.588235318660736);
#321=DRAUGHTING_PRE_DEFINED_CURVE_FONT('continuous');
#322=COLOUR_RGB('',0.509803950786591,0.509803950786591,0.588235318660736);
#323=AXIS2_PLACEMENT_3D('',#458,#459,#460);
#324=SURFACE_SIDE_STYLE('',(#461));
#325=EDGE_LOOP('',(#462,#463));
#326=AXIS2_PLACEMENT_3D('',#464,#465,#466);
#327=DRAUGHTING_PRE_DEFINED_CURVE_FONT('continuous');
#328=COLOUR_RGB('',0.509803950786591,0.509803950786591,0.588235318660736);
#329=CARTESIAN_POINT('',(-11.75,2.3420596516853E-015,61.75));
#330=VECTOR('',#467,1.0);
#331=DRAUGHTING_PRE_DEFINED_CURVE_FONT('continuous');
#332=COLOUR_RGB('',0.509803950786591,0.509803950786591,0.588235318660736);
#333=CARTESIAN_POINT('',(-7.6,-2.03284654734515E-015,-18.0));
#334=VECTOR('',#468,1.0);
#335=DRAUGHTING_PRE_DEFINED_CURVE_FONT('continuous');
#336=COLOUR_RGB('',0.509803950786591,0.509803950786591,0.588235318660736);
#337=AXIS2_PLACEMENT_3D('',#469,#470,#471);
#338=SURFACE_SIDE_STYLE('',(#472));
#339=EDGE_LOOP('',(#473,#474,#475,#476));
#340=AXIS2_PLACEMENT_3D('',#477,#478,#479);
#341=SURFACE_SIDE_STYLE('',(#480));
#342=EDGE_LOOP('',(#481,#482,#483,#484));
#343=AXIS2_PLACEMENT_3D('',#485,#486,#487);
#344=DRAUGHTING_PRE_DEFINED_CURVE_FONT('continuous');
#345=COLOUR_RGB('',0.509803950786591,0.509803950786591,0.588235318660736);
#346=AXIS2_PLACEMENT_3D('',#488,#489,#490);
#347=PRE_DEFINED_MARKER('');
#348=COLOUR_RGB('',0.509803950786591,0.509803950786591,0.588235318660736);
#349=PRE_DEFINED_MARKER('');
#350=COLOUR_RGB('',0.509803950786591,0.509803950786591,0.588235318660736);
#351=PRE_DEFINED_MARKER('');
#352=COLOUR_RGB('',0.509803950786591,0.509803950786591,0.588235318660736);
#353=DRAUGHTING_PRE_DEFINED_CURVE_FONT('continuous');
#354=COLOUR_RGB('',0.509803950786591,0.509803950786591,0.588235318660736);
#355=CARTESIAN_POINT('',(-8.0,-1.46952762458685E-015,-8.0));
#356=VECTOR('',#491,1.0);
#357=DRAUGHTING_PRE_DEFINED_CURVE_FONT('continuous');
#358=COLOUR_RGB('',0.509803950786591,0.509803950786591,0.588235318660736);
#359=AXIS2_PLACEMENT_3D('',#492,#493,#494);
#360=DRAUGHTING_PRE_DEFINED_CURVE_FONT('continuous');
#361=COLOUR_RGB('',0.509803950786591,0.509803950786591,0.588235318660736);
#362=AXIS2_PLACEMENT_3D('',#495,#496,#497);
#363=DRAUGHTING_PRE_DEFINED_CURVE_FONT('continuous');
#364=COLOUR_RGB('',0.509803950786591,0.509803950786591,0.588235318660736);
#365=CARTESIAN_POINT('',(11.75,5.21988458316788E-015,61.75));
#366=VECTOR('',#498,1.0);
#367=DRAUGHTING_PRE_DEFINED_CURVE_FONT('continuous');
#368=COLOUR_RGB('',0.509803950786591,0.509803950786591,0.588235318660736);
#369=AXIS2_PLACEMENT_3D('',#499,#500,#501);
#370=PRE_DEFINED_MARKER('');
#371=COLOUR_RGB('',0.509803950786591,0.509803950786591,0.588235318660736);
#372=DRAUGHTING_PRE_DEFINED_CURVE_FONT('continuous');
#373=COLOUR_RGB('',0.509803950786591,0.509803950786591,0.588235318660736);
#374=CARTESIAN_POINT('',(8.0,4.89842541528951E-016,-8.0));
#375=VECTOR('',#502,1.0);
#376=SURFACE_SIDE_STYLE('',(#503));
#377=EDGE_LOOP('',(#504,#505));
#378=AXIS2_PLACEMENT_3D('',#506,#507,#508);
#379=PRE_DEFINED_MARKER('');
#380=COLOUR_RGB('',0.509803950786591,0.509803950786591,0.588235318660736);
#381=PRE_DEFINED_MARKER('');
#382=COLOUR_RGB('',0.509803950786591,0.509803950786591,0.588235318660736);
#383=PRE_DEFINED_MARKER('');
#384=COLOUR_RGB('',0.509803950786591,0.509803950786591,0.588235318660736);
#385=SURFACE_SIDE_STYLE('',(#509));
#386=EDGE_LOOP('',(#510,#511,#512,#513));
#387=AXIS2_PLACEMENT_3D('',#514,#515,#516);
#388=DRAUGHTING_PRE_DEFINED_CURVE_FONT('continuous');
#389=COLOUR_RGB('',0.509803950786591,0.509803950786591,0.588235318660736);
#390=AXIS2_PLACEMENT_3D('',#517,#518,#519);
#391=PRE_DEFINED_MARKER('');
#392=COLOUR_RGB('',0.509803950786591,0.509803950786591,0.588235318660736);
#393=SURFACE_SIDE_STYLE('',(#520));
#394=EDGE_LOOP('',(#521,#522,#523,#524));
#395=AXIS2_PLACEMENT_3D('',#525,#526,#527);
#396=DRAUGHTING_PRE_DEFINED_CURVE_FONT('continuous');
#397=COLOUR_RGB('',0.509803950786591,0.509803950786591,0.588235318660736);
#398=CARTESIAN_POINT('',(-15.0,-4.59227382683391E-017,29.25));
#399=VECTOR('',#528,1.0);
#401=CARTESIAN_POINT('',(0.0,0.0,0.0));
#402=DIRECTION('',(0.0,-6.12303176911189E-017,-1.0));
#403=DIRECTION('',(1.0,0.0,0.0));
#404=SURFACE_STYLE_FILL_AREA(#529);
#405=ORIENTED_EDGE('',*,*,#99,.F.);
#406=ORIENTED_EDGE('',*,*,#67,.F.);
#407=ORIENTED_EDGE('',*,*,#145,.T.);
#408=ORIENTED_EDGE('',*,*,#73,.T.);
#409=CARTESIAN_POINT('',(11.5,0.0,0.0));
#410=DIRECTION('',(0.0,-6.12303176911189E-017,-1.0));
#411=DIRECTION('',(1.0,0.0,0.0));
#412=CARTESIAN_POINT('',(0.0,0.0,0.0));
#413=DIRECTION('',(0.0,-6.12303176911189E-017,-1.0));
#414=DIRECTION('',(1.0,0.0,0.0));
#415=CARTESIAN_POINT('',(0.0,-1.22460635382238E-015,-20.0));
#416=DIRECTION('',(0.0,-6.12303176911189E-017,-1.0));
#417=DIRECTION('',(1.0,0.0,0.0));
#418=SURFACE_STYLE_FILL_AREA(#530);
#419=ORIENTED_EDGE('',*,*,#127,.T.);
#420=ORIENTED_EDGE('',*,*,#85,.F.);
#421=ORIENTED_EDGE('',*,*,#103,.T.);
#422=ORIENTED_EDGE('',*,*,#95,.T.);
#423=CARTESIAN_POINT('',(0.0,3.78097211742659E-015,61.75));
#424=DIRECTION('',(0.0,-6.12303176911189E-017,-1.0));
#425=DIRECTION('',(1.0,0.0,0.0));
#426=SURFACE_STYLE_FILL_AREA(#531);
#427=ORIENTED_EDGE('',*,*,#127,.F.);
#428=ORIENTED_EDGE('',*,*,#107,.T.);
#429=ORIENTED_EDGE('',*,*,#103,.F.);
#430=ORIENTED_EDGE('',*,*,#125,.F.);
#431=CARTESIAN_POINT('',(0.0,3.78097211742659E-015,61.75));
#432=DIRECTION('',(0.0,-6.12303176911189E-017,-1.0));
#433=DIRECTION('',(1.0,0.0,0.0));
#434=DIRECTION('',(-0.196116135138184,-8.40577728120578E-017,-0.98058067569092));
#435=CARTESIAN_POINT('',(0.0,3.58197358493045E-015,58.5));
#436=DIRECTION('',(0.0,-6.12303176911189E-017,-1.0));
#437=DIRECTION('',(1.0,0.0,0.0));
#438=SURFACE_STYLE_FILL_AREA(#532);
#439=ORIENTED_EDGE('',*,*,#91,.T.);
#440=ORIENTED_EDGE('',*,*,#73,.F.);
#441=ORIENTED_EDGE('',*,*,#151,.T.);
#442=ORIENTED_EDGE('',*,*,#85,.T.);
#443=CARTESIAN_POINT('',(0.0,1.79098679246523E-015,29.25));
#444=DIRECTION('',(-0.0,6.12303176911189E-017,1.0));
#445=DIRECTION('',(1.0,0.0,0.0));
#446=SURFACE_STYLE_FILL_AREA(#533);
#447=ORIENTED_EDGE('',*,*,#133,.T.);
#448=ORIENTED_EDGE('',*,*,#129,.F.);
#449=ORIENTED_EDGE('',*,*,#121,.T.);
#450=ORIENTED_EDGE('',*,*,#67,.T.);
#451=CARTESIAN_POINT('',(0.0,-4.89842541528951E-016,-8.0));
#452=DIRECTION('',(-0.0,6.12303176911189E-017,1.0));
#453=DIRECTION('',(1.0,0.0,0.0));
#454=DIRECTION('',(0.0,-6.12303176911189E-017,-1.0));
#455=CARTESIAN_POINT('',(0.0,3.97997064992273E-015,65.0));
#456=DIRECTION('',(0.0,-6.12303176911189E-017,-1.0));
#457=DIRECTION('',(1.0,0.0,0.0));
#458=CARTESIAN_POINT('',(0.0,0.0,0.0));
#459=DIRECTION('',(0.0,-6.12303176911189E-017,-1.0));
#460=DIRECTION('',(1.0,0.0,0.0));
#461=SURFACE_STYLE_FILL_AREA(#534);
#462=ORIENTED_EDGE('',*,*,#107,.F.);
#463=ORIENTED_EDGE('',*,*,#95,.F.);
#464=CARTESIAN_POINT('',(4.25,3.97997064992273E-015,65.0));
#465=DIRECTION('',(0.0,6.12303176911189E-017,1.0));
#466=DIRECTION('',(-1.0,0.0,0.0));
#467=DIRECTION('',(0.707106781186548,1.2988911856079E-016,0.707106781186548));
#468=DIRECTION('',(-0.196116135138184,3.60247597765962E-017,0.98058067569092));
#469=CARTESIAN_POINT('',(0.0,3.97997064992273E-015,65.0));
#470=DIRECTION('',(0.0,-6.12303176911189E-017,-1.0));
#471=DIRECTION('',(1.0,0.0,0.0));
#472=SURFACE_STYLE_FILL_AREA(#535);
#473=ORIENTED_EDGE('',*,*,#133,.F.);
#474=ORIENTED_EDGE('',*,*,#99,.T.);
#475=ORIENTED_EDGE('',*,*,#121,.F.);
#476=ORIENTED_EDGE('',*,*,#113,.F.);
#477=CARTESIAN_POINT('',(0.0,-4.89842541528951E-016,-8.0));
#478=DIRECTION('',(-0.0,6.12303176911189E-017,1.0));
#479=DIRECTION('',(1.0,0.0,0.0));
#480=SURFACE_STYLE_FILL_AREA(#536);
#481=ORIENTED_EDGE('',*,*,#91,.F.);
#482=ORIENTED_EDGE('',*,*,#125,.T.);
#483=ORIENTED_EDGE('',*,*,#151,.F.);
#484=ORIENTED_EDGE('',*,*,#145,.F.);
#485=CARTESIAN_POINT('',(0.0,1.79098679246523E-015,29.25));
#486=DIRECTION('',(-0.0,6.12303176911189E-017,1.0));
#487=DIRECTION('',(1.0,0.0,0.0));
#488=CARTESIAN_POINT('',(0.0,-9.79685083057902E-016,-16.0));
#489=DIRECTION('',(0.0,-6.12303176911189E-017,-1.0));
#490=DIRECTION('',(1.0,0.0,0.0));
#491=DIRECTION('',(-0.0,6.12303176911189E-017,1.0));
#492=CARTESIAN_POINT('',(0.0,-1.22460635382238E-015,-20.0));
#493=DIRECTION('',(0.0,-6.12303176911189E-017,-1.0));
#494=DIRECTION('',(1.0,0.0,0.0));
#495=CARTESIAN_POINT('',(0.0,3.58197358493045E-015,58.5));
#496=DIRECTION('',(0.0,-6.12303176911189E-017,-1.0));
#497=DIRECTION('',(1.0,0.0,0.0));
#498=DIRECTION('',(0.707106781186548,4.32963728535968E-017,-0.707106781186548));
#499=CARTESIAN_POINT('',(0.0,-9.79685083057902E-016,-16.0));
#500=DIRECTION('',(0.0,-6.12303176911189E-017,-1.0));
#501=DIRECTION('',(1.0,0.0,0.0));
#502=DIRECTION('',(0.0,-6.12303176911189E-017,-1.0));
#503=SURFACE_STYLE_FILL_AREA(#537);
#504=ORIENTED_EDGE('',*,*,#123,.T.);
#505=ORIENTED_EDGE('',*,*,#75,.T.);
#506=CARTESIAN_POINT('',(3.6,-1.22460635382238E-015,-20.0));
#507=DIRECTION('',(0.0,-6.12303176911189E-017,-1.0));
#508=DIRECTION('',(1.0,0.0,0.0));
#509=SURFACE_STYLE_FILL_AREA(#538);
#510=ORIENTED_EDGE('',*,*,#83,.T.);
#511=ORIENTED_EDGE('',*,*,#75,.F.);
#512=ORIENTED_EDGE('',*,*,#105,.T.);
#513=ORIENTED_EDGE('',*,*,#129,.T.);
#514=CARTESIAN_POINT('',(0.0,-1.10214571844014E-015,-18.0));
#515=DIRECTION('',(-0.0,6.12303176911189E-017,1.0));
#516=DIRECTION('',(1.0,0.0,0.0));
#517=CARTESIAN_POINT('',(0.0,0.0,0.0));
#518=DIRECTION('',(0.0,-6.12303176911189E-017,-1.0));
#519=DIRECTION('',(1.0,0.0,0.0));
#520=SURFACE_STYLE_FILL_AREA(#539);
#521=ORIENTED_EDGE('',*,*,#83,.F.);
#522=ORIENTED_EDGE('',*,*,#113,.T.);
#523=ORIENTED_EDGE('',*,*,#105,.F.);
#524=ORIENTED_EDGE('',*,*,#123,.F.);
#525=CARTESIAN_POINT('',(0.0,-1.10214571844014E-015,-18.0));
#526=DIRECTION('',(-0.0,6.12303176911189E-017,1.0));
#527=DIRECTION('',(1.0,0.0,0.0));
#528=DIRECTION('',(-0.0,6.12303176911189E-017,1.0));
#529=FILL_AREA_STYLE('',(#540));
#530=FILL_AREA_STYLE('',(#541));
#531=FILL_AREA_STYLE('',(#542));
#532=FILL_AREA_STYLE('',(#543));
#533=FILL_AREA_STYLE('',(#544));
#534=FILL_AREA_STYLE('',(#545));
#535=FILL_AREA_STYLE('',(#546));
#536=FILL_AREA_STYLE('',(#547));
#537=FILL_AREA_STYLE('',(#548));
#538=FILL_AREA_STYLE('',(#549));
#539=FILL_AREA_STYLE('',(#550));
#540=FILL_AREA_STYLE_COLOUR('',#551);
#541=FILL_AREA_STYLE_COLOUR('',#552);
#542=FILL_AREA_STYLE_COLOUR('',#553);
#543=FILL_AREA_STYLE_COLOUR('',#554);
#544=FILL_AREA_STYLE_COLOUR('',#555);
#545=FILL_AREA_STYLE_COLOUR('',#556);
#546=FILL_AREA_STYLE_COLOUR('',#557);
#547=FILL_AREA_STYLE_COLOUR('',#558);
#548=FILL_AREA_STYLE_COLOUR('',#559);
#549=FILL_AREA_STYLE_COLOUR('',#560);
#550=FILL_AREA_STYLE_COLOUR('',#561);
#551=COLOUR_RGB('',0.509803950786591,0.509803950786591,0.588235318660736);
#552=COLOUR_RGB('',0.509803950786591,0.509803950786591,0.588235318660736);
#553=COLOUR_RGB('',0.509803950786591,0.509803950786591,0.588235318660736);
#554=COLOUR_RGB('',0.509803950786591,0.509803950786591,0.588235318660736);
#555=COLOUR_RGB('',0.509803950786591,0.509803950786591,0.588235318660736);
#556=COLOUR_RGB('',0.509803950786591,0.509803950786591,0.588235318660736);
#557=COLOUR_RGB('',0.509803950786591,0.509803950786591,0.588235318660736);
#558=COLOUR_RGB('',0.509803950786591,0.509803950786591,0.588235318660736);
#559=COLOUR_RGB('',0.509803950786591,0.509803950786591,0.588235318660736);
#560=COLOUR_RGB('',0.509803950786591,0.509803950786591,0.588235318660736);
#561=COLOUR_RGB('',0.509803950786591,0.509803950786591,0.588235318660736);
ENDSEC;
END-ISO-10303-21;
