ISO-10303-21;
HEADER;
FILE_DESCRIPTION(('STEP AP214'),'1');
FILE_NAME('haldern_eh_23010_0146.stp','2018-04-19T13:14:16',('TraceParts'),('TraceParts S.A.'),'Spatial InterOp 3D',' ',' ');
FILE_SCHEMA(('automotive_design'));
ENDSEC;
DATA;
#1=MECHANICAL_DESIGN_GEOMETRIC_PRESENTATION_REPRESENTATION(' ',(#10,#11,#12,#13,#14,#15,#16,#17,#18,#19,#20,#21,#22,#23,#24,#25,#26),#6);
#2=PRODUCT_DEFINITION_CONTEXT('',#27,'design');
#3=APPLICATION_PROTOCOL_DEFINITION('INTERNATIONAL STANDARD','automotive_design',1994,#27);
#4=PRODUCT_CATEGORY_RELATIONSHIP('NONE','NONE',#28,#29);
#5=SHAPE_DEFINITION_REPRESENTATION(#30,#31);
#6= (GEOMETRIC_REPRESENTATION_CONTEXT(3)GLOBAL_UNCERTAINTY_ASSIGNED_CONTEXT((#34))GLOBAL_UNIT_ASSIGNED_CONTEXT((#36,#37,#38))REPRESENTATION_CONTEXT('NONE','WORKSPACE'));
#10=STYLED_ITEM('',(#40),#41);
#11=STYLED_ITEM('',(#42),#43);
#12=STYLED_ITEM('',(#44),#45);
#13=STYLED_ITEM('',(#46),#47);
#14=STYLED_ITEM('',(#48),#49);
#15=STYLED_ITEM('',(#50),#51);
#16=STYLED_ITEM('',(#52),#53);
#17=STYLED_ITEM('',(#54),#55);
#18=STYLED_ITEM('',(#56),#57);
#19=STYLED_ITEM('',(#58),#59);
#20=STYLED_ITEM('',(#60),#61);
#21=STYLED_ITEM('',(#62),#63);
#22=STYLED_ITEM('',(#64),#65);
#23=STYLED_ITEM('',(#66),#67);
#24=STYLED_ITEM('',(#68),#69);
#25=STYLED_ITEM('',(#70),#71);
#26=STYLED_ITEM('',(#72),#73);
#27=APPLICATION_CONTEXT(' ');
#28=PRODUCT_CATEGORY('part','NONE');
#29=PRODUCT_RELATED_PRODUCT_CATEGORY('detail',' ',(#74));
#30=PRODUCT_DEFINITION_SHAPE('NONE','NONE',#75);
#31=ADVANCED_BREP_SHAPE_REPRESENTATION('haldern_eh_23010_0146',(#73,#76),#6);
#34=UNCERTAINTY_MEASURE_WITH_UNIT(LENGTH_MEASURE(1.0E-006),#36,'','');
#36= (CONVERSION_BASED_UNIT('MILLIMETRE',#79)LENGTH_UNIT()NAMED_UNIT(#82));
#37= (NAMED_UNIT(#84)PLANE_ANGLE_UNIT()SI_UNIT($,.RADIAN.));
#38= (NAMED_UNIT(#84)SOLID_ANGLE_UNIT()SI_UNIT($,.STERADIAN.));
#40=PRESENTATION_STYLE_ASSIGNMENT((#90));
#41=ADVANCED_FACE('',(#91),#92,.F.);
#42=PRESENTATION_STYLE_ASSIGNMENT((#93));
#43=ADVANCED_FACE('',(#94),#95,.F.);
#44=PRESENTATION_STYLE_ASSIGNMENT((#96));
#45=ADVANCED_FACE('',(#97),#98,.F.);
#46=PRESENTATION_STYLE_ASSIGNMENT((#99));
#47=ADVANCED_FACE('',(#100),#101,.F.);
#48=PRESENTATION_STYLE_ASSIGNMENT((#102));
#49=ADVANCED_FACE('',(#103),#104,.F.);
#50=PRESENTATION_STYLE_ASSIGNMENT((#105));
#51=ADVANCED_FACE('',(#106,#107),#108,.T.);
#52=PRESENTATION_STYLE_ASSIGNMENT((#109));
#53=ADVANCED_FACE('',(#110,#111),#112,.T.);
#54=PRESENTATION_STYLE_ASSIGNMENT((#113));
#55=ADVANCED_FACE('',(#114),#115,.T.);
#56=PRESENTATION_STYLE_ASSIGNMENT((#116));
#57=ADVANCED_FACE('',(#117),#118,.T.);
#58=PRESENTATION_STYLE_ASSIGNMENT((#119));
#59=ADVANCED_FACE('',(#120),#121,.T.);
#60=PRESENTATION_STYLE_ASSIGNMENT((#122));
#61=ADVANCED_FACE('',(#123),#124,.T.);
#62=PRESENTATION_STYLE_ASSIGNMENT((#125));
#63=ADVANCED_FACE('',(#126),#127,.T.);
#64=PRESENTATION_STYLE_ASSIGNMENT((#128));
#65=ADVANCED_FACE('',(#129),#130,.T.);
#66=PRESENTATION_STYLE_ASSIGNMENT((#131));
#67=ADVANCED_FACE('',(#132),#133,.T.);
#68=PRESENTATION_STYLE_ASSIGNMENT((#134));
#69=ADVANCED_FACE('',(#135),#136,.T.);
#70=PRESENTATION_STYLE_ASSIGNMENT((#137));
#71=ADVANCED_FACE('',(#138),#139,.T.);
#72=PRESENTATION_STYLE_ASSIGNMENT((#140));
#73=MANIFOLD_SOLID_BREP('haldern_eh_23010_0146',#141);
#74=PRODUCT('haldern_eh_23010_0146','haldern_eh_23010_0146','PART-haldern_eh_23010_0146-DESC',(#142));
#75=PRODUCT_DEFINITION('NONE','NONE',#143,#2);
#76=AXIS2_PLACEMENT_3D('',#144,#145,#146);
#79=LENGTH_MEASURE_WITH_UNIT(LENGTH_MEASURE(1.0),#147);
#82=DIMENSIONAL_EXPONENTS(1.0,0.0,0.0,0.0,0.0,0.0,0.0);
#84=DIMENSIONAL_EXPONENTS(0.0,0.0,0.0,0.0,0.0,0.0,0.0);
#90=SURFACE_STYLE_USAGE(.BOTH.,#148);
#91=FACE_OUTER_BOUND('',#149,.T.);
#92=CONICAL_SURFACE('',#150,2.75,1.04719755808882);
#93=SURFACE_STYLE_USAGE(.BOTH.,#151);
#94=FACE_OUTER_BOUND('',#152,.T.);
#95=CYLINDRICAL_SURFACE('',#153,2.5);
#96=SURFACE_STYLE_USAGE(.BOTH.,#154);
#97=FACE_OUTER_BOUND('',#155,.T.);
#98=CYLINDRICAL_SURFACE('',#156,2.5);
#99=SURFACE_STYLE_USAGE(.BOTH.,#157);
#100=FACE_OUTER_BOUND('',#158,.T.);
#101=CONICAL_SURFACE('',#159,2.75,1.04719755808882);
#102=SURFACE_STYLE_USAGE(.BOTH.,#160);
#103=FACE_OUTER_BOUND('',#161,.T.);
#104=PLANE('',#162);
#105=SURFACE_STYLE_USAGE(.BOTH.,#163);
#106=FACE_BOUND('',#164,.T.);
#107=FACE_OUTER_BOUND('',#165,.T.);
#108=PLANE('',#166);
#109=SURFACE_STYLE_USAGE(.BOTH.,#167);
#110=FACE_BOUND('',#168,.T.);
#111=FACE_OUTER_BOUND('',#169,.T.);
#112=PLANE('',#170);
#113=SURFACE_STYLE_USAGE(.BOTH.,#171);
#114=FACE_OUTER_BOUND('',#172,.T.);
#115=PLANE('',#173);
#116=SURFACE_STYLE_USAGE(.BOTH.,#174);
#117=FACE_OUTER_BOUND('',#175,.T.);
#118=PLANE('',#176);
#119=SURFACE_STYLE_USAGE(.BOTH.,#177);
#120=FACE_OUTER_BOUND('',#178,.T.);
#121=PLANE('',#179);
#122=SURFACE_STYLE_USAGE(.BOTH.,#180);
#123=FACE_OUTER_BOUND('',#181,.T.);
#124=PLANE('',#182);
#125=SURFACE_STYLE_USAGE(.BOTH.,#183);
#126=FACE_OUTER_BOUND('',#184,.T.);
#127=PLANE('',#185);
#128=SURFACE_STYLE_USAGE(.BOTH.,#186);
#129=FACE_OUTER_BOUND('',#187,.T.);
#130=PLANE('',#188);
#131=SURFACE_STYLE_USAGE(.BOTH.,#189);
#132=FACE_OUTER_BOUND('',#190,.T.);
#133=PLANE('',#191);
#134=SURFACE_STYLE_USAGE(.BOTH.,#192);
#135=FACE_OUTER_BOUND('',#193,.T.);
#136=PLANE('',#194);
#137=SURFACE_STYLE_USAGE(.BOTH.,#195);
#138=FACE_OUTER_BOUND('',#196,.T.);
#139=PLANE('',#197);
#140=SURFACE_STYLE_USAGE(.BOTH.,#198);
#141=CLOSED_SHELL('',(#41,#43,#45,#47,#49,#51,#53,#55,#57,#59,#61,#63,#65,#67,#69,#71));
#142=PRODUCT_CONTEXT('',#27,'mechanical');
#143=PRODUCT_DEFINITION_FORMATION_WITH_SPECIFIED_SOURCE(' ','NONE',#74,.NOT_KNOWN.);
#144=CARTESIAN_POINT('',(0.0,0.0,0.0));
#145=DIRECTION('',(0.0,0.0,1.0));
#146=DIRECTION('',(1.0,0.0,0.0));
#147= (NAMED_UNIT(#82)LENGTH_UNIT()SI_UNIT(.MILLI.,.METRE.));
#148=SURFACE_SIDE_STYLE('',(#200));
#149=EDGE_LOOP('',(#201,#202,#203,#204));
#150=AXIS2_PLACEMENT_3D('',#205,#206,#207);
#151=SURFACE_SIDE_STYLE('',(#208));
#152=EDGE_LOOP('',(#209,#210,#211,#212));
#153=AXIS2_PLACEMENT_3D('',#213,#214,#215);
#154=SURFACE_SIDE_STYLE('',(#216));
#155=EDGE_LOOP('',(#217,#218,#219,#220));
#156=AXIS2_PLACEMENT_3D('',#221,#222,#223);
#157=SURFACE_SIDE_STYLE('',(#224));
#158=EDGE_LOOP('',(#225,#226,#227,#228));
#159=AXIS2_PLACEMENT_3D('',#229,#230,#231);
#160=SURFACE_SIDE_STYLE('',(#232));
#161=EDGE_LOOP('',(#233,#234,#235,#236,#237,#238,#239,#240,#241,#242));
#162=AXIS2_PLACEMENT_3D('',#243,#244,#245);
#163=SURFACE_SIDE_STYLE('',(#246));
#164=EDGE_LOOP('',(#247,#248));
#165=EDGE_LOOP('',(#249,#250,#251,#252));
#166=AXIS2_PLACEMENT_3D('',#253,#254,#255);
#167=SURFACE_SIDE_STYLE('',(#256));
#168=EDGE_LOOP('',(#257,#258));
#169=EDGE_LOOP('',(#259,#260,#261,#262));
#170=AXIS2_PLACEMENT_3D('',#263,#264,#265);
#171=SURFACE_SIDE_STYLE('',(#266));
#172=EDGE_LOOP('',(#267,#268,#269,#270));
#173=AXIS2_PLACEMENT_3D('',#271,#272,#273);
#174=SURFACE_SIDE_STYLE('',(#274));
#175=EDGE_LOOP('',(#275,#276,#277,#278));
#176=AXIS2_PLACEMENT_3D('',#279,#280,#281);
#177=SURFACE_SIDE_STYLE('',(#282));
#178=EDGE_LOOP('',(#283,#284,#285,#286));
#179=AXIS2_PLACEMENT_3D('',#287,#288,#289);
#180=SURFACE_SIDE_STYLE('',(#290));
#181=EDGE_LOOP('',(#291,#292,#293,#294));
#182=AXIS2_PLACEMENT_3D('',#295,#296,#297);
#183=SURFACE_SIDE_STYLE('',(#298));
#184=EDGE_LOOP('',(#299,#300,#301,#302));
#185=AXIS2_PLACEMENT_3D('',#303,#304,#305);
#186=SURFACE_SIDE_STYLE('',(#306));
#187=EDGE_LOOP('',(#307,#308,#309,#310));
#188=AXIS2_PLACEMENT_3D('',#311,#312,#313);
#189=SURFACE_SIDE_STYLE('',(#314));
#190=EDGE_LOOP('',(#315,#316,#317,#318));
#191=AXIS2_PLACEMENT_3D('',#319,#320,#321);
#192=SURFACE_SIDE_STYLE('',(#322));
#193=EDGE_LOOP('',(#323,#324,#325,#326));
#194=AXIS2_PLACEMENT_3D('',#327,#328,#329);
#195=SURFACE_SIDE_STYLE('',(#330));
#196=EDGE_LOOP('',(#331,#332,#333,#334,#335,#336,#337,#338,#339,#340));
#197=AXIS2_PLACEMENT_3D('',#341,#342,#343);
#198=SURFACE_SIDE_STYLE('',(#344));
#200=SURFACE_STYLE_FILL_AREA(#345);
#201=ORIENTED_EDGE('',*,*,#346,.F.);
#202=ORIENTED_EDGE('',*,*,#347,.F.);
#203=ORIENTED_EDGE('',*,*,#348,.F.);
#204=ORIENTED_EDGE('',*,*,#349,.F.);
#205=CARTESIAN_POINT('',(0.0,0.0,7.855662435));
#206=DIRECTION('',(-0.0,-0.0,1.0));
#207=DIRECTION('',(1.0,0.0,0.0));
#208=SURFACE_STYLE_FILL_AREA(#350);
#209=ORIENTED_EDGE('',*,*,#351,.F.);
#210=ORIENTED_EDGE('',*,*,#349,.T.);
#211=ORIENTED_EDGE('',*,*,#352,.F.);
#212=ORIENTED_EDGE('',*,*,#353,.F.);
#213=CARTESIAN_POINT('',(0.0,0.0,-0.144337565));
#214=DIRECTION('',(0.0,0.0,1.0));
#215=DIRECTION('',(1.0,0.0,0.0));
#216=SURFACE_STYLE_FILL_AREA(#354);
#217=ORIENTED_EDGE('',*,*,#351,.T.);
#218=ORIENTED_EDGE('',*,*,#355,.F.);
#219=ORIENTED_EDGE('',*,*,#352,.T.);
#220=ORIENTED_EDGE('',*,*,#356,.T.);
#221=CARTESIAN_POINT('',(0.0,0.0,-0.144337565));
#222=DIRECTION('',(0.0,0.0,1.0));
#223=DIRECTION('',(1.0,0.0,0.0));
#224=SURFACE_STYLE_FILL_AREA(#357);
#225=ORIENTED_EDGE('',*,*,#346,.T.);
#226=ORIENTED_EDGE('',*,*,#356,.F.);
#227=ORIENTED_EDGE('',*,*,#348,.T.);
#228=ORIENTED_EDGE('',*,*,#358,.F.);
#229=CARTESIAN_POINT('',(0.0,0.0,7.855662435));
#230=DIRECTION('',(-0.0,-0.0,1.0));
#231=DIRECTION('',(1.0,0.0,0.0));
#232=SURFACE_STYLE_FILL_AREA(#359);
#233=ORIENTED_EDGE('',*,*,#360,.F.);
#234=ORIENTED_EDGE('',*,*,#361,.F.);
#235=ORIENTED_EDGE('',*,*,#362,.F.);
#236=ORIENTED_EDGE('',*,*,#363,.F.);
#237=ORIENTED_EDGE('',*,*,#364,.F.);
#238=ORIENTED_EDGE('',*,*,#365,.F.);
#239=ORIENTED_EDGE('',*,*,#366,.F.);
#240=ORIENTED_EDGE('',*,*,#367,.F.);
#241=ORIENTED_EDGE('',*,*,#368,.F.);
#242=ORIENTED_EDGE('',*,*,#369,.F.);
#243=CARTESIAN_POINT('',(2.8421709430404E-014,11.0,-0.689958137626832));
#244=DIRECTION('',(0.0,-1.0,6.12303176911189E-017));
#245=DIRECTION('',(1.0,0.0,0.0));
#246=SURFACE_STYLE_FILL_AREA(#370);
#247=ORIENTED_EDGE('',*,*,#358,.T.);
#248=ORIENTED_EDGE('',*,*,#347,.T.);
#249=ORIENTED_EDGE('',*,*,#371,.T.);
#250=ORIENTED_EDGE('',*,*,#372,.T.);
#251=ORIENTED_EDGE('',*,*,#373,.F.);
#252=ORIENTED_EDGE('',*,*,#368,.T.);
#253=CARTESIAN_POINT('',(-6.79999999999995,1.17464988216474E-014,8.0));
#254=DIRECTION('',(0.0,6.12303176911189E-017,1.0));
#255=DIRECTION('',(0.0,-1.0,6.12303176911189E-017));
#256=SURFACE_STYLE_FILL_AREA(#374);
#257=ORIENTED_EDGE('',*,*,#353,.T.);
#258=ORIENTED_EDGE('',*,*,#355,.T.);
#259=ORIENTED_EDGE('',*,*,#375,.F.);
#260=ORIENTED_EDGE('',*,*,#363,.T.);
#261=ORIENTED_EDGE('',*,*,#376,.T.);
#262=ORIENTED_EDGE('',*,*,#377,.T.);
#263=CARTESIAN_POINT('',(9.40000000000009,1.07668137385895E-014,-7.99999999999997));
#264=DIRECTION('',(0.0,-6.12303176911189E-017,-1.0));
#265=DIRECTION('',(0.0,1.0,-6.12303176911189E-017));
#266=SURFACE_STYLE_FILL_AREA(#378);
#267=ORIENTED_EDGE('',*,*,#379,.T.);
#268=ORIENTED_EDGE('',*,*,#376,.F.);
#269=ORIENTED_EDGE('',*,*,#362,.T.);
#270=ORIENTED_EDGE('',*,*,#380,.F.);
#271=CARTESIAN_POINT('',(11.0,1.08647822468953E-014,-6.40000000000001));
#272=DIRECTION('',(0.707106781186554,-4.32963728535964E-017,-0.707106781186541));
#273=DIRECTION('',(0.0,1.0,-6.12303176911189E-017));
#274=SURFACE_STYLE_FILL_AREA(#381);
#275=ORIENTED_EDGE('',*,*,#382,.T.);
#276=ORIENTED_EDGE('',*,*,#383,.F.);
#277=ORIENTED_EDGE('',*,*,#364,.T.);
#278=ORIENTED_EDGE('',*,*,#375,.T.);
#279=CARTESIAN_POINT('',(-9.40000000000001,1.07668137385895E-014,-7.99999999999997));
#280=DIRECTION('',(-0.707106781186548,-4.32963728535968E-017,-0.707106781186548));
#281=DIRECTION('',(0.0,-1.0,6.12303176911189E-017));
#282=SURFACE_STYLE_FILL_AREA(#384);
#283=ORIENTED_EDGE('',*,*,#385,.T.);
#284=ORIENTED_EDGE('',*,*,#386,.F.);
#285=ORIENTED_EDGE('',*,*,#365,.T.);
#286=ORIENTED_EDGE('',*,*,#383,.T.);
#287=CARTESIAN_POINT('',(-10.9999999999999,1.08647822468953E-014,-6.40000000000003));
#288=DIRECTION('',(-1.0,0.0,0.0));
#289=DIRECTION('',(0.0,-1.0,6.12303176911189E-017));
#290=SURFACE_STYLE_FILL_AREA(#387);
#291=ORIENTED_EDGE('',*,*,#388,.T.);
#292=ORIENTED_EDGE('',*,*,#389,.F.);
#293=ORIENTED_EDGE('',*,*,#366,.T.);
#294=ORIENTED_EDGE('',*,*,#386,.T.);
#295=CARTESIAN_POINT('',(-10.9999999999999,1.12566562801184E-014,0.0));
#296=DIRECTION('',(0.0,6.12303176911189E-017,1.0));
#297=DIRECTION('',(0.0,-1.0,6.12303176911189E-017));
#298=SURFACE_STYLE_FILL_AREA(#390);
#299=ORIENTED_EDGE('',*,*,#391,.T.);
#300=ORIENTED_EDGE('',*,*,#371,.F.);
#301=ORIENTED_EDGE('',*,*,#367,.T.);
#302=ORIENTED_EDGE('',*,*,#389,.T.);
#303=CARTESIAN_POINT('',(-6.79999999999995,1.12566562801184E-014,0.0));
#304=DIRECTION('',(-1.0,0.0,0.0));
#305=DIRECTION('',(0.0,-1.0,6.12303176911189E-017));
#306=SURFACE_STYLE_FILL_AREA(#392);
#307=ORIENTED_EDGE('',*,*,#393,.T.);
#308=ORIENTED_EDGE('',*,*,#394,.F.);
#309=ORIENTED_EDGE('',*,*,#369,.T.);
#310=ORIENTED_EDGE('',*,*,#373,.T.);
#311=CARTESIAN_POINT('',(6.80000000000001,1.17464988216474E-014,8.0));
#312=DIRECTION('',(1.0,0.0,0.0));
#313=DIRECTION('',(0.0,1.0,-6.12303176911189E-017));
#314=SURFACE_STYLE_FILL_AREA(#395);
#315=ORIENTED_EDGE('',*,*,#396,.T.);
#316=ORIENTED_EDGE('',*,*,#397,.F.);
#317=ORIENTED_EDGE('',*,*,#360,.T.);
#318=ORIENTED_EDGE('',*,*,#394,.T.);
#319=CARTESIAN_POINT('',(6.80000000000001,1.12566562801184E-014,0.0));
#320=DIRECTION('',(0.0,6.12303176911189E-017,1.0));
#321=DIRECTION('',(0.0,-1.0,6.12303176911189E-017));
#322=SURFACE_STYLE_FILL_AREA(#398);
#323=ORIENTED_EDGE('',*,*,#399,.T.);
#324=ORIENTED_EDGE('',*,*,#380,.T.);
#325=ORIENTED_EDGE('',*,*,#361,.T.);
#326=ORIENTED_EDGE('',*,*,#397,.T.);
#327=CARTESIAN_POINT('',(11.0,1.12566562801184E-014,0.0));
#328=DIRECTION('',(1.0,0.0,0.0));
#329=DIRECTION('',(0.0,1.0,-6.12303176911189E-017));
#330=SURFACE_STYLE_FILL_AREA(#400);
#331=ORIENTED_EDGE('',*,*,#379,.F.);
#332=ORIENTED_EDGE('',*,*,#399,.F.);
#333=ORIENTED_EDGE('',*,*,#396,.F.);
#334=ORIENTED_EDGE('',*,*,#393,.F.);
#335=ORIENTED_EDGE('',*,*,#372,.F.);
#336=ORIENTED_EDGE('',*,*,#391,.F.);
#337=ORIENTED_EDGE('',*,*,#388,.F.);
#338=ORIENTED_EDGE('',*,*,#385,.F.);
#339=ORIENTED_EDGE('',*,*,#382,.F.);
#340=ORIENTED_EDGE('',*,*,#377,.F.);
#341=CARTESIAN_POINT('',(2.8421709430404E-014,-11.0,-0.68995813762686));
#342=DIRECTION('',(0.0,-1.0,6.12303176911189E-017));
#343=DIRECTION('',(1.0,0.0,0.0));
#344=SURFACE_STYLE_FILL_AREA(#401);
#345=FILL_AREA_STYLE('',(#402));
#346=EDGE_CURVE('',#403,#404,#405,.T.);
#347=EDGE_CURVE('',#406,#403,#407,.T.);
#348=EDGE_CURVE('',#408,#406,#409,.T.);
#349=EDGE_CURVE('',#404,#408,#410,.T.);
#350=FILL_AREA_STYLE('',(#411));
#351=EDGE_CURVE('',#404,#412,#413,.T.);
#352=EDGE_CURVE('',#414,#408,#415,.T.);
#353=EDGE_CURVE('',#412,#414,#416,.T.);
#354=FILL_AREA_STYLE('',(#417));
#355=EDGE_CURVE('',#414,#412,#418,.T.);
#356=EDGE_CURVE('',#408,#404,#419,.T.);
#357=FILL_AREA_STYLE('',(#420));
#358=EDGE_CURVE('',#403,#406,#421,.T.);
#359=FILL_AREA_STYLE('',(#422));
#360=EDGE_CURVE('',#423,#424,#425,.T.);
#361=EDGE_CURVE('',#426,#423,#427,.T.);
#362=EDGE_CURVE('',#428,#426,#429,.T.);
#363=EDGE_CURVE('',#430,#428,#431,.T.);
#364=EDGE_CURVE('',#432,#430,#433,.T.);
#365=EDGE_CURVE('',#434,#432,#435,.T.);
#366=EDGE_CURVE('',#436,#434,#437,.T.);
#367=EDGE_CURVE('',#438,#436,#439,.T.);
#368=EDGE_CURVE('',#440,#438,#441,.T.);
#369=EDGE_CURVE('',#424,#440,#442,.T.);
#370=FILL_AREA_STYLE('',(#443));
#371=EDGE_CURVE('',#438,#444,#445,.T.);
#372=EDGE_CURVE('',#444,#446,#447,.T.);
#373=EDGE_CURVE('',#440,#446,#448,.T.);
#374=FILL_AREA_STYLE('',(#449));
#375=EDGE_CURVE('',#430,#450,#451,.T.);
#376=EDGE_CURVE('',#428,#452,#453,.T.);
#377=EDGE_CURVE('',#452,#450,#454,.T.);
#378=FILL_AREA_STYLE('',(#455));
#379=EDGE_CURVE('',#456,#452,#457,.T.);
#380=EDGE_CURVE('',#456,#426,#458,.T.);
#381=FILL_AREA_STYLE('',(#459));
#382=EDGE_CURVE('',#450,#460,#461,.T.);
#383=EDGE_CURVE('',#432,#460,#462,.T.);
#384=FILL_AREA_STYLE('',(#463));
#385=EDGE_CURVE('',#460,#464,#465,.T.);
#386=EDGE_CURVE('',#434,#464,#466,.T.);
#387=FILL_AREA_STYLE('',(#467));
#388=EDGE_CURVE('',#464,#468,#469,.T.);
#389=EDGE_CURVE('',#436,#468,#470,.T.);
#390=FILL_AREA_STYLE('',(#471));
#391=EDGE_CURVE('',#468,#444,#472,.T.);
#392=FILL_AREA_STYLE('',(#473));
#393=EDGE_CURVE('',#446,#474,#475,.T.);
#394=EDGE_CURVE('',#424,#474,#476,.T.);
#395=FILL_AREA_STYLE('',(#477));
#396=EDGE_CURVE('',#474,#478,#479,.T.);
#397=EDGE_CURVE('',#423,#478,#480,.T.);
#398=FILL_AREA_STYLE('',(#481));
#399=EDGE_CURVE('',#478,#456,#482,.T.);
#400=FILL_AREA_STYLE('',(#483));
#401=FILL_AREA_STYLE('',(#484));
#402=FILL_AREA_STYLE_COLOUR('',#485);
#403=VERTEX_POINT('',#486);
#404=VERTEX_POINT('',#487);
#405=LINE('',#488,#489);
#406=VERTEX_POINT('',#490);
#407=CIRCLE('',#491,3.0);
#408=VERTEX_POINT('',#492);
#409=LINE('',#493,#494);
#410=CIRCLE('',#495,2.5);
#411=FILL_AREA_STYLE_COLOUR('',#496);
#412=VERTEX_POINT('',#497);
#413=LINE('',#498,#499);
#414=VERTEX_POINT('',#500);
#415=LINE('',#501,#502);
#416=CIRCLE('',#503,2.5);
#417=FILL_AREA_STYLE_COLOUR('',#504);
#418=CIRCLE('',#505,2.5);
#419=CIRCLE('',#506,2.5);
#420=FILL_AREA_STYLE_COLOUR('',#507);
#421=CIRCLE('',#508,3.0);
#422=FILL_AREA_STYLE_COLOUR('',#509);
#423=VERTEX_POINT('',#510);
#424=VERTEX_POINT('',#511);
#425=LINE('',#512,#513);
#426=VERTEX_POINT('',#514);
#427=LINE('',#515,#516);
#428=VERTEX_POINT('',#517);
#429=LINE('',#518,#519);
#430=VERTEX_POINT('',#520);
#431=LINE('',#521,#522);
#432=VERTEX_POINT('',#523);
#433=LINE('',#524,#525);
#434=VERTEX_POINT('',#526);
#435=LINE('',#527,#528);
#436=VERTEX_POINT('',#529);
#437=LINE('',#530,#531);
#438=VERTEX_POINT('',#532);
#439=LINE('',#533,#534);
#440=VERTEX_POINT('',#535);
#441=LINE('',#536,#537);
#442=LINE('',#538,#539);
#443=FILL_AREA_STYLE_COLOUR('',#540);
#444=VERTEX_POINT('',#541);
#445=LINE('',#542,#543);
#446=VERTEX_POINT('',#544);
#447=LINE('',#545,#546);
#448=LINE('',#547,#548);
#449=FILL_AREA_STYLE_COLOUR('',#549);
#450=VERTEX_POINT('',#550);
#451=LINE('',#551,#552);
#452=VERTEX_POINT('',#553);
#453=LINE('',#554,#555);
#454=LINE('',#556,#557);
#455=FILL_AREA_STYLE_COLOUR('',#558);
#456=VERTEX_POINT('',#559);
#457=LINE('',#560,#561);
#458=LINE('',#562,#563);
#459=FILL_AREA_STYLE_COLOUR('',#564);
#460=VERTEX_POINT('',#565);
#461=LINE('',#566,#567);
#462=LINE('',#568,#569);
#463=FILL_AREA_STYLE_COLOUR('',#570);
#464=VERTEX_POINT('',#571);
#465=LINE('',#572,#573);
#466=LINE('',#574,#575);
#467=FILL_AREA_STYLE_COLOUR('',#576);
#468=VERTEX_POINT('',#577);
#469=LINE('',#578,#579);
#470=LINE('',#580,#581);
#471=FILL_AREA_STYLE_COLOUR('',#582);
#472=LINE('',#583,#584);
#473=FILL_AREA_STYLE_COLOUR('',#585);
#474=VERTEX_POINT('',#586);
#475=LINE('',#587,#588);
#476=LINE('',#589,#590);
#477=FILL_AREA_STYLE_COLOUR('',#591);
#478=VERTEX_POINT('',#592);
#479=LINE('',#593,#594);
#480=LINE('',#595,#596);
#481=FILL_AREA_STYLE_COLOUR('',#597);
#482=LINE('',#598,#599);
#483=FILL_AREA_STYLE_COLOUR('',#600);
#484=FILL_AREA_STYLE_COLOUR('',#601);
#485=COLOUR_RGB('',0.509803950786591,0.509803950786591,0.588235318660736);
#486=CARTESIAN_POINT('',(3.0,0.0,8.0));
#487=CARTESIAN_POINT('',(2.5,0.0,7.71132487));
#488=CARTESIAN_POINT('',(2.75,-3.36766747301154E-016,7.855662435));
#489=VECTOR('',#602,1.0);
#490=CARTESIAN_POINT('',(-3.0,3.67381906146713E-016,8.0));
#491=AXIS2_PLACEMENT_3D('',#603,#604,#605);
#492=CARTESIAN_POINT('',(-2.5,3.06151588455594E-016,7.71132487));
#493=CARTESIAN_POINT('',(-2.75,3.36766747301154E-016,7.855662435));
#494=VECTOR('',#606,1.0);
#495=AXIS2_PLACEMENT_3D('',#607,#608,#609);
#496=COLOUR_RGB('',0.509803950786591,0.509803950786591,0.588235318660736);
#497=CARTESIAN_POINT('',(2.5,0.0,-8.0));
#498=CARTESIAN_POINT('',(2.5,-3.06151588455594E-016,-0.144337565));
#499=VECTOR('',#610,1.0);
#500=CARTESIAN_POINT('',(-2.5,3.06151588455594E-016,-7.99999999999997));
#501=CARTESIAN_POINT('',(-2.5,3.06151588455594E-016,-0.144337565));
#502=VECTOR('',#611,1.0);
#503=AXIS2_PLACEMENT_3D('',#612,#613,#614);
#504=COLOUR_RGB('',0.184313729405403,0.184313729405403,0.184313729405403);
#505=AXIS2_PLACEMENT_3D('',#615,#616,#617);
#506=AXIS2_PLACEMENT_3D('',#618,#619,#620);
#507=COLOUR_RGB('',0.184313729405403,0.184313729405403,0.184313729405403);
#508=AXIS2_PLACEMENT_3D('',#621,#622,#623);
#509=COLOUR_RGB('',0.184313729405403,0.184313729405403,0.184313729405403);
#510=CARTESIAN_POINT('',(11.0,11.0,0.0));
#511=CARTESIAN_POINT('',(6.80000000000001,11.0,0.0));
#512=CARTESIAN_POINT('',(11.0,11.0,0.0));
#513=VECTOR('',#624,1.0);
#514=CARTESIAN_POINT('',(11.0,11.0,-6.40000000000001));
#515=CARTESIAN_POINT('',(11.0,11.0,-6.40000000000001));
#516=VECTOR('',#625,1.0);
#517=CARTESIAN_POINT('',(9.40000000000009,11.0,-7.99999999999997));
#518=CARTESIAN_POINT('',(9.40000000000009,11.0,-7.99999999999997));
#519=VECTOR('',#626,1.0);
#520=CARTESIAN_POINT('',(-9.40000000000001,11.0,-7.99999999999997));
#521=CARTESIAN_POINT('',(-9.40000000000001,11.0,-7.99999999999997));
#522=VECTOR('',#627,1.0);
#523=CARTESIAN_POINT('',(-10.9999999999999,11.0,-6.40000000000003));
#524=CARTESIAN_POINT('',(-10.9999999999999,11.0,-6.40000000000003));
#525=VECTOR('',#628,0.999999999999999);
#526=CARTESIAN_POINT('',(-10.9999999999999,11.0,0.0));
#527=CARTESIAN_POINT('',(-10.9999999999999,11.0,0.0));
#528=VECTOR('',#629,1.0);
#529=CARTESIAN_POINT('',(-6.79999999999995,11.0,0.0));
#530=CARTESIAN_POINT('',(-6.79999999999995,11.0,0.0));
#531=VECTOR('',#630,1.0);
#532=CARTESIAN_POINT('',(-6.79999999999995,11.0,8.0));
#533=CARTESIAN_POINT('',(-6.79999999999995,11.0,8.0));
#534=VECTOR('',#631,1.0);
#535=CARTESIAN_POINT('',(6.80000000000001,11.0,8.0));
#536=CARTESIAN_POINT('',(6.80000000000001,11.0,8.0));
#537=VECTOR('',#632,1.0);
#538=CARTESIAN_POINT('',(6.80000000000001,11.0,0.0));
#539=VECTOR('',#633,1.0);
#540=COLOUR_RGB('',0.184313729405403,0.184313729405403,0.184313729405403);
#541=CARTESIAN_POINT('',(-6.79999999999995,-11.0,8.0));
#542=CARTESIAN_POINT('',(-6.79999999999995,1.17464988216474E-014,8.0));
#543=VECTOR('',#634,1.0);
#544=CARTESIAN_POINT('',(6.80000000000001,-11.0,8.0));
#545=CARTESIAN_POINT('',(6.80000000000001,-11.0,8.0));
#546=VECTOR('',#635,1.0);
#547=CARTESIAN_POINT('',(6.80000000000001,1.17464988216474E-014,8.0));
#548=VECTOR('',#636,1.0);
#549=COLOUR_RGB('',0.184313729405403,0.184313729405403,0.184313729405403);
#550=CARTESIAN_POINT('',(-9.40000000000001,-11.0,-7.99999999999997));
#551=CARTESIAN_POINT('',(-9.40000000000001,1.07668137385895E-014,-7.99999999999997));
#552=VECTOR('',#637,1.0);
#553=CARTESIAN_POINT('',(9.40000000000009,-11.0,-7.99999999999997));
#554=CARTESIAN_POINT('',(9.40000000000009,1.07668137385895E-014,-7.99999999999997));
#555=VECTOR('',#638,1.0);
#556=CARTESIAN_POINT('',(-9.40000000000001,-11.0,-7.99999999999997));
#557=VECTOR('',#639,1.0);
#558=COLOUR_RGB('',0.184313729405403,0.184313729405403,0.184313729405403);
#559=CARTESIAN_POINT('',(11.0,-11.0,-6.40000000000001));
#560=CARTESIAN_POINT('',(9.40000000000009,-11.0,-7.99999999999997));
#561=VECTOR('',#640,1.0);
#562=CARTESIAN_POINT('',(11.0,1.08647822468953E-014,-6.40000000000001));
#563=VECTOR('',#641,1.0);
#564=COLOUR_RGB('',0.184313729405403,0.184313729405403,0.184313729405403);
#565=CARTESIAN_POINT('',(-10.9999999999999,-11.0,-6.40000000000003));
#566=CARTESIAN_POINT('',(-10.9999999999999,-11.0,-6.40000000000003));
#567=VECTOR('',#642,0.999999999999999);
#568=CARTESIAN_POINT('',(-10.9999999999999,1.08647822468953E-014,-6.40000000000003));
#569=VECTOR('',#643,1.0);
#570=COLOUR_RGB('',0.184313729405403,0.184313729405403,0.184313729405403);
#571=CARTESIAN_POINT('',(-10.9999999999999,-11.0,0.0));
#572=CARTESIAN_POINT('',(-10.9999999999999,-11.0,0.0));
#573=VECTOR('',#644,1.0);
#574=CARTESIAN_POINT('',(-10.9999999999999,1.12566562801184E-014,0.0));
#575=VECTOR('',#645,1.0);
#576=COLOUR_RGB('',0.184313729405403,0.184313729405403,0.184313729405403);
#577=CARTESIAN_POINT('',(-6.79999999999995,-11.0,0.0));
#578=CARTESIAN_POINT('',(-6.79999999999995,-11.0,0.0));
#579=VECTOR('',#646,1.0);
#580=CARTESIAN_POINT('',(-6.79999999999995,1.12566562801184E-014,0.0));
#581=VECTOR('',#647,1.0);
#582=COLOUR_RGB('',0.184313729405403,0.184313729405403,0.184313729405403);
#583=CARTESIAN_POINT('',(-6.79999999999995,-11.0,8.0));
#584=VECTOR('',#648,1.0);
#585=COLOUR_RGB('',0.184313729405403,0.184313729405403,0.184313729405403);
#586=CARTESIAN_POINT('',(6.80000000000001,-11.0,0.0));
#587=CARTESIAN_POINT('',(6.80000000000001,-11.0,0.0));
#588=VECTOR('',#649,1.0);
#589=CARTESIAN_POINT('',(6.80000000000001,1.12566562801184E-014,0.0));
#590=VECTOR('',#650,1.0);
#591=COLOUR_RGB('',0.184313729405403,0.184313729405403,0.184313729405403);
#592=CARTESIAN_POINT('',(11.0,-11.0,0.0));
#593=CARTESIAN_POINT('',(11.0,-11.0,0.0));
#594=VECTOR('',#651,1.0);
#595=CARTESIAN_POINT('',(11.0,1.12566562801184E-014,0.0));
#596=VECTOR('',#652,1.0);
#597=COLOUR_RGB('',0.184313729405403,0.184313729405403,0.184313729405403);
#598=CARTESIAN_POINT('',(11.0,-11.0,-6.40000000000001));
#599=VECTOR('',#653,1.0);
#600=COLOUR_RGB('',0.184313729405403,0.184313729405403,0.184313729405403);
#601=COLOUR_RGB('',0.509803950786591,0.509803950786591,0.588235318660736);
#602=DIRECTION('',(-0.866025407230549,1.06054021626614E-016,-0.499999994031163));
#603=CARTESIAN_POINT('',(0.0,0.0,8.0));
#604=DIRECTION('',(0.0,-6.12303176911189E-017,-1.0));
#605=DIRECTION('',(1.0,0.0,0.0));
#606=DIRECTION('',(-0.866025407230549,1.06054021626614E-016,0.499999994031163));
#607=CARTESIAN_POINT('',(0.0,0.0,7.71132487));
#608=DIRECTION('',(0.0,0.0,1.0));
#609=DIRECTION('',(1.0,0.0,0.0));
#610=DIRECTION('',(-0.0,0.0,-1.0));
#611=DIRECTION('',(-0.0,0.0,1.0));
#612=CARTESIAN_POINT('',(0.0,0.0,-7.99999999999997));
#613=DIRECTION('',(-0.0,6.12303176911189E-017,1.0));
#614=DIRECTION('',(1.0,0.0,0.0));
#615=CARTESIAN_POINT('',(0.0,0.0,-7.99999999999997));
#616=DIRECTION('',(-0.0,6.12303176911189E-017,1.0));
#617=DIRECTION('',(1.0,0.0,0.0));
#618=CARTESIAN_POINT('',(0.0,0.0,7.71132487));
#619=DIRECTION('',(0.0,0.0,1.0));
#620=DIRECTION('',(1.0,0.0,0.0));
#621=CARTESIAN_POINT('',(0.0,0.0,8.0));
#622=DIRECTION('',(0.0,-6.12303176911189E-017,-1.0));
#623=DIRECTION('',(1.0,0.0,0.0));
#624=DIRECTION('',(-1.0,0.0,0.0));
#625=DIRECTION('',(0.0,6.12303176911189E-017,1.0));
#626=DIRECTION('',(0.707106781186541,4.32963728535972E-017,0.707106781186554));
#627=DIRECTION('',(1.0,0.0,0.0));
#628=DIRECTION('',(0.707106781186548,-4.32963728535968E-017,-0.707106781186548));
#629=DIRECTION('',(0.0,-6.12303176911189E-017,-1.0));
#630=DIRECTION('',(-1.0,0.0,0.0));
#631=DIRECTION('',(0.0,-6.12303176911189E-017,-1.0));
#632=DIRECTION('',(-1.0,0.0,0.0));
#633=DIRECTION('',(0.0,6.12303176911189E-017,1.0));
#634=DIRECTION('',(0.0,-1.0,6.12303176911189E-017));
#635=DIRECTION('',(1.0,0.0,0.0));
#636=DIRECTION('',(0.0,-1.0,6.12303176911189E-017));
#637=DIRECTION('',(0.0,-1.0,6.12303176911189E-017));
#638=DIRECTION('',(0.0,-1.0,6.12303176911189E-017));
#639=DIRECTION('',(-1.0,0.0,0.0));
#640=DIRECTION('',(-0.707106781186541,-4.32963728535972E-017,-0.707106781186554));
#641=DIRECTION('',(0.0,1.0,-6.12303176911189E-017));
#642=DIRECTION('',(-0.707106781186548,4.32963728535968E-017,0.707106781186548));
#643=DIRECTION('',(0.0,-1.0,6.12303176911189E-017));
#644=DIRECTION('',(0.0,6.12303176911189E-017,1.0));
#645=DIRECTION('',(0.0,-1.0,6.12303176911189E-017));
#646=DIRECTION('',(1.0,0.0,0.0));
#647=DIRECTION('',(0.0,-1.0,6.12303176911189E-017));
#648=DIRECTION('',(0.0,6.12303176911189E-017,1.0));
#649=DIRECTION('',(0.0,-6.12303176911189E-017,-1.0));
#650=DIRECTION('',(0.0,-1.0,6.12303176911189E-017));
#651=DIRECTION('',(1.0,0.0,0.0));
#652=DIRECTION('',(0.0,-1.0,6.12303176911189E-017));
#653=DIRECTION('',(0.0,-6.12303176911189E-017,-1.0));
ENDSEC;
END-ISO-10303-21;
