ISO-10303-21;
HEADER;
FILE_DESCRIPTION(('STEP AP214'),'1');
FILE_NAME('C:/temp/halder/09_10_2014/CAD/Temp/HALDERN_EH_23020_0640.stp','2014-10-09T11:17:38',('TraceParts'),('TraceParts S.A.'),'Spatial InterOp 3D',' ',' ');
FILE_SCHEMA(('automotive_design'));
ENDSEC;
DATA;
#1=MECHANICAL_DESIGN_GEOMETRIC_PRESENTATION_REPRESENTATION(' ',(#10,#11,#12,#13,#14,#15,#16,#17,#18,#19,#20,#21,#22,#23,#24,#25,#26),#6);
#2=PRODUCT_DEFINITION_CONTEXT('',#27,'design');
#3=APPLICATION_PROTOCOL_DEFINITION('INTERNATIONAL STANDARD','automotive_design',1994,#27);
#4=PRODUCT_CATEGORY_RELATIONSHIP('NONE','NONE',#28,#29);
#5=SHAPE_DEFINITION_REPRESENTATION(#30,#31);
#6= (GEOMETRIC_REPRESENTATION_CONTEXT(3)GLOBAL_UNCERTAINTY_ASSIGNED_CONTEXT((#34))GLOBAL_UNIT_ASSIGNED_CONTEXT((#36,#37,#38))REPRESENTATION_CONTEXT('NONE','WORKSPACE'));
#10=STYLED_ITEM('',(#40),#41);
#11=STYLED_ITEM('',(#42),#43);
#12=STYLED_ITEM('',(#44),#45);
#13=STYLED_ITEM('',(#46),#47);
#14=STYLED_ITEM('',(#48),#49);
#15=STYLED_ITEM('',(#50),#51);
#16=STYLED_ITEM('',(#52),#53);
#17=STYLED_ITEM('',(#54),#55);
#18=STYLED_ITEM('',(#56),#57);
#19=STYLED_ITEM('',(#58),#59);
#20=STYLED_ITEM('',(#60),#61);
#21=STYLED_ITEM('',(#62),#63);
#22=STYLED_ITEM('',(#64),#65);
#23=STYLED_ITEM('',(#66),#67);
#24=STYLED_ITEM('',(#68),#69);
#25=STYLED_ITEM('',(#70),#71);
#26=STYLED_ITEM('',(#72),#73);
#27=APPLICATION_CONTEXT(' ');
#28=PRODUCT_CATEGORY('part','NONE');
#29=PRODUCT_RELATED_PRODUCT_CATEGORY('detail',' ',(#74));
#30=PRODUCT_DEFINITION_SHAPE('NONE','NONE',#75);
#31=ADVANCED_BREP_SHAPE_REPRESENTATION('1',(#67,#76),#6);
#34=UNCERTAINTY_MEASURE_WITH_UNIT(LENGTH_MEASURE(1.0E-006),#36,'','');
#36= (CONVERSION_BASED_UNIT('MILLIMETRE',#79)LENGTH_UNIT()NAMED_UNIT(#82));
#37= (NAMED_UNIT(#84)PLANE_ANGLE_UNIT()SI_UNIT($,.RADIAN.));
#38= (NAMED_UNIT(#84)SOLID_ANGLE_UNIT()SI_UNIT($,.STERADIAN.));
#40=PRESENTATION_STYLE_ASSIGNMENT((#90));
#41=ADVANCED_FACE('',(#91),#92,.T.);
#42=PRESENTATION_STYLE_ASSIGNMENT((#93));
#43=ADVANCED_FACE('',(#94),#95,.T.);
#44=PRESENTATION_STYLE_ASSIGNMENT((#96));
#45=ADVANCED_FACE('',(#97),#98,.F.);
#46=PRESENTATION_STYLE_ASSIGNMENT((#99));
#47=ADVANCED_FACE('',(#100),#101,.T.);
#48=PRESENTATION_STYLE_ASSIGNMENT((#102));
#49=ADVANCED_FACE('',(#103),#104,.F.);
#50=PRESENTATION_STYLE_ASSIGNMENT((#105));
#51=ADVANCED_FACE('',(#106,#107),#108,.T.);
#52=PRESENTATION_STYLE_ASSIGNMENT((#109));
#53=ADVANCED_FACE('',(#110),#111,.T.);
#54=PRESENTATION_STYLE_ASSIGNMENT((#112));
#55=ADVANCED_FACE('',(#113),#114,.T.);
#56=PRESENTATION_STYLE_ASSIGNMENT((#115));
#57=ADVANCED_FACE('',(#116),#117,.F.);
#58=PRESENTATION_STYLE_ASSIGNMENT((#118));
#59=ADVANCED_FACE('',(#119),#120,.F.);
#60=PRESENTATION_STYLE_ASSIGNMENT((#121));
#61=ADVANCED_FACE('',(#122,#123),#124,.T.);
#62=PRESENTATION_STYLE_ASSIGNMENT((#125));
#63=ADVANCED_FACE('',(#126),#127,.F.);
#64=PRESENTATION_STYLE_ASSIGNMENT((#128));
#65=ADVANCED_FACE('',(#129),#130,.T.);
#66=PRESENTATION_STYLE_ASSIGNMENT((#131));
#67=MANIFOLD_SOLID_BREP('1',#132);
#68=PRESENTATION_STYLE_ASSIGNMENT((#133));
#69=ADVANCED_FACE('',(#134),#135,.F.);
#70=PRESENTATION_STYLE_ASSIGNMENT((#136));
#71=ADVANCED_FACE('',(#137),#138,.T.);
#72=PRESENTATION_STYLE_ASSIGNMENT((#139));
#73=ADVANCED_FACE('',(#140),#141,.T.);
#74=PRODUCT('1','1','PART-1-DESC',(#142));
#75=PRODUCT_DEFINITION('NONE','NONE',#143,#2);
#76=AXIS2_PLACEMENT_3D('',#144,#145,#146);
#79=LENGTH_MEASURE_WITH_UNIT(LENGTH_MEASURE(1.0),#147);
#82=DIMENSIONAL_EXPONENTS(1.0,0.0,0.0,0.0,0.0,0.0,0.0);
#84=DIMENSIONAL_EXPONENTS(0.0,0.0,0.0,0.0,0.0,0.0,0.0);
#90=SURFACE_STYLE_USAGE(.BOTH.,#148);
#91=FACE_OUTER_BOUND('',#149,.T.);
#92=PLANE('',#150);
#93=SURFACE_STYLE_USAGE(.BOTH.,#151);
#94=FACE_OUTER_BOUND('',#152,.T.);
#95=PLANE('',#153);
#96=SURFACE_STYLE_USAGE(.BOTH.,#154);
#97=FACE_OUTER_BOUND('',#155,.T.);
#98=PLANE('',#156);
#99=SURFACE_STYLE_USAGE(.BOTH.,#157);
#100=FACE_OUTER_BOUND('',#158,.T.);
#101=PLANE('',#159);
#102=SURFACE_STYLE_USAGE(.BOTH.,#160);
#103=FACE_OUTER_BOUND('',#161,.T.);
#104=PLANE('',#162);
#105=SURFACE_STYLE_USAGE(.BOTH.,#163);
#106=FACE_OUTER_BOUND('',#164,.T.);
#107=FACE_BOUND('',#165,.T.);
#108=PLANE('',#166);
#109=SURFACE_STYLE_USAGE(.BOTH.,#167);
#110=FACE_OUTER_BOUND('',#168,.T.);
#111=PLANE('',#169);
#112=SURFACE_STYLE_USAGE(.BOTH.,#170);
#113=FACE_OUTER_BOUND('',#171,.T.);
#114=PLANE('',#172);
#115=SURFACE_STYLE_USAGE(.BOTH.,#173);
#116=FACE_OUTER_BOUND('',#174,.T.);
#117=CYLINDRICAL_SURFACE('',#175,5.09999999999999);
#118=SURFACE_STYLE_USAGE(.BOTH.,#176);
#119=FACE_OUTER_BOUND('',#177,.T.);
#120=CONICAL_SURFACE('',#178,5.52634235730538,1.0471975511966);
#121=SURFACE_STYLE_USAGE(.BOTH.,#179);
#122=FACE_BOUND('',#180,.T.);
#123=FACE_OUTER_BOUND('',#181,.T.);
#124=PLANE('',#182);
#125=SURFACE_STYLE_USAGE(.BOTH.,#183);
#126=FACE_OUTER_BOUND('',#184,.T.);
#127=CONICAL_SURFACE('',#185,5.52634235730538,1.0471975511966);
#128=SURFACE_STYLE_USAGE(.BOTH.,#186);
#129=FACE_OUTER_BOUND('',#187,.T.);
#130=PLANE('',#188);
#131=SURFACE_STYLE_USAGE(.BOTH.,#189);
#132=CLOSED_SHELL('',(#57,#59,#53,#45,#49,#73,#43,#61,#41,#65,#63,#69,#51,#55,#71,#47));
#133=SURFACE_STYLE_USAGE(.BOTH.,#190);
#134=FACE_OUTER_BOUND('',#191,.T.);
#135=CYLINDRICAL_SURFACE('',#192,5.09999999999999);
#136=SURFACE_STYLE_USAGE(.BOTH.,#193);
#137=FACE_OUTER_BOUND('',#194,.T.);
#138=PLANE('',#195);
#139=SURFACE_STYLE_USAGE(.BOTH.,#196);
#140=FACE_OUTER_BOUND('',#197,.T.);
#141=PLANE('',#198);
#142=PRODUCT_CONTEXT('',#27,'mechanical');
#143=PRODUCT_DEFINITION_FORMATION_WITH_SPECIFIED_SOURCE(' ','NONE',#74,.NOT_KNOWN.);
#144=CARTESIAN_POINT('',(0.0,0.0,0.0));
#145=DIRECTION('',(0.0,0.0,1.0));
#146=DIRECTION('',(1.0,0.0,0.0));
#147= (NAMED_UNIT(#82)LENGTH_UNIT()SI_UNIT(.MILLI.,.METRE.));
#148=SURFACE_SIDE_STYLE('',(#200));
#149=EDGE_LOOP('',(#201,#202,#203,#204));
#150=AXIS2_PLACEMENT_3D('',#205,#206,#207);
#151=SURFACE_SIDE_STYLE('',(#208));
#152=EDGE_LOOP('',(#209,#210,#211,#212));
#153=AXIS2_PLACEMENT_3D('',#213,#214,#215);
#154=SURFACE_SIDE_STYLE('',(#216));
#155=EDGE_LOOP('',(#217,#218,#219,#220,#221,#222,#223,#224,#225,#226));
#156=AXIS2_PLACEMENT_3D('',#227,#228,#229);
#157=SURFACE_SIDE_STYLE('',(#230));
#158=EDGE_LOOP('',(#231,#232,#233,#234));
#159=AXIS2_PLACEMENT_3D('',#235,#236,#237);
#160=SURFACE_SIDE_STYLE('',(#238));
#161=EDGE_LOOP('',(#239,#240,#241,#242,#243,#244,#245,#246,#247,#248));
#162=AXIS2_PLACEMENT_3D('',#249,#250,#251);
#163=SURFACE_SIDE_STYLE('',(#252));
#164=EDGE_LOOP('',(#253,#254,#255,#256));
#165=EDGE_LOOP('',(#257,#258));
#166=AXIS2_PLACEMENT_3D('',#259,#260,#261);
#167=SURFACE_SIDE_STYLE('',(#262));
#168=EDGE_LOOP('',(#263,#264,#265,#266));
#169=AXIS2_PLACEMENT_3D('',#267,#268,#269);
#170=SURFACE_SIDE_STYLE('',(#270));
#171=EDGE_LOOP('',(#271,#272,#273,#274));
#172=AXIS2_PLACEMENT_3D('',#275,#276,#277);
#173=SURFACE_SIDE_STYLE('',(#278));
#174=EDGE_LOOP('',(#279,#280,#281,#282,#283));
#175=AXIS2_PLACEMENT_3D('',#284,#285,#286);
#176=SURFACE_SIDE_STYLE('',(#287));
#177=EDGE_LOOP('',(#288,#289,#290,#291,#292,#293));
#178=AXIS2_PLACEMENT_3D('',#294,#295,#296);
#179=SURFACE_SIDE_STYLE('',(#297));
#180=EDGE_LOOP('',(#298,#299,#300));
#181=EDGE_LOOP('',(#301,#302,#303,#304));
#182=AXIS2_PLACEMENT_3D('',#305,#306,#307);
#183=SURFACE_SIDE_STYLE('',(#308));
#184=EDGE_LOOP('',(#309,#310,#311,#312,#313));
#185=AXIS2_PLACEMENT_3D('',#314,#315,#316);
#186=SURFACE_SIDE_STYLE('',(#317));
#187=EDGE_LOOP('',(#318,#319,#320,#321));
#188=AXIS2_PLACEMENT_3D('',#322,#323,#324);
#189=SURFACE_SIDE_STYLE('',(#325));
#190=SURFACE_SIDE_STYLE('',(#326));
#191=EDGE_LOOP('',(#327,#328,#329,#330,#331));
#192=AXIS2_PLACEMENT_3D('',#332,#333,#334);
#193=SURFACE_SIDE_STYLE('',(#335));
#194=EDGE_LOOP('',(#336,#337,#338,#339));
#195=AXIS2_PLACEMENT_3D('',#340,#341,#342);
#196=SURFACE_SIDE_STYLE('',(#343));
#197=EDGE_LOOP('',(#344,#345,#346,#347));
#198=AXIS2_PLACEMENT_3D('',#348,#349,#350);
#200=SURFACE_STYLE_FILL_AREA(#351);
#201=ORIENTED_EDGE('',*,*,#352,.T.);
#202=ORIENTED_EDGE('',*,*,#353,.F.);
#203=ORIENTED_EDGE('',*,*,#354,.T.);
#204=ORIENTED_EDGE('',*,*,#355,.T.);
#205=CARTESIAN_POINT('',(6.80000000000001,9.71507712926341E-015,8.0));
#206=DIRECTION('',(1.0,0.0,0.0));
#207=DIRECTION('',(0.0,1.0,-6.12303176911189E-017));
#208=SURFACE_STYLE_FILL_AREA(#356);
#209=ORIENTED_EDGE('',*,*,#357,.T.);
#210=ORIENTED_EDGE('',*,*,#358,.F.);
#211=ORIENTED_EDGE('',*,*,#359,.T.);
#212=ORIENTED_EDGE('',*,*,#360,.T.);
#213=CARTESIAN_POINT('',(-6.80000000000001,9.22523458773445E-015,0.0));
#214=DIRECTION('',(-1.0,0.0,0.0));
#215=DIRECTION('',(0.0,-1.0,6.12303176911189E-017));
#216=SURFACE_STYLE_FILL_AREA(#361);
#217=ORIENTED_EDGE('',*,*,#362,.F.);
#218=ORIENTED_EDGE('',*,*,#363,.F.);
#219=ORIENTED_EDGE('',*,*,#364,.F.);
#220=ORIENTED_EDGE('',*,*,#359,.F.);
#221=ORIENTED_EDGE('',*,*,#365,.F.);
#222=ORIENTED_EDGE('',*,*,#354,.F.);
#223=ORIENTED_EDGE('',*,*,#366,.F.);
#224=ORIENTED_EDGE('',*,*,#367,.F.);
#225=ORIENTED_EDGE('',*,*,#368,.F.);
#226=ORIENTED_EDGE('',*,*,#369,.F.);
#227=CARTESIAN_POINT('',(11.0,20.6166522241371,-8.0));
#228=DIRECTION('',(0.707106781186548,-0.707106781186548,0.0));
#229=DIRECTION('',(0.0,0.0,-1.0));
#230=SURFACE_STYLE_FILL_AREA(#370);
#231=ORIENTED_EDGE('',*,*,#363,.T.);
#232=ORIENTED_EDGE('',*,*,#371,.T.);
#233=ORIENTED_EDGE('',*,*,#372,.T.);
#234=ORIENTED_EDGE('',*,*,#373,.F.);
#235=CARTESIAN_POINT('',(-11.0,8.8884678404333E-015,-5.49999999999997));
#236=DIRECTION('',(-1.0,0.0,0.0));
#237=DIRECTION('',(0.0,-1.0,6.12303176911189E-017));
#238=SURFACE_STYLE_FILL_AREA(#374);
#239=ORIENTED_EDGE('',*,*,#375,.F.);
#240=ORIENTED_EDGE('',*,*,#372,.F.);
#241=ORIENTED_EDGE('',*,*,#376,.F.);
#242=ORIENTED_EDGE('',*,*,#377,.F.);
#243=ORIENTED_EDGE('',*,*,#378,.F.);
#244=ORIENTED_EDGE('',*,*,#379,.F.);
#245=ORIENTED_EDGE('',*,*,#380,.F.);
#246=ORIENTED_EDGE('',*,*,#352,.F.);
#247=ORIENTED_EDGE('',*,*,#381,.F.);
#248=ORIENTED_EDGE('',*,*,#357,.F.);
#249=CARTESIAN_POINT('',(-11.0,-20.616652224137,-8.0));
#250=DIRECTION('',(-0.707106781186548,0.707106781186547,0.0));
#251=DIRECTION('',(0.0,0.0,1.0));
#252=SURFACE_STYLE_FILL_AREA(#382);
#253=ORIENTED_EDGE('',*,*,#383,.T.);
#254=ORIENTED_EDGE('',*,*,#377,.T.);
#255=ORIENTED_EDGE('',*,*,#384,.F.);
#256=ORIENTED_EDGE('',*,*,#369,.T.);
#257=ORIENTED_EDGE('',*,*,#385,.T.);
#258=ORIENTED_EDGE('',*,*,#386,.T.);
#259=CARTESIAN_POINT('',(8.49999999999997,8.7353920462055E-015,-8.00000000000003));
#260=DIRECTION('',(0.0,-6.12303176911189E-017,-1.0));
#261=DIRECTION('',(0.0,1.0,-6.12303176911189E-017));
#262=SURFACE_STYLE_FILL_AREA(#387);
#263=ORIENTED_EDGE('',*,*,#367,.T.);
#264=ORIENTED_EDGE('',*,*,#388,.F.);
#265=ORIENTED_EDGE('',*,*,#379,.T.);
#266=ORIENTED_EDGE('',*,*,#389,.T.);
#267=CARTESIAN_POINT('',(11.0,8.8884678404333E-015,-5.5));
#268=DIRECTION('',(1.0,0.0,0.0));
#269=DIRECTION('',(0.0,1.0,-6.12303176911189E-017));
#270=SURFACE_STYLE_FILL_AREA(#390);
#271=ORIENTED_EDGE('',*,*,#378,.T.);
#272=ORIENTED_EDGE('',*,*,#383,.F.);
#273=ORIENTED_EDGE('',*,*,#368,.T.);
#274=ORIENTED_EDGE('',*,*,#389,.F.);
#275=CARTESIAN_POINT('',(11.0,8.8884678404333E-015,-5.5));
#276=DIRECTION('',(0.707106781186548,-4.32963728535968E-017,-0.707106781186548));
#277=DIRECTION('',(-1.07031965039769E-033,1.0,-6.12303176911189E-017));
#278=SURFACE_STYLE_FILL_AREA(#391);
#279=ORIENTED_EDGE('',*,*,#392,.F.);
#280=ORIENTED_EDGE('',*,*,#386,.F.);
#281=ORIENTED_EDGE('',*,*,#393,.F.);
#282=ORIENTED_EDGE('',*,*,#394,.T.);
#283=ORIENTED_EDGE('',*,*,#395,.T.);
#284=CARTESIAN_POINT('',(0.0,0.0,8.00000000000003));
#285=DIRECTION('',(0.0,0.0,-1.0));
#286=DIRECTION('',(1.0,0.0,0.0));
#287=SURFACE_STYLE_FILL_AREA(#396);
#288=ORIENTED_EDGE('',*,*,#397,.F.);
#289=ORIENTED_EDGE('',*,*,#398,.F.);
#290=ORIENTED_EDGE('',*,*,#395,.F.);
#291=ORIENTED_EDGE('',*,*,#399,.F.);
#292=ORIENTED_EDGE('',*,*,#400,.F.);
#293=ORIENTED_EDGE('',*,*,#401,.F.);
#294=CARTESIAN_POINT('',(0.0,9.71507712926341E-015,7.72653363248654));
#295=DIRECTION('',(-0.0,-0.0,1.0));
#296=DIRECTION('',(-5.46120614316429E-017,1.0,0.0));
#297=SURFACE_STYLE_FILL_AREA(#402);
#298=ORIENTED_EDGE('',*,*,#400,.T.);
#299=ORIENTED_EDGE('',*,*,#403,.T.);
#300=ORIENTED_EDGE('',*,*,#401,.T.);
#301=ORIENTED_EDGE('',*,*,#355,.F.);
#302=ORIENTED_EDGE('',*,*,#365,.T.);
#303=ORIENTED_EDGE('',*,*,#358,.T.);
#304=ORIENTED_EDGE('',*,*,#381,.T.);
#305=CARTESIAN_POINT('',(-6.80000000000001,9.71507712926341E-015,8.0));
#306=DIRECTION('',(0.0,6.12303176911189E-017,1.0));
#307=DIRECTION('',(0.0,-1.0,6.12303176911189E-017));
#308=SURFACE_STYLE_FILL_AREA(#404);
#309=ORIENTED_EDGE('',*,*,#397,.T.);
#310=ORIENTED_EDGE('',*,*,#403,.F.);
#311=ORIENTED_EDGE('',*,*,#399,.T.);
#312=ORIENTED_EDGE('',*,*,#394,.F.);
#313=ORIENTED_EDGE('',*,*,#405,.F.);
#314=CARTESIAN_POINT('',(0.0,9.71507712926341E-015,7.72653363248654));
#315=DIRECTION('',(-0.0,-0.0,1.0));
#316=DIRECTION('',(-5.46120614316429E-017,1.0,0.0));
#317=SURFACE_STYLE_FILL_AREA(#406);
#318=ORIENTED_EDGE('',*,*,#380,.T.);
#319=ORIENTED_EDGE('',*,*,#388,.T.);
#320=ORIENTED_EDGE('',*,*,#366,.T.);
#321=ORIENTED_EDGE('',*,*,#353,.T.);
#322=CARTESIAN_POINT('',(6.80000000000001,9.22523458773445E-015,0.0));
#323=DIRECTION('',(0.0,6.12303176911189E-017,1.0));
#324=DIRECTION('',(0.0,-1.0,6.12303176911189E-017));
#325=SURFACE_STYLE_FILL_AREA(#407);
#326=SURFACE_STYLE_FILL_AREA(#408);
#327=ORIENTED_EDGE('',*,*,#392,.T.);
#328=ORIENTED_EDGE('',*,*,#398,.T.);
#329=ORIENTED_EDGE('',*,*,#405,.T.);
#330=ORIENTED_EDGE('',*,*,#393,.T.);
#331=ORIENTED_EDGE('',*,*,#385,.F.);
#332=CARTESIAN_POINT('',(0.0,0.0,8.00000000000003));
#333=DIRECTION('',(0.0,0.0,-1.0));
#334=DIRECTION('',(1.0,0.0,0.0));
#335=SURFACE_STYLE_FILL_AREA(#409);
#336=ORIENTED_EDGE('',*,*,#362,.T.);
#337=ORIENTED_EDGE('',*,*,#384,.T.);
#338=ORIENTED_EDGE('',*,*,#376,.T.);
#339=ORIENTED_EDGE('',*,*,#371,.F.);
#340=CARTESIAN_POINT('',(-8.49999999999989,8.7353920462055E-015,-8.00000000000003));
#341=DIRECTION('',(-0.707106781186539,-4.32963728535973E-017,-0.707106781186556));
#342=DIRECTION('',(1.4661038551173E-033,-1.0,6.12303176911189E-017));
#343=SURFACE_STYLE_FILL_AREA(#410);
#344=ORIENTED_EDGE('',*,*,#364,.T.);
#345=ORIENTED_EDGE('',*,*,#373,.T.);
#346=ORIENTED_EDGE('',*,*,#375,.T.);
#347=ORIENTED_EDGE('',*,*,#360,.F.);
#348=CARTESIAN_POINT('',(-11.0,9.22523458773445E-015,0.0));
#349=DIRECTION('',(0.0,6.12303176911189E-017,1.0));
#350=DIRECTION('',(0.0,-1.0,6.12303176911189E-017));
#351=FILL_AREA_STYLE('',(#411));
#352=EDGE_CURVE('',#412,#413,#414,.T.);
#353=EDGE_CURVE('',#415,#413,#416,.T.);
#354=EDGE_CURVE('',#415,#417,#418,.T.);
#355=EDGE_CURVE('',#417,#412,#419,.T.);
#356=FILL_AREA_STYLE('',(#420));
#357=EDGE_CURVE('',#421,#422,#423,.T.);
#358=EDGE_CURVE('',#424,#422,#425,.T.);
#359=EDGE_CURVE('',#424,#426,#427,.T.);
#360=EDGE_CURVE('',#426,#421,#428,.T.);
#361=FILL_AREA_STYLE('',(#429));
#362=EDGE_CURVE('',#430,#431,#432,.T.);
#363=EDGE_CURVE('',#433,#430,#434,.T.);
#364=EDGE_CURVE('',#426,#433,#435,.T.);
#365=EDGE_CURVE('',#417,#424,#436,.T.);
#366=EDGE_CURVE('',#437,#415,#438,.T.);
#367=EDGE_CURVE('',#439,#437,#440,.T.);
#368=EDGE_CURVE('',#441,#439,#442,.T.);
#369=EDGE_CURVE('',#431,#441,#443,.T.);
#370=FILL_AREA_STYLE('',(#444));
#371=EDGE_CURVE('',#430,#445,#446,.T.);
#372=EDGE_CURVE('',#445,#447,#448,.T.);
#373=EDGE_CURVE('',#433,#447,#449,.T.);
#374=FILL_AREA_STYLE('',(#450));
#375=EDGE_CURVE('',#447,#421,#451,.T.);
#376=EDGE_CURVE('',#452,#445,#453,.T.);
#377=EDGE_CURVE('',#454,#452,#455,.T.);
#378=EDGE_CURVE('',#456,#454,#457,.T.);
#379=EDGE_CURVE('',#458,#456,#459,.T.);
#380=EDGE_CURVE('',#413,#458,#460,.T.);
#381=EDGE_CURVE('',#422,#412,#461,.T.);
#382=FILL_AREA_STYLE('',(#462));
#383=EDGE_CURVE('',#441,#454,#463,.T.);
#384=EDGE_CURVE('',#431,#452,#464,.T.);
#385=EDGE_CURVE('',#465,#466,#467,.T.);
#386=EDGE_CURVE('',#466,#465,#468,.T.);
#387=FILL_AREA_STYLE('',(#469));
#388=EDGE_CURVE('',#458,#437,#470,.T.);
#389=EDGE_CURVE('',#456,#439,#471,.T.);
#390=FILL_AREA_STYLE('',(#472));
#391=FILL_AREA_STYLE('',(#473));
#392=EDGE_CURVE('',#465,#474,#475,.T.);
#393=EDGE_CURVE('',#476,#466,#477,.T.);
#394=EDGE_CURVE('',#476,#478,#479,.T.);
#395=EDGE_CURVE('',#478,#474,#480,.T.);
#396=FILL_AREA_STYLE('',(#481));
#397=EDGE_CURVE('',#482,#483,#484,.T.);
#398=EDGE_CURVE('',#474,#482,#485,.T.);
#399=EDGE_CURVE('',#486,#478,#487,.T.);
#400=EDGE_CURVE('',#488,#486,#489,.T.);
#401=EDGE_CURVE('',#483,#488,#490,.T.);
#402=FILL_AREA_STYLE('',(#491));
#403=EDGE_CURVE('',#486,#483,#492,.T.);
#404=FILL_AREA_STYLE('',(#493));
#405=EDGE_CURVE('',#482,#476,#494,.T.);
#406=FILL_AREA_STYLE('',(#495));
#407=FILL_AREA_STYLE('',(#496));
#408=FILL_AREA_STYLE('',(#497));
#409=FILL_AREA_STYLE('',(#498));
#410=FILL_AREA_STYLE('',(#499));
#411=FILL_AREA_STYLE_COLOUR('',#500);
#412=VERTEX_POINT('',#501);
#413=VERTEX_POINT('',#502);
#414=LINE('',#503,#504);
#415=VERTEX_POINT('',#505);
#416=LINE('',#506,#507);
#417=VERTEX_POINT('',#508);
#418=LINE('',#509,#510);
#419=LINE('',#511,#512);
#420=FILL_AREA_STYLE_COLOUR('',#513);
#421=VERTEX_POINT('',#514);
#422=VERTEX_POINT('',#515);
#423=LINE('',#516,#517);
#424=VERTEX_POINT('',#518);
#425=LINE('',#519,#520);
#426=VERTEX_POINT('',#521);
#427=LINE('',#522,#523);
#428=LINE('',#524,#525);
#429=FILL_AREA_STYLE_COLOUR('',#526);
#430=VERTEX_POINT('',#527);
#431=VERTEX_POINT('',#528);
#432=LINE('',#529,#530);
#433=VERTEX_POINT('',#531);
#434=LINE('',#532,#533);
#435=LINE('',#534,#535);
#436=LINE('',#536,#537);
#437=VERTEX_POINT('',#538);
#438=LINE('',#539,#540);
#439=VERTEX_POINT('',#541);
#440=LINE('',#542,#543);
#441=VERTEX_POINT('',#544);
#442=LINE('',#545,#546);
#443=LINE('',#547,#548);
#444=FILL_AREA_STYLE_COLOUR('',#549);
#445=VERTEX_POINT('',#550);
#446=LINE('',#551,#552);
#447=VERTEX_POINT('',#553);
#448=LINE('',#554,#555);
#449=LINE('',#556,#557);
#450=FILL_AREA_STYLE_COLOUR('',#558);
#451=LINE('',#559,#560);
#452=VERTEX_POINT('',#561);
#453=LINE('',#562,#563);
#454=VERTEX_POINT('',#564);
#455=LINE('',#565,#566);
#456=VERTEX_POINT('',#567);
#457=LINE('',#568,#569);
#458=VERTEX_POINT('',#570);
#459=LINE('',#571,#572);
#460=LINE('',#573,#574);
#461=LINE('',#575,#576);
#462=FILL_AREA_STYLE_COLOUR('',#577);
#463=LINE('',#578,#579);
#464=LINE('',#580,#581);
#465=VERTEX_POINT('',#582);
#466=VERTEX_POINT('',#583);
#467=CIRCLE('',#584,5.09999999999999);
#468=CIRCLE('',#585,5.09999999999999);
#469=FILL_AREA_STYLE_COLOUR('',#586);
#470=LINE('',#587,#588);
#471=LINE('',#589,#590);
#472=FILL_AREA_STYLE_COLOUR('',#591);
#473=FILL_AREA_STYLE_COLOUR('',#592);
#474=VERTEX_POINT('',#593);
#475=LINE('',#594,#595);
#476=VERTEX_POINT('',#596);
#477=LINE('',#597,#598);
#478=VERTEX_POINT('',#599);
#479=CIRCLE('',#600,5.09999999999999);
#480=CIRCLE('',#601,5.09999999999999);
#481=FILL_AREA_STYLE_COLOUR('',#602);
#482=VERTEX_POINT('',#603);
#483=VERTEX_POINT('',#604);
#484=LINE('',#605,#606);
#485=CIRCLE('',#607,5.09999999999999);
#486=VERTEX_POINT('',#608);
#487=LINE('',#609,#610);
#488=VERTEX_POINT('',#611);
#489=CIRCLE('',#612,6.0);
#490=CIRCLE('',#613,6.0);
#491=FILL_AREA_STYLE_COLOUR('',#614);
#492=CIRCLE('',#615,6.0);
#493=FILL_AREA_STYLE_COLOUR('',#616);
#494=CIRCLE('',#617,5.09999999999999);
#495=FILL_AREA_STYLE_COLOUR('',#618);
#496=FILL_AREA_STYLE_COLOUR('',#619);
#497=FILL_AREA_STYLE_COLOUR('',#620);
#498=FILL_AREA_STYLE_COLOUR('',#621);
#499=FILL_AREA_STYLE_COLOUR('',#622);
#500=COLOUR_RGB('',0.509803950786591,0.509803950786591,0.588235318660736);
#501=CARTESIAN_POINT('',(6.80000000000001,-2.81665222413702,8.0));
#502=CARTESIAN_POINT('',(6.80000000000001,-2.81665222413702,1.72464510509307E-016));
#503=CARTESIAN_POINT('',(6.80000000000001,-2.81665222413702,0.0));
#504=VECTOR('',#623,1.0);
#505=CARTESIAN_POINT('',(6.80000000000001,16.4166522241371,-1.00519683110853E-015));
#506=CARTESIAN_POINT('',(6.80000000000001,9.22523458773445E-015,0.0));
#507=VECTOR('',#624,1.0);
#508=CARTESIAN_POINT('',(6.80000000000001,16.4166522241371,8.0));
#509=CARTESIAN_POINT('',(6.80000000000001,16.4166522241371,-4.0));
#510=VECTOR('',#625,1.0);
#511=CARTESIAN_POINT('',(6.80000000000001,9.71507712926341E-015,8.0));
#512=VECTOR('',#626,1.0);
#513=COLOUR_RGB('',0.509803950786591,0.509803950786591,0.588235318660736);
#514=CARTESIAN_POINT('',(-6.80000000000001,-16.4166522241371,1.00519683110853E-015));
#515=CARTESIAN_POINT('',(-6.80000000000001,-16.4166522241371,8.0));
#516=CARTESIAN_POINT('',(-6.80000000000001,-16.4166522241371,-4.0));
#517=VECTOR('',#627,1.0);
#518=CARTESIAN_POINT('',(-6.80000000000001,2.81665222413704,8.0));
#519=CARTESIAN_POINT('',(-6.80000000000001,9.71507712926341E-015,8.0));
#520=VECTOR('',#628,1.0);
#521=CARTESIAN_POINT('',(-6.80000000000001,2.81665222413704,-1.72464510509307E-016));
#522=CARTESIAN_POINT('',(-6.80000000000001,2.81665222413704,0.0));
#523=VECTOR('',#629,1.0);
#524=CARTESIAN_POINT('',(-6.80000000000001,9.22523458773445E-015,0.0));
#525=VECTOR('',#630,1.0);
#526=COLOUR_RGB('',0.509803950786591,0.509803950786591,0.588235318660736);
#527=CARTESIAN_POINT('',(-11.0,-1.38334777586294,-5.49999999999997));
#528=CARTESIAN_POINT('',(-8.49999999999991,1.11665222413714,-8.0));
#529=CARTESIAN_POINT('',(-3.01944203735606,6.597210186781,-13.4805579626437));
#530=VECTOR('',#631,1.0);
#531=CARTESIAN_POINT('',(-11.0,-1.38334777586295,8.47028237933915E-017));
#532=CARTESIAN_POINT('',(-11.0,-1.38334777586295,-6.74999999999999));
#533=VECTOR('',#632,1.0);
#534=CARTESIAN_POINT('',(0.345836943965739,9.96248916810279,-8.88178419700125E-016));
#535=VECTOR('',#633,1.0);
#536=CARTESIAN_POINT('',(4.79583694396574,14.4124891681028,8.0));
#537=VECTOR('',#634,1.0);
#538=CARTESIAN_POINT('',(11.0,20.6166522241371,-8.88178419700125E-016));
#539=CARTESIAN_POINT('',(5.84583694396574,15.4624891681028,-8.88178419700125E-016));
#540=VECTOR('',#635,1.0);
#541=CARTESIAN_POINT('',(11.0,20.6166522241371,-5.5));
#542=CARTESIAN_POINT('',(11.0,20.6166522241371,-6.75));
#543=VECTOR('',#636,1.0);
#544=CARTESIAN_POINT('',(8.49999999999997,18.116652224137,-8.00000000000003));
#545=CARTESIAN_POINT('',(6.31389129597715,15.9305435201142,-10.1861087040229));
#546=VECTOR('',#637,1.0);
#547=CARTESIAN_POINT('',(0.970836943965766,10.5874891681028,-8.00000000000003));
#548=VECTOR('',#638,1.0);
#549=COLOUR_RGB('',0.509803950786591,0.509803950786591,0.588235318660736);
#550=CARTESIAN_POINT('',(-11.0,-20.616652224137,-5.49999999999997));
#551=CARTESIAN_POINT('',(-11.0,8.8884678404333E-015,-5.49999999999997));
#552=VECTOR('',#639,1.0);
#553=CARTESIAN_POINT('',(-11.0,-20.616652224137,1.26236416541122E-015));
#554=CARTESIAN_POINT('',(-11.0,-20.616652224137,-6.74999999999999));
#555=VECTOR('',#640,1.0);
#556=CARTESIAN_POINT('',(-11.0,9.22523458773445E-015,0.0));
#557=VECTOR('',#641,1.0);
#558=COLOUR_RGB('',0.509803950786591,0.509803950786591,0.588235318660736);
#559=CARTESIAN_POINT('',(-5.84583694396574,-15.4624891681028,8.88178419700125E-016));
#560=VECTOR('',#642,1.0);
#561=CARTESIAN_POINT('',(-8.49999999999989,-18.1166522241369,-8.00000000000003));
#562=CARTESIAN_POINT('',(-6.31389129597707,-15.9305435201141,-10.1861087040228));
#563=VECTOR('',#643,1.0);
#564=CARTESIAN_POINT('',(8.49999999999997,-1.11665222413706,-8.00000000000003));
#565=CARTESIAN_POINT('',(-0.970836943965748,-10.5874891681028,-8.00000000000003));
#566=VECTOR('',#644,1.0);
#567=CARTESIAN_POINT('',(11.0,1.38334777586297,-5.5));
#568=CARTESIAN_POINT('',(2.18610870402283,-7.4305435201142,-14.3138912959772));
#569=VECTOR('',#645,1.0);
#570=CARTESIAN_POINT('',(11.0,1.38334777586297,0.0));
#571=CARTESIAN_POINT('',(11.0,1.38334777586297,-6.75));
#572=VECTOR('',#646,1.0);
#573=CARTESIAN_POINT('',(-0.34583694396574,-9.96248916810278,8.88178419700125E-016));
#574=VECTOR('',#647,1.0);
#575=CARTESIAN_POINT('',(-4.79583694396574,-14.4124891681028,8.0));
#576=VECTOR('',#648,1.0);
#577=COLOUR_RGB('',0.509803950786591,0.509803950786591,0.588235318660736);
#578=CARTESIAN_POINT('',(8.49999999999997,8.7353920462055E-015,-8.00000000000003));
#579=VECTOR('',#649,1.0);
#580=CARTESIAN_POINT('',(-8.49999999999989,8.7353920462055E-015,-8.00000000000003));
#581=VECTOR('',#650,1.0);
#582=CARTESIAN_POINT('',(5.09999999999999,0.0,-8.0));
#583=CARTESIAN_POINT('',(-5.09999999999999,-6.24549240449412E-016,-8.00000000000003));
#584=AXIS2_PLACEMENT_3D('',#651,#652,#653);
#585=AXIS2_PLACEMENT_3D('',#654,#655,#656);
#586=COLOUR_RGB('',0.509803950786591,0.509803950786591,0.588235318660736);
#587=CARTESIAN_POINT('',(11.0,9.22523458773445E-015,0.0));
#588=VECTOR('',#657,1.0);
#589=CARTESIAN_POINT('',(11.0,8.8884678404333E-015,-5.5));
#590=VECTOR('',#658,1.0);
#591=COLOUR_RGB('',0.509803950786591,0.509803950786591,0.588235318660736);
#592=COLOUR_RGB('',0.509803950786591,0.509803950786591,0.588235318660736);
#593=CARTESIAN_POINT('',(5.09999999999999,9.71507712926341E-015,7.48038475772933));
#594=CARTESIAN_POINT('',(5.09999999999999,6.24549240449412E-016,-0.259807621135348));
#595=VECTOR('',#659,1.0);
#596=CARTESIAN_POINT('',(-5.09999999999999,-6.24549240449412E-016,7.48038475772933));
#597=CARTESIAN_POINT('',(-5.09999999999999,-6.24549240449412E-016,-0.259807621135348));
#598=VECTOR('',#660,1.0);
#599=CARTESIAN_POINT('',(9.03070753750792E-016,-5.09999999999999,7.48038475772933));
#600=AXIS2_PLACEMENT_3D('',#661,#662,#663);
#601=AXIS2_PLACEMENT_3D('',#664,#665,#666);
#602=COLOUR_RGB('',0.509803950786591,0.509803950786591,0.588235318660736);
#603=CARTESIAN_POINT('',(-9.03070753750788E-016,5.09999999999999,7.48038475772933));
#604=CARTESIAN_POINT('',(-1.06243618088328E-015,6.00000000000001,8.0));
#605=CARTESIAN_POINT('',(-9.78564344724842E-016,5.52634235730539,7.72653363248654));
#606=VECTOR('',#667,1.0);
#607=AXIS2_PLACEMENT_3D('',#668,#669,#670);
#608=CARTESIAN_POINT('',(1.06243618088328E-015,-5.99999999999999,8.0));
#609=CARTESIAN_POINT('',(9.78564344724843E-016,-5.52634235730538,7.72653363248654));
#610=VECTOR('',#671,1.0);
#611=CARTESIAN_POINT('',(6.0,9.7150771292634E-015,8.0));
#612=AXIS2_PLACEMENT_3D('',#672,#673,#674);
#613=AXIS2_PLACEMENT_3D('',#675,#676,#677);
#614=COLOUR_RGB('',0.509803950786591,0.509803950786591,0.588235318660736);
#615=AXIS2_PLACEMENT_3D('',#678,#679,#680);
#616=COLOUR_RGB('',0.509803950786591,0.509803950786591,0.588235318660736);
#617=AXIS2_PLACEMENT_3D('',#681,#682,#683);
#618=COLOUR_RGB('',0.509803950786591,0.509803950786591,0.588235318660736);
#619=COLOUR_RGB('',0.509803950786591,0.509803950786591,0.588235318660736);
#620=COLOUR_RGB('',0.509803950786591,0.509803950786591,0.588235318660736);
#621=COLOUR_RGB('',0.509803950786591,0.509803950786591,0.588235318660736);
#622=COLOUR_RGB('',0.509803950786591,0.509803950786591,0.588235318660736);
#623=DIRECTION('',(0.0,0.0,-1.0));
#624=DIRECTION('',(0.0,-1.0,6.12303176911189E-017));
#625=DIRECTION('',(0.0,0.0,1.0));
#626=DIRECTION('',(0.0,-1.0,6.12303176911189E-017));
#627=DIRECTION('',(0.0,0.0,1.0));
#628=DIRECTION('',(0.0,-1.0,6.12303176911189E-017));
#629=DIRECTION('',(0.0,0.0,-1.0));
#630=DIRECTION('',(0.0,-1.0,6.12303176911189E-017));
#631=DIRECTION('',(0.57735026918963,0.57735026918963,-0.577350269189617));
#632=DIRECTION('',(0.0,0.0,-1.0));
#633=DIRECTION('',(-0.707106781186548,-0.707106781186548,4.32963728535968E-017));
#634=DIRECTION('',(-0.707106781186548,-0.707106781186548,4.32963728535968E-017));
#635=DIRECTION('',(-0.707106781186548,-0.707106781186548,4.32963728535968E-017));
#636=DIRECTION('',(0.0,0.0,1.0));
#637=DIRECTION('',(0.577350269189626,0.577350269189626,0.577350269189626));
#638=DIRECTION('',(0.707106781186548,0.707106781186548,-4.32963728535968E-017));
#639=DIRECTION('',(0.0,-1.0,6.12303176911189E-017));
#640=DIRECTION('',(0.0,0.0,1.0));
#641=DIRECTION('',(0.0,-1.0,6.12303176911189E-017));
#642=DIRECTION('',(0.707106781186547,0.707106781186548,-4.32963728535968E-017));
#643=DIRECTION('',(-0.57735026918963,-0.57735026918963,0.577350269189617));
#644=DIRECTION('',(-0.707106781186547,-0.707106781186548,4.32963728535968E-017));
#645=DIRECTION('',(-0.577350269189626,-0.577350269189626,-0.577350269189626));
#646=DIRECTION('',(0.0,0.0,-1.0));
#647=DIRECTION('',(0.707106781186547,0.707106781186548,-4.32963728535968E-017));
#648=DIRECTION('',(0.707106781186547,0.707106781186548,-4.32963728535968E-017));
#649=DIRECTION('',(0.0,-1.0,6.12303176911189E-017));
#650=DIRECTION('',(0.0,-1.0,6.12303176911189E-017));
#651=CARTESIAN_POINT('',(0.0,0.0,-8.00000000000003));
#652=DIRECTION('',(-0.0,6.12303176911189E-017,1.0));
#653=DIRECTION('',(1.0,0.0,0.0));
#654=CARTESIAN_POINT('',(0.0,0.0,-8.00000000000003));
#655=DIRECTION('',(-0.0,6.12303176911189E-017,1.0));
#656=DIRECTION('',(1.0,0.0,0.0));
#657=DIRECTION('',(0.0,1.0,-6.12303176911189E-017));
#658=DIRECTION('',(0.0,1.0,-6.12303176911189E-017));
#659=DIRECTION('',(-0.0,-0.0,1.0));
#660=DIRECTION('',(-0.0,-0.0,-1.0));
#661=CARTESIAN_POINT('',(0.0,0.0,7.48038475772933));
#662=DIRECTION('',(0.0,0.0,1.0));
#663=DIRECTION('',(1.0,0.0,0.0));
#664=CARTESIAN_POINT('',(0.0,0.0,7.48038475772933));
#665=DIRECTION('',(0.0,0.0,1.0));
#666=DIRECTION('',(1.0,0.0,0.0));
#667=DIRECTION('',(-1.5334945375744E-016,0.866025403784439,0.5));
#668=CARTESIAN_POINT('',(0.0,0.0,7.48038475772933));
#669=DIRECTION('',(0.0,0.0,1.0));
#670=DIRECTION('',(1.0,0.0,0.0));
#671=DIRECTION('',(-1.5334945375744E-016,0.866025403784439,-0.5));
#672=CARTESIAN_POINT('',(0.0,9.71507712926341E-015,8.0));
#673=DIRECTION('',(-1.23244150520918E-049,-6.12303176911189E-017,-1.0));
#674=DIRECTION('',(-5.46120614316429E-017,1.0,-6.12303176911189E-017));
#675=CARTESIAN_POINT('',(0.0,9.71507712926341E-015,8.0));
#676=DIRECTION('',(-1.23244150520918E-049,-6.12303176911189E-017,-1.0));
#677=DIRECTION('',(-5.46120614316429E-017,1.0,-6.12303176911189E-017));
#678=CARTESIAN_POINT('',(0.0,9.71507712926341E-015,8.0));
#679=DIRECTION('',(-1.23244150520918E-049,-6.12303176911189E-017,-1.0));
#680=DIRECTION('',(-5.46120614316429E-017,1.0,-6.12303176911189E-017));
#681=CARTESIAN_POINT('',(0.0,0.0,7.48038475772933));
#682=DIRECTION('',(0.0,0.0,1.0));
#683=DIRECTION('',(1.0,0.0,0.0));
ENDSEC;
END-ISO-10303-21;
