ISO-10303-21;
HEADER;
FILE_DESCRIPTION(('STEP AP214'),'1');
FILE_NAME('C:/temp/halder/09_10_2014/CAD/Temp/HALDERN_EH_23020_0700.stp','2014-10-09T11:17:38',('TraceParts'),('TraceParts S.A.'),'Spatial InterOp 3D',' ',' ');
FILE_SCHEMA(('automotive_design'));
ENDSEC;
DATA;
#1=MECHANICAL_DESIGN_GEOMETRIC_PRESENTATION_REPRESENTATION(' ',(#10,#11,#12,#13,#14,#15,#16,#17,#18,#19,#20,#21,#22,#23,#24,#25,#26),#6);
#2=PRODUCT_DEFINITION_CONTEXT('',#27,'design');
#3=APPLICATION_PROTOCOL_DEFINITION('INTERNATIONAL STANDARD','automotive_design',1994,#27);
#4=PRODUCT_CATEGORY_RELATIONSHIP('NONE','NONE',#28,#29);
#5=SHAPE_DEFINITION_REPRESENTATION(#30,#31);
#6= (GEOMETRIC_REPRESENTATION_CONTEXT(3)GLOBAL_UNCERTAINTY_ASSIGNED_CONTEXT((#34))GLOBAL_UNIT_ASSIGNED_CONTEXT((#36,#37,#38))REPRESENTATION_CONTEXT('NONE','WORKSPACE'));
#10=STYLED_ITEM('',(#40),#41);
#11=STYLED_ITEM('',(#42),#43);
#12=STYLED_ITEM('',(#44),#45);
#13=STYLED_ITEM('',(#46),#47);
#14=STYLED_ITEM('',(#48),#49);
#15=STYLED_ITEM('',(#50),#51);
#16=STYLED_ITEM('',(#52),#53);
#17=STYLED_ITEM('',(#54),#55);
#18=STYLED_ITEM('',(#56),#57);
#19=STYLED_ITEM('',(#58),#59);
#20=STYLED_ITEM('',(#60),#61);
#21=STYLED_ITEM('',(#62),#63);
#22=STYLED_ITEM('',(#64),#65);
#23=STYLED_ITEM('',(#66),#67);
#24=STYLED_ITEM('',(#68),#69);
#25=STYLED_ITEM('',(#70),#71);
#26=STYLED_ITEM('',(#72),#73);
#27=APPLICATION_CONTEXT(' ');
#28=PRODUCT_CATEGORY('part','NONE');
#29=PRODUCT_RELATED_PRODUCT_CATEGORY('detail',' ',(#74));
#30=PRODUCT_DEFINITION_SHAPE('NONE','NONE',#75);
#31=ADVANCED_BREP_SHAPE_REPRESENTATION('1',(#61,#76),#6);
#34=UNCERTAINTY_MEASURE_WITH_UNIT(LENGTH_MEASURE(1.0E-006),#36,'','');
#36= (CONVERSION_BASED_UNIT('MILLIMETRE',#79)LENGTH_UNIT()NAMED_UNIT(#82));
#37= (NAMED_UNIT(#84)PLANE_ANGLE_UNIT()SI_UNIT($,.RADIAN.));
#38= (NAMED_UNIT(#84)SOLID_ANGLE_UNIT()SI_UNIT($,.STERADIAN.));
#40=PRESENTATION_STYLE_ASSIGNMENT((#90));
#41=ADVANCED_FACE('',(#91),#92,.T.);
#42=PRESENTATION_STYLE_ASSIGNMENT((#93));
#43=ADVANCED_FACE('',(#94),#95,.F.);
#44=PRESENTATION_STYLE_ASSIGNMENT((#96));
#45=ADVANCED_FACE('',(#97,#98),#99,.T.);
#46=PRESENTATION_STYLE_ASSIGNMENT((#100));
#47=ADVANCED_FACE('',(#101),#102,.F.);
#48=PRESENTATION_STYLE_ASSIGNMENT((#103));
#49=ADVANCED_FACE('',(#104),#105,.F.);
#50=PRESENTATION_STYLE_ASSIGNMENT((#106));
#51=ADVANCED_FACE('',(#107),#108,.T.);
#52=PRESENTATION_STYLE_ASSIGNMENT((#109));
#53=ADVANCED_FACE('',(#110),#111,.F.);
#54=PRESENTATION_STYLE_ASSIGNMENT((#112));
#55=ADVANCED_FACE('',(#113),#114,.T.);
#56=PRESENTATION_STYLE_ASSIGNMENT((#115));
#57=ADVANCED_FACE('',(#116),#117,.T.);
#58=PRESENTATION_STYLE_ASSIGNMENT((#118));
#59=ADVANCED_FACE('',(#119),#120,.F.);
#60=PRESENTATION_STYLE_ASSIGNMENT((#121));
#61=MANIFOLD_SOLID_BREP('1',#122);
#62=PRESENTATION_STYLE_ASSIGNMENT((#123));
#63=ADVANCED_FACE('',(#124),#125,.T.);
#64=PRESENTATION_STYLE_ASSIGNMENT((#126));
#65=ADVANCED_FACE('',(#127),#128,.T.);
#66=PRESENTATION_STYLE_ASSIGNMENT((#129));
#67=ADVANCED_FACE('',(#130,#131),#132,.T.);
#68=PRESENTATION_STYLE_ASSIGNMENT((#133));
#69=ADVANCED_FACE('',(#134),#135,.F.);
#70=PRESENTATION_STYLE_ASSIGNMENT((#136));
#71=ADVANCED_FACE('',(#137),#138,.T.);
#72=PRESENTATION_STYLE_ASSIGNMENT((#139));
#73=ADVANCED_FACE('',(#140),#141,.T.);
#74=PRODUCT('1','1','PART-1-DESC',(#142));
#75=PRODUCT_DEFINITION('NONE','NONE',#143,#2);
#76=AXIS2_PLACEMENT_3D('',#144,#145,#146);
#79=LENGTH_MEASURE_WITH_UNIT(LENGTH_MEASURE(1.0),#147);
#82=DIMENSIONAL_EXPONENTS(1.0,0.0,0.0,0.0,0.0,0.0,0.0);
#84=DIMENSIONAL_EXPONENTS(0.0,0.0,0.0,0.0,0.0,0.0,0.0);
#90=SURFACE_STYLE_USAGE(.BOTH.,#148);
#91=FACE_OUTER_BOUND('',#149,.T.);
#92=PLANE('',#150);
#93=SURFACE_STYLE_USAGE(.BOTH.,#151);
#94=FACE_OUTER_BOUND('',#152,.T.);
#95=CYLINDRICAL_SURFACE('',#153,7.75);
#96=SURFACE_STYLE_USAGE(.BOTH.,#154);
#97=FACE_OUTER_BOUND('',#155,.T.);
#98=FACE_BOUND('',#156,.T.);
#99=PLANE('',#157);
#100=SURFACE_STYLE_USAGE(.BOTH.,#158);
#101=FACE_OUTER_BOUND('',#159,.T.);
#102=CONICAL_SURFACE('',#160,8.32336765329341,1.0471975511966);
#103=SURFACE_STYLE_USAGE(.BOTH.,#161);
#104=FACE_OUTER_BOUND('',#162,.T.);
#105=CYLINDRICAL_SURFACE('',#163,7.75);
#106=SURFACE_STYLE_USAGE(.BOTH.,#164);
#107=FACE_OUTER_BOUND('',#165,.T.);
#108=PLANE('',#166);
#109=SURFACE_STYLE_USAGE(.BOTH.,#167);
#110=FACE_OUTER_BOUND('',#168,.T.);
#111=CONICAL_SURFACE('',#169,8.32336765329341,1.0471975511966);
#112=SURFACE_STYLE_USAGE(.BOTH.,#170);
#113=FACE_OUTER_BOUND('',#171,.T.);
#114=PLANE('',#172);
#115=SURFACE_STYLE_USAGE(.BOTH.,#173);
#116=FACE_OUTER_BOUND('',#174,.T.);
#117=PLANE('',#175);
#118=SURFACE_STYLE_USAGE(.BOTH.,#176);
#119=FACE_OUTER_BOUND('',#177,.T.);
#120=PLANE('',#178);
#121=SURFACE_STYLE_USAGE(.BOTH.,#179);
#122=CLOSED_SHELL('',(#43,#47,#71,#69,#59,#63,#51,#67,#73,#55,#53,#49,#45,#41,#57,#65));
#123=SURFACE_STYLE_USAGE(.BOTH.,#180);
#124=FACE_OUTER_BOUND('',#181,.T.);
#125=PLANE('',#182);
#126=SURFACE_STYLE_USAGE(.BOTH.,#183);
#127=FACE_OUTER_BOUND('',#184,.T.);
#128=PLANE('',#185);
#129=SURFACE_STYLE_USAGE(.BOTH.,#186);
#130=FACE_BOUND('',#187,.T.);
#131=FACE_OUTER_BOUND('',#188,.T.);
#132=PLANE('',#189);
#133=SURFACE_STYLE_USAGE(.BOTH.,#190);
#134=FACE_OUTER_BOUND('',#191,.T.);
#135=PLANE('',#192);
#136=SURFACE_STYLE_USAGE(.BOTH.,#193);
#137=FACE_OUTER_BOUND('',#194,.T.);
#138=PLANE('',#195);
#139=SURFACE_STYLE_USAGE(.BOTH.,#196);
#140=FACE_OUTER_BOUND('',#197,.T.);
#141=PLANE('',#198);
#142=PRODUCT_CONTEXT('',#27,'mechanical');
#143=PRODUCT_DEFINITION_FORMATION_WITH_SPECIFIED_SOURCE(' ','NONE',#74,.NOT_KNOWN.);
#144=CARTESIAN_POINT('',(0.0,0.0,0.0));
#145=DIRECTION('',(0.0,0.0,1.0));
#146=DIRECTION('',(1.0,0.0,0.0));
#147= (NAMED_UNIT(#82)LENGTH_UNIT()SI_UNIT(.MILLI.,.METRE.));
#148=SURFACE_SIDE_STYLE('',(#200));
#149=EDGE_LOOP('',(#201,#202,#203,#204));
#150=AXIS2_PLACEMENT_3D('',#205,#206,#207);
#151=SURFACE_SIDE_STYLE('',(#208));
#152=EDGE_LOOP('',(#209,#210,#211,#212,#213));
#153=AXIS2_PLACEMENT_3D('',#214,#215,#216);
#154=SURFACE_SIDE_STYLE('',(#217));
#155=EDGE_LOOP('',(#218,#219,#220,#221));
#156=EDGE_LOOP('',(#222,#223));
#157=AXIS2_PLACEMENT_3D('',#224,#225,#226);
#158=SURFACE_SIDE_STYLE('',(#227));
#159=EDGE_LOOP('',(#228,#229,#230,#231,#232,#233));
#160=AXIS2_PLACEMENT_3D('',#234,#235,#236);
#161=SURFACE_SIDE_STYLE('',(#237));
#162=EDGE_LOOP('',(#238,#239,#240,#241,#242));
#163=AXIS2_PLACEMENT_3D('',#243,#244,#245);
#164=SURFACE_SIDE_STYLE('',(#246));
#165=EDGE_LOOP('',(#247,#248,#249,#250));
#166=AXIS2_PLACEMENT_3D('',#251,#252,#253);
#167=SURFACE_SIDE_STYLE('',(#254));
#168=EDGE_LOOP('',(#255,#256,#257,#258,#259));
#169=AXIS2_PLACEMENT_3D('',#260,#261,#262);
#170=SURFACE_SIDE_STYLE('',(#263));
#171=EDGE_LOOP('',(#264,#265,#266,#267));
#172=AXIS2_PLACEMENT_3D('',#268,#269,#270);
#173=SURFACE_SIDE_STYLE('',(#271));
#174=EDGE_LOOP('',(#272,#273,#274,#275));
#175=AXIS2_PLACEMENT_3D('',#276,#277,#278);
#176=SURFACE_SIDE_STYLE('',(#279));
#177=EDGE_LOOP('',(#280,#281,#282,#283,#284,#285,#286,#287,#288,#289));
#178=AXIS2_PLACEMENT_3D('',#290,#291,#292);
#179=SURFACE_SIDE_STYLE('',(#293));
#180=SURFACE_SIDE_STYLE('',(#294));
#181=EDGE_LOOP('',(#295,#296,#297,#298));
#182=AXIS2_PLACEMENT_3D('',#299,#300,#301);
#183=SURFACE_SIDE_STYLE('',(#302));
#184=EDGE_LOOP('',(#303,#304,#305,#306));
#185=AXIS2_PLACEMENT_3D('',#307,#308,#309);
#186=SURFACE_SIDE_STYLE('',(#310));
#187=EDGE_LOOP('',(#311,#312,#313));
#188=EDGE_LOOP('',(#314,#315,#316,#317));
#189=AXIS2_PLACEMENT_3D('',#318,#319,#320);
#190=SURFACE_SIDE_STYLE('',(#321));
#191=EDGE_LOOP('',(#322,#323,#324,#325,#326,#327,#328,#329,#330,#331));
#192=AXIS2_PLACEMENT_3D('',#332,#333,#334);
#193=SURFACE_SIDE_STYLE('',(#335));
#194=EDGE_LOOP('',(#336,#337,#338,#339));
#195=AXIS2_PLACEMENT_3D('',#340,#341,#342);
#196=SURFACE_SIDE_STYLE('',(#343));
#197=EDGE_LOOP('',(#344,#345,#346,#347));
#198=AXIS2_PLACEMENT_3D('',#348,#349,#350);
#200=SURFACE_STYLE_FILL_AREA(#351);
#201=ORIENTED_EDGE('',*,*,#352,.T.);
#202=ORIENTED_EDGE('',*,*,#353,.F.);
#203=ORIENTED_EDGE('',*,*,#354,.T.);
#204=ORIENTED_EDGE('',*,*,#355,.F.);
#205=CARTESIAN_POINT('',(16.0,8.64354656966883E-015,-9.49999999999997));
#206=DIRECTION('',(0.707106781186548,-4.32963728535968E-017,-0.707106781186548));
#207=DIRECTION('',(-1.07031965039769E-033,1.0,-6.12303176911189E-017));
#208=SURFACE_STYLE_FILL_AREA(#356);
#209=ORIENTED_EDGE('',*,*,#357,.F.);
#210=ORIENTED_EDGE('',*,*,#358,.F.);
#211=ORIENTED_EDGE('',*,*,#359,.F.);
#212=ORIENTED_EDGE('',*,*,#360,.T.);
#213=ORIENTED_EDGE('',*,*,#361,.T.);
#214=CARTESIAN_POINT('',(0.0,0.0,12.0));
#215=DIRECTION('',(0.0,0.0,-1.0));
#216=DIRECTION('',(1.0,0.0,0.0));
#217=SURFACE_STYLE_FILL_AREA(#362);
#218=ORIENTED_EDGE('',*,*,#353,.T.);
#219=ORIENTED_EDGE('',*,*,#363,.T.);
#220=ORIENTED_EDGE('',*,*,#364,.F.);
#221=ORIENTED_EDGE('',*,*,#365,.T.);
#222=ORIENTED_EDGE('',*,*,#366,.T.);
#223=ORIENTED_EDGE('',*,*,#358,.T.);
#224=CARTESIAN_POINT('',(13.5,8.49047077544102E-015,-12.0));
#225=DIRECTION('',(0.0,-6.12303176911189E-017,-1.0));
#226=DIRECTION('',(0.0,1.0,-6.12303176911189E-017));
#227=SURFACE_STYLE_FILL_AREA(#367);
#228=ORIENTED_EDGE('',*,*,#368,.F.);
#229=ORIENTED_EDGE('',*,*,#369,.F.);
#230=ORIENTED_EDGE('',*,*,#361,.F.);
#231=ORIENTED_EDGE('',*,*,#370,.F.);
#232=ORIENTED_EDGE('',*,*,#371,.F.);
#233=ORIENTED_EDGE('',*,*,#372,.F.);
#234=CARTESIAN_POINT('',(0.0,9.95999840002788E-015,11.6093461324865));
#235=DIRECTION('',(-0.0,-0.0,1.0));
#236=DIRECTION('',(-5.49831445458068E-017,1.0,0.0));
#237=SURFACE_STYLE_FILL_AREA(#373);
#238=ORIENTED_EDGE('',*,*,#357,.T.);
#239=ORIENTED_EDGE('',*,*,#369,.T.);
#240=ORIENTED_EDGE('',*,*,#374,.T.);
#241=ORIENTED_EDGE('',*,*,#359,.T.);
#242=ORIENTED_EDGE('',*,*,#366,.F.);
#243=CARTESIAN_POINT('',(0.0,0.0,12.0));
#244=DIRECTION('',(0.0,0.0,-1.0));
#245=DIRECTION('',(1.0,0.0,0.0));
#246=SURFACE_STYLE_FILL_AREA(#375);
#247=ORIENTED_EDGE('',*,*,#376,.T.);
#248=ORIENTED_EDGE('',*,*,#377,.F.);
#249=ORIENTED_EDGE('',*,*,#378,.T.);
#250=ORIENTED_EDGE('',*,*,#379,.T.);
#251=CARTESIAN_POINT('',(-9.80000000000001,9.22523458773445E-015,0.0));
#252=DIRECTION('',(-1.0,0.0,0.0));
#253=DIRECTION('',(0.0,-1.0,6.12303176911189E-017));
#254=SURFACE_STYLE_FILL_AREA(#380);
#255=ORIENTED_EDGE('',*,*,#368,.T.);
#256=ORIENTED_EDGE('',*,*,#381,.F.);
#257=ORIENTED_EDGE('',*,*,#370,.T.);
#258=ORIENTED_EDGE('',*,*,#360,.F.);
#259=ORIENTED_EDGE('',*,*,#374,.F.);
#260=CARTESIAN_POINT('',(0.0,9.95999840002788E-015,11.6093461324865));
#261=DIRECTION('',(-0.0,-0.0,1.0));
#262=DIRECTION('',(-5.49831445458068E-017,1.0,0.0));
#263=SURFACE_STYLE_FILL_AREA(#382);
#264=ORIENTED_EDGE('',*,*,#383,.T.);
#265=ORIENTED_EDGE('',*,*,#384,.T.);
#266=ORIENTED_EDGE('',*,*,#385,.T.);
#267=ORIENTED_EDGE('',*,*,#386,.T.);
#268=CARTESIAN_POINT('',(9.80000000000001,9.22523458773445E-015,2.8421709430404E-014));
#269=DIRECTION('',(0.0,6.12303176911189E-017,1.0));
#270=DIRECTION('',(0.0,-1.0,6.12303176911189E-017));
#271=SURFACE_STYLE_FILL_AREA(#387);
#272=ORIENTED_EDGE('',*,*,#388,.T.);
#273=ORIENTED_EDGE('',*,*,#364,.T.);
#274=ORIENTED_EDGE('',*,*,#389,.T.);
#275=ORIENTED_EDGE('',*,*,#390,.F.);
#276=CARTESIAN_POINT('',(-13.4999999999999,8.49047077544102E-015,-12.0));
#277=DIRECTION('',(-0.707106781186543,-4.3296372853597E-017,-0.707106781186552));
#278=DIRECTION('',(1.9789210235981E-034,-1.0,6.12303176911189E-017));
#279=SURFACE_STYLE_FILL_AREA(#391);
#280=ORIENTED_EDGE('',*,*,#392,.F.);
#281=ORIENTED_EDGE('',*,*,#393,.F.);
#282=ORIENTED_EDGE('',*,*,#389,.F.);
#283=ORIENTED_EDGE('',*,*,#363,.F.);
#284=ORIENTED_EDGE('',*,*,#352,.F.);
#285=ORIENTED_EDGE('',*,*,#394,.F.);
#286=ORIENTED_EDGE('',*,*,#383,.F.);
#287=ORIENTED_EDGE('',*,*,#395,.F.);
#288=ORIENTED_EDGE('',*,*,#396,.F.);
#289=ORIENTED_EDGE('',*,*,#376,.F.);
#290=CARTESIAN_POINT('',(-16.0,-29.8592929112563,-12.0));
#291=DIRECTION('',(-0.707106781186548,0.707106781186547,0.0));
#292=DIRECTION('',(0.0,0.0,1.0));
#293=SURFACE_STYLE_FILL_AREA(#397);
#294=SURFACE_STYLE_FILL_AREA(#398);
#295=ORIENTED_EDGE('',*,*,#399,.T.);
#296=ORIENTED_EDGE('',*,*,#400,.T.);
#297=ORIENTED_EDGE('',*,*,#392,.T.);
#298=ORIENTED_EDGE('',*,*,#379,.F.);
#299=CARTESIAN_POINT('',(-16.0,9.22523458773445E-015,0.0));
#300=DIRECTION('',(0.0,6.12303176911189E-017,1.0));
#301=DIRECTION('',(0.0,-1.0,6.12303176911189E-017));
#302=SURFACE_STYLE_FILL_AREA(#401);
#303=ORIENTED_EDGE('',*,*,#402,.T.);
#304=ORIENTED_EDGE('',*,*,#390,.T.);
#305=ORIENTED_EDGE('',*,*,#393,.T.);
#306=ORIENTED_EDGE('',*,*,#400,.F.);
#307=CARTESIAN_POINT('',(-16.0,8.64354656966883E-015,-9.49999999999997));
#308=DIRECTION('',(-1.0,0.0,0.0));
#309=DIRECTION('',(0.0,-1.0,6.12303176911189E-017));
#310=SURFACE_STYLE_FILL_AREA(#403);
#311=ORIENTED_EDGE('',*,*,#371,.T.);
#312=ORIENTED_EDGE('',*,*,#381,.T.);
#313=ORIENTED_EDGE('',*,*,#372,.T.);
#314=ORIENTED_EDGE('',*,*,#404,.F.);
#315=ORIENTED_EDGE('',*,*,#405,.T.);
#316=ORIENTED_EDGE('',*,*,#377,.T.);
#317=ORIENTED_EDGE('',*,*,#396,.T.);
#318=CARTESIAN_POINT('',(-9.80000000000001,9.95999840002788E-015,12.0));
#319=DIRECTION('',(0.0,6.12303176911189E-017,1.0));
#320=DIRECTION('',(0.0,-1.0,6.12303176911189E-017));
#321=SURFACE_STYLE_FILL_AREA(#406);
#322=ORIENTED_EDGE('',*,*,#388,.F.);
#323=ORIENTED_EDGE('',*,*,#402,.F.);
#324=ORIENTED_EDGE('',*,*,#399,.F.);
#325=ORIENTED_EDGE('',*,*,#378,.F.);
#326=ORIENTED_EDGE('',*,*,#405,.F.);
#327=ORIENTED_EDGE('',*,*,#407,.F.);
#328=ORIENTED_EDGE('',*,*,#385,.F.);
#329=ORIENTED_EDGE('',*,*,#408,.F.);
#330=ORIENTED_EDGE('',*,*,#354,.F.);
#331=ORIENTED_EDGE('',*,*,#365,.F.);
#332=CARTESIAN_POINT('',(16.0,29.8592929112563,-12.0));
#333=DIRECTION('',(0.707106781186548,-0.707106781186548,0.0));
#334=DIRECTION('',(0.0,0.0,-1.0));
#335=SURFACE_STYLE_FILL_AREA(#409);
#336=ORIENTED_EDGE('',*,*,#408,.T.);
#337=ORIENTED_EDGE('',*,*,#384,.F.);
#338=ORIENTED_EDGE('',*,*,#394,.T.);
#339=ORIENTED_EDGE('',*,*,#355,.T.);
#340=CARTESIAN_POINT('',(16.0,8.64354656966883E-015,-9.49999999999997));
#341=DIRECTION('',(1.0,0.0,0.0));
#342=DIRECTION('',(0.0,1.0,-6.12303176911189E-017));
#343=SURFACE_STYLE_FILL_AREA(#410);
#344=ORIENTED_EDGE('',*,*,#395,.T.);
#345=ORIENTED_EDGE('',*,*,#386,.F.);
#346=ORIENTED_EDGE('',*,*,#407,.T.);
#347=ORIENTED_EDGE('',*,*,#404,.T.);
#348=CARTESIAN_POINT('',(9.80000000000001,9.95999840002788E-015,12.0));
#349=DIRECTION('',(1.0,0.0,0.0));
#350=DIRECTION('',(0.0,1.0,-6.12303176911189E-017));
#351=FILL_AREA_STYLE('',(#411));
#352=EDGE_CURVE('',#412,#413,#414,.T.);
#353=EDGE_CURVE('',#415,#413,#416,.T.);
#354=EDGE_CURVE('',#415,#417,#418,.T.);
#355=EDGE_CURVE('',#412,#417,#419,.T.);
#356=FILL_AREA_STYLE('',(#420));
#357=EDGE_CURVE('',#421,#422,#423,.T.);
#358=EDGE_CURVE('',#424,#421,#425,.T.);
#359=EDGE_CURVE('',#426,#424,#427,.T.);
#360=EDGE_CURVE('',#426,#428,#429,.T.);
#361=EDGE_CURVE('',#428,#422,#430,.T.);
#362=FILL_AREA_STYLE('',(#431));
#363=EDGE_CURVE('',#413,#432,#433,.T.);
#364=EDGE_CURVE('',#434,#432,#435,.T.);
#365=EDGE_CURVE('',#434,#415,#436,.T.);
#366=EDGE_CURVE('',#421,#424,#437,.T.);
#367=FILL_AREA_STYLE('',(#438));
#368=EDGE_CURVE('',#439,#440,#441,.T.);
#369=EDGE_CURVE('',#422,#439,#442,.T.);
#370=EDGE_CURVE('',#443,#428,#444,.T.);
#371=EDGE_CURVE('',#445,#443,#446,.T.);
#372=EDGE_CURVE('',#440,#445,#447,.T.);
#373=FILL_AREA_STYLE('',(#448));
#374=EDGE_CURVE('',#439,#426,#449,.T.);
#375=FILL_AREA_STYLE('',(#450));
#376=EDGE_CURVE('',#451,#452,#453,.T.);
#377=EDGE_CURVE('',#454,#452,#455,.T.);
#378=EDGE_CURVE('',#454,#456,#457,.T.);
#379=EDGE_CURVE('',#456,#451,#458,.T.);
#380=FILL_AREA_STYLE('',(#459));
#381=EDGE_CURVE('',#443,#440,#460,.T.);
#382=FILL_AREA_STYLE('',(#461));
#383=EDGE_CURVE('',#462,#463,#464,.T.);
#384=EDGE_CURVE('',#463,#465,#466,.T.);
#385=EDGE_CURVE('',#465,#467,#468,.T.);
#386=EDGE_CURVE('',#467,#462,#469,.T.);
#387=FILL_AREA_STYLE('',(#470));
#388=EDGE_CURVE('',#471,#434,#472,.T.);
#389=EDGE_CURVE('',#432,#473,#474,.T.);
#390=EDGE_CURVE('',#471,#473,#475,.T.);
#391=FILL_AREA_STYLE('',(#476));
#392=EDGE_CURVE('',#477,#451,#478,.T.);
#393=EDGE_CURVE('',#473,#477,#479,.T.);
#394=EDGE_CURVE('',#463,#412,#480,.T.);
#395=EDGE_CURVE('',#481,#462,#482,.T.);
#396=EDGE_CURVE('',#452,#481,#483,.T.);
#397=FILL_AREA_STYLE('',(#484));
#398=FILL_AREA_STYLE('',(#485));
#399=EDGE_CURVE('',#456,#486,#487,.T.);
#400=EDGE_CURVE('',#486,#477,#488,.T.);
#401=FILL_AREA_STYLE('',(#489));
#402=EDGE_CURVE('',#486,#471,#490,.T.);
#403=FILL_AREA_STYLE('',(#491));
#404=EDGE_CURVE('',#492,#481,#493,.T.);
#405=EDGE_CURVE('',#492,#454,#494,.T.);
#406=FILL_AREA_STYLE('',(#495));
#407=EDGE_CURVE('',#467,#492,#496,.T.);
#408=EDGE_CURVE('',#417,#465,#497,.T.);
#409=FILL_AREA_STYLE('',(#498));
#410=FILL_AREA_STYLE('',(#499));
#411=FILL_AREA_STYLE_COLOUR('',#500);
#412=VERTEX_POINT('',#501);
#413=VERTEX_POINT('',#502);
#414=LINE('',#503,#504);
#415=VERTEX_POINT('',#505);
#416=LINE('',#506,#507);
#417=VERTEX_POINT('',#508);
#418=LINE('',#509,#510);
#419=LINE('',#511,#512);
#420=FILL_AREA_STYLE_COLOUR('',#513);
#421=VERTEX_POINT('',#514);
#422=VERTEX_POINT('',#515);
#423=LINE('',#516,#517);
#424=VERTEX_POINT('',#518);
#425=CIRCLE('',#519,7.75);
#426=VERTEX_POINT('',#520);
#427=LINE('',#521,#522);
#428=VERTEX_POINT('',#523);
#429=CIRCLE('',#524,7.75);
#430=CIRCLE('',#525,7.75);
#431=FILL_AREA_STYLE_COLOUR('',#526);
#432=VERTEX_POINT('',#527);
#433=LINE('',#528,#529);
#434=VERTEX_POINT('',#530);
#435=LINE('',#531,#532);
#436=LINE('',#533,#534);
#437=CIRCLE('',#535,7.75);
#438=FILL_AREA_STYLE_COLOUR('',#536);
#439=VERTEX_POINT('',#537);
#440=VERTEX_POINT('',#538);
#441=LINE('',#539,#540);
#442=CIRCLE('',#541,7.75);
#443=VERTEX_POINT('',#542);
#444=LINE('',#543,#544);
#445=VERTEX_POINT('',#545);
#446=CIRCLE('',#546,9.0);
#447=CIRCLE('',#547,9.0);
#448=FILL_AREA_STYLE_COLOUR('',#548);
#449=CIRCLE('',#549,7.75);
#450=FILL_AREA_STYLE_COLOUR('',#550);
#451=VERTEX_POINT('',#551);
#452=VERTEX_POINT('',#552);
#453=LINE('',#553,#554);
#454=VERTEX_POINT('',#555);
#455=LINE('',#556,#557);
#456=VERTEX_POINT('',#558);
#457=LINE('',#559,#560);
#458=LINE('',#561,#562);
#459=FILL_AREA_STYLE_COLOUR('',#563);
#460=CIRCLE('',#564,9.0);
#461=FILL_AREA_STYLE_COLOUR('',#565);
#462=VERTEX_POINT('',#566);
#463=VERTEX_POINT('',#567);
#464=LINE('',#568,#569);
#465=VERTEX_POINT('',#570);
#466=LINE('',#571,#572);
#467=VERTEX_POINT('',#573);
#468=LINE('',#574,#575);
#469=LINE('',#576,#577);
#470=FILL_AREA_STYLE_COLOUR('',#578);
#471=VERTEX_POINT('',#579);
#472=LINE('',#580,#581);
#473=VERTEX_POINT('',#582);
#474=LINE('',#583,#584);
#475=LINE('',#585,#586);
#476=FILL_AREA_STYLE_COLOUR('',#587);
#477=VERTEX_POINT('',#588);
#478=LINE('',#589,#590);
#479=LINE('',#591,#592);
#480=LINE('',#593,#594);
#481=VERTEX_POINT('',#595);
#482=LINE('',#596,#597);
#483=LINE('',#598,#599);
#484=FILL_AREA_STYLE_COLOUR('',#600);
#485=FILL_AREA_STYLE_COLOUR('',#601);
#486=VERTEX_POINT('',#602);
#487=LINE('',#603,#604);
#488=LINE('',#605,#606);
#489=FILL_AREA_STYLE_COLOUR('',#607);
#490=LINE('',#608,#609);
#491=FILL_AREA_STYLE_COLOUR('',#610);
#492=VERTEX_POINT('',#611);
#493=LINE('',#612,#613);
#494=LINE('',#614,#615);
#495=FILL_AREA_STYLE_COLOUR('',#616);
#496=LINE('',#617,#618);
#497=LINE('',#619,#620);
#498=FILL_AREA_STYLE_COLOUR('',#621);
#499=FILL_AREA_STYLE_COLOUR('',#622);
#500=COLOUR_RGB('',0.509803950786591,0.509803950786591,0.588235318660736);
#501=CARTESIAN_POINT('',(16.0,2.14070708874368,-9.5));
#502=CARTESIAN_POINT('',(13.5,-0.359292911256346,-12.0));
#503=CARTESIAN_POINT('',(3.72654881854272,-10.1327440927136,-21.7734511814573));
#504=VECTOR('',#623,1.0);
#505=CARTESIAN_POINT('',(13.5,27.3592929112563,-12.0));
#506=CARTESIAN_POINT('',(13.5,8.49047077544102E-015,-12.0));
#507=VECTOR('',#624,1.0);
#508=CARTESIAN_POINT('',(16.0,29.8592929112563,-9.5));
#509=CARTESIAN_POINT('',(9.77345118145727,23.6327440927136,-15.7265488185427));
#510=VECTOR('',#625,1.0);
#511=CARTESIAN_POINT('',(16.0,8.64354656966883E-015,-9.49999999999997));
#512=VECTOR('',#626,1.0);
#513=COLOUR_RGB('',0.509803950786591,0.509803950786591,0.588235318660736);
#514=CARTESIAN_POINT('',(7.75,0.0,-12.0));
#515=CARTESIAN_POINT('',(7.75,9.95999840002788E-015,11.278312163513));
#516=CARTESIAN_POINT('',(7.75,9.49069924212342E-016,-0.360843918243532));
#517=VECTOR('',#627,1.0);
#518=CARTESIAN_POINT('',(-7.75,-9.49069924212342E-016,-12.0));
#519=AXIS2_PLACEMENT_3D('',#628,#629,#630);
#520=CARTESIAN_POINT('',(-7.75,-9.49069924212342E-016,11.278312163513));
#521=CARTESIAN_POINT('',(-7.75,-9.49069924212342E-016,-0.360843918243532));
#522=VECTOR('',#631,1.0);
#523=CARTESIAN_POINT('',(1.37518929444235E-015,-7.75,11.278312163513));
#524=AXIS2_PLACEMENT_3D('',#632,#633,#634);
#525=AXIS2_PLACEMENT_3D('',#635,#636,#637);
#526=COLOUR_RGB('',0.509803950786591,0.509803950786591,0.588235318660736);
#527=CARTESIAN_POINT('',(-13.4999999999999,-27.3592929112562,-12.0));
#528=CARTESIAN_POINT('',(-1.16017677218593,-15.0194696834423,-12.0));
#529=VECTOR('',#638,1.0);
#530=CARTESIAN_POINT('',(-13.5,0.359292911256375,-12.0));
#531=CARTESIAN_POINT('',(-13.4999999999999,8.49047077544102E-015,-12.0));
#532=VECTOR('',#639,1.0);
#533=CARTESIAN_POINT('',(1.16017677218594,15.0194696834423,-12.0));
#534=VECTOR('',#640,1.0);
#535=AXIS2_PLACEMENT_3D('',#641,#642,#643);
#536=COLOUR_RGB('',0.509803950786591,0.509803950786591,0.588235318660736);
#537=CARTESIAN_POINT('',(-1.37518929444234E-015,7.75,11.278312163513));
#538=CARTESIAN_POINT('',(-1.5969940193524E-015,9.00000000000001,12.0));
#539=CARTESIAN_POINT('',(-1.4769298181312E-015,8.32336765329342,11.6093461324865));
#540=VECTOR('',#644,1.0);
#541=AXIS2_PLACEMENT_3D('',#645,#646,#647);
#542=CARTESIAN_POINT('',(1.5969940193524E-015,-8.99999999999999,12.0));
#543=CARTESIAN_POINT('',(1.4769298181312E-015,-8.3233676532934,11.6093461324865));
#544=VECTOR('',#648,1.0);
#545=CARTESIAN_POINT('',(9.0,9.95999840002788E-015,12.0));
#546=AXIS2_PLACEMENT_3D('',#649,#650,#651);
#547=AXIS2_PLACEMENT_3D('',#652,#653,#654);
#548=COLOUR_RGB('',0.509803950786591,0.509803950786591,0.588235318660736);
#549=AXIS2_PLACEMENT_3D('',#655,#656,#657);
#550=COLOUR_RGB('',0.509803950786591,0.509803950786591,0.588235318660736);
#551=CARTESIAN_POINT('',(-9.80000000000001,-23.6592929112563,1.44866602130346E-015));
#552=CARTESIAN_POINT('',(-9.80000000000001,-23.6592929112563,12.0));
#553=CARTESIAN_POINT('',(-9.80000000000001,-23.6592929112563,-5.99999999999999));
#554=VECTOR('',#658,1.0);
#555=CARTESIAN_POINT('',(-9.80000000000001,4.05929291125633,12.0));
#556=CARTESIAN_POINT('',(-9.80000000000001,9.95999840002788E-015,12.0));
#557=VECTOR('',#659,1.0);
#558=CARTESIAN_POINT('',(-9.80000000000001,4.05929291125633,-2.48551794557531E-016));
#559=CARTESIAN_POINT('',(-9.80000000000001,4.05929291125633,1.4210854715202E-014));
#560=VECTOR('',#660,1.0);
#561=CARTESIAN_POINT('',(-9.80000000000001,9.22523458773445E-015,0.0));
#562=VECTOR('',#661,1.0);
#563=COLOUR_RGB('',0.509803950786591,0.509803950786591,0.588235318660736);
#564=AXIS2_PLACEMENT_3D('',#662,#663,#664);
#565=COLOUR_RGB('',0.509803950786591,0.509803950786591,0.588235318660736);
#566=CARTESIAN_POINT('',(9.80000000000001,-4.05929291125631,2.86702612249615E-014));
#567=CARTESIAN_POINT('',(16.0,2.14070708874368,2.8421709430404E-014));
#568=CARTESIAN_POINT('',(-0.535176772185918,-14.3944696834422,2.93098878501041E-014));
#569=VECTOR('',#665,1.0);
#570=CARTESIAN_POINT('',(16.0,29.8592929112563,2.66453525910038E-014));
#571=CARTESIAN_POINT('',(16.0,9.22523458773445E-015,2.8421709430404E-014));
#572=VECTOR('',#666,1.0);
#573=CARTESIAN_POINT('',(9.80000000000001,23.6592929112564,2.69730434091005E-014));
#574=CARTESIAN_POINT('',(8.53517677218592,22.3944696834423,2.57571741713036E-014));
#575=VECTOR('',#667,1.0);
#576=CARTESIAN_POINT('',(9.80000000000001,9.22523458773445E-015,2.8421709430404E-014));
#577=VECTOR('',#668,1.0);
#578=COLOUR_RGB('',0.509803950786591,0.509803950786591,0.588235318660736);
#579=CARTESIAN_POINT('',(-16.0,-2.14070708874365,-9.49999999999997));
#580=CARTESIAN_POINT('',(-4.55988215187597,9.29941075938037,-20.9401178481239));
#581=VECTOR('',#669,1.0);
#582=CARTESIAN_POINT('',(-16.0,-29.8592929112563,-9.49999999999997));
#583=CARTESIAN_POINT('',(-9.77345118145722,-23.6327440927135,-15.7265488185427));
#584=VECTOR('',#670,1.0);
#585=CARTESIAN_POINT('',(-16.0,8.64354656966883E-015,-9.49999999999997));
#586=VECTOR('',#671,1.0);
#587=COLOUR_RGB('',0.509803950786591,0.509803950786591,0.588235318660736);
#588=CARTESIAN_POINT('',(-16.0,-29.8592929112563,1.8282939909884E-015));
#589=CARTESIAN_POINT('',(-8.53517677218591,-22.3944696834422,1.77635683940025E-015));
#590=VECTOR('',#672,1.0);
#591=CARTESIAN_POINT('',(-16.0,-29.8592929112563,-10.75));
#592=VECTOR('',#673,1.0);
#593=CARTESIAN_POINT('',(16.0,2.14070708874368,-10.75));
#594=VECTOR('',#674,1.0);
#595=CARTESIAN_POINT('',(9.80000000000001,-4.05929291125631,12.0));
#596=CARTESIAN_POINT('',(9.80000000000001,-4.05929291125631,1.4210854715202E-014));
#597=VECTOR('',#675,1.0);
#598=CARTESIAN_POINT('',(-6.98517677218592,-20.8444696834422,12.0));
#599=VECTOR('',#676,1.0);
#600=COLOUR_RGB('',0.509803950786591,0.509803950786591,0.588235318660736);
#601=COLOUR_RGB('',0.509803950786591,0.509803950786591,0.588235318660736);
#602=CARTESIAN_POINT('',(-16.0,-2.14070708874366,1.31076175127405E-016));
#603=CARTESIAN_POINT('',(0.535176772185917,14.3944696834423,-8.88178419700125E-016));
#604=VECTOR('',#677,1.0);
#605=CARTESIAN_POINT('',(-16.0,9.22523458773445E-015,0.0));
#606=VECTOR('',#678,1.0);
#607=COLOUR_RGB('',0.509803950786591,0.509803950786591,0.588235318660736);
#608=CARTESIAN_POINT('',(-16.0,-2.14070708874366,-10.75));
#609=VECTOR('',#679,1.0);
#610=COLOUR_RGB('',0.509803950786591,0.509803950786591,0.588235318660736);
#611=CARTESIAN_POINT('',(9.80000000000001,23.6592929112564,12.0));
#612=CARTESIAN_POINT('',(9.80000000000001,9.95999840002788E-015,12.0));
#613=VECTOR('',#680,1.0);
#614=CARTESIAN_POINT('',(6.98517677218592,20.8444696834423,12.0));
#615=VECTOR('',#681,1.0);
#616=COLOUR_RGB('',0.509803950786591,0.509803950786591,0.588235318660736);
#617=CARTESIAN_POINT('',(9.80000000000001,23.6592929112564,-5.99999999999997));
#618=VECTOR('',#682,1.0);
#619=CARTESIAN_POINT('',(16.0,29.8592929112564,-10.75));
#620=VECTOR('',#683,1.0);
#621=COLOUR_RGB('',0.509803950786591,0.509803950786591,0.588235318660736);
#622=COLOUR_RGB('',0.509803950786591,0.509803950786591,0.588235318660736);
#623=DIRECTION('',(-0.577350269189626,-0.577350269189626,-0.577350269189626));
#624=DIRECTION('',(0.0,-1.0,6.12303176911189E-017));
#625=DIRECTION('',(0.577350269189626,0.577350269189626,0.577350269189626));
#626=DIRECTION('',(0.0,1.0,-6.12303176911189E-017));
#627=DIRECTION('',(-0.0,-0.0,1.0));
#628=CARTESIAN_POINT('',(0.0,0.0,-12.0));
#629=DIRECTION('',(-0.0,6.12303176911189E-017,1.0));
#630=DIRECTION('',(1.0,0.0,0.0));
#631=DIRECTION('',(-0.0,-0.0,-1.0));
#632=CARTESIAN_POINT('',(0.0,0.0,11.278312163513));
#633=DIRECTION('',(0.0,0.0,1.0));
#634=DIRECTION('',(1.0,0.0,0.0));
#635=CARTESIAN_POINT('',(0.0,0.0,11.278312163513));
#636=DIRECTION('',(0.0,0.0,1.0));
#637=DIRECTION('',(1.0,0.0,0.0));
#638=DIRECTION('',(-0.707106781186547,-0.707106781186548,4.32963728535968E-017));
#639=DIRECTION('',(0.0,-1.0,6.12303176911189E-017));
#640=DIRECTION('',(0.707106781186548,0.707106781186548,-4.32963728535968E-017));
#641=CARTESIAN_POINT('',(0.0,0.0,-12.0));
#642=DIRECTION('',(-0.0,6.12303176911189E-017,1.0));
#643=DIRECTION('',(1.0,0.0,0.0));
#644=DIRECTION('',(-1.53670821161222E-016,0.866025403784439,0.5));
#645=CARTESIAN_POINT('',(0.0,0.0,11.278312163513));
#646=DIRECTION('',(0.0,0.0,1.0));
#647=DIRECTION('',(1.0,0.0,0.0));
#648=DIRECTION('',(-1.53670821161222E-016,0.866025403784439,-0.5));
#649=CARTESIAN_POINT('',(0.0,9.95999840002788E-015,12.0));
#650=DIRECTION('',(-6.75780509415903E-050,-6.12303176911189E-017,-1.0));
#651=DIRECTION('',(-5.49831445458068E-017,1.0,-6.12303176911189E-017));
#652=CARTESIAN_POINT('',(0.0,9.95999840002788E-015,12.0));
#653=DIRECTION('',(-6.75780509415903E-050,-6.12303176911189E-017,-1.0));
#654=DIRECTION('',(-5.49831445458068E-017,1.0,-6.12303176911189E-017));
#655=CARTESIAN_POINT('',(0.0,0.0,11.278312163513));
#656=DIRECTION('',(0.0,0.0,1.0));
#657=DIRECTION('',(1.0,0.0,0.0));
#658=DIRECTION('',(0.0,0.0,1.0));
#659=DIRECTION('',(0.0,-1.0,6.12303176911189E-017));
#660=DIRECTION('',(0.0,0.0,-1.0));
#661=DIRECTION('',(0.0,-1.0,6.12303176911189E-017));
#662=CARTESIAN_POINT('',(0.0,9.95999840002788E-015,12.0));
#663=DIRECTION('',(-6.75780509415903E-050,-6.12303176911189E-017,-1.0));
#664=DIRECTION('',(-5.49831445458068E-017,1.0,-6.12303176911189E-017));
#665=DIRECTION('',(0.707106781186547,0.707106781186548,-4.32963728535968E-017));
#666=DIRECTION('',(0.0,1.0,-6.12303176911189E-017));
#667=DIRECTION('',(-0.707106781186548,-0.707106781186548,4.32963728535968E-017));
#668=DIRECTION('',(0.0,-1.0,6.12303176911189E-017));
#669=DIRECTION('',(0.577350269189628,0.577350269189628,-0.577350269189621));
#670=DIRECTION('',(-0.577350269189628,-0.577350269189628,0.577350269189621));
#671=DIRECTION('',(0.0,-1.0,6.12303176911189E-017));
#672=DIRECTION('',(0.707106781186547,0.707106781186548,-4.32963728535968E-017));
#673=DIRECTION('',(0.0,0.0,1.0));
#674=DIRECTION('',(0.0,0.0,-1.0));
#675=DIRECTION('',(0.0,0.0,-1.0));
#676=DIRECTION('',(0.707106781186547,0.707106781186548,-4.32963728535968E-017));
#677=DIRECTION('',(-0.707106781186548,-0.707106781186548,4.32963728535968E-017));
#678=DIRECTION('',(0.0,-1.0,6.12303176911189E-017));
#679=DIRECTION('',(0.0,0.0,-1.0));
#680=DIRECTION('',(0.0,-1.0,6.12303176911189E-017));
#681=DIRECTION('',(-0.707106781186548,-0.707106781186548,4.32963728535968E-017));
#682=DIRECTION('',(0.0,0.0,1.0));
#683=DIRECTION('',(0.0,0.0,1.0));
ENDSEC;
END-ISO-10303-21;
