ISO-10303-21;
HEADER;
FILE_DESCRIPTION(('STEP AP214'),'1');
FILE_NAME('HALDERN_EH_23040_0623.stp','2021-10-05T09:34:55',('TraceParts'),('TraceParts S.A.'),'Spatial InterOp 3D',' ',' ');
FILE_SCHEMA(('AUTOMOTIVE_DESIGN { 1 0 10303 214 1 1 1 1 }'));
ENDSEC;
DATA;
#1=MECHANICAL_DESIGN_GEOMETRIC_PRESENTATION_REPRESENTATION(' ',(#10,#11,#12,#13,#14,#15,#16,#17,#18),#6);
#2=PRODUCT_DEFINITION_CONTEXT('',#19,'design');
#3=APPLICATION_PROTOCOL_DEFINITION('INTERNATIONAL STANDARD','automotive_design',1994,#19);
#4=PRODUCT_CATEGORY_RELATIONSHIP('NONE','NONE',#20,#21);
#5=SHAPE_DEFINITION_REPRESENTATION(#22,#23);
#6= (GEOMETRIC_REPRESENTATION_CONTEXT(3)GLOBAL_UNCERTAINTY_ASSIGNED_CONTEXT((#26))GLOBAL_UNIT_ASSIGNED_CONTEXT((#28,#29,#30))REPRESENTATION_CONTEXT('NONE','WORKSPACE'));
#10=STYLED_ITEM('',(#32),#33);
#11=STYLED_ITEM('',(#34),#35);
#12=STYLED_ITEM('',(#36),#37);
#13=STYLED_ITEM('',(#38),#39);
#14=STYLED_ITEM('',(#40),#41);
#15=STYLED_ITEM('',(#42),#43);
#16=STYLED_ITEM('',(#44),#45);
#17=STYLED_ITEM('',(#46),#47);
#18=STYLED_ITEM('',(#48),#49);
#19=APPLICATION_CONTEXT(' ');
#20=PRODUCT_CATEGORY('part','NONE');
#21=PRODUCT_RELATED_PRODUCT_CATEGORY('detail',' ',(#50));
#22=PRODUCT_DEFINITION_SHAPE('NONE','NONE',#51);
#23=ADVANCED_BREP_SHAPE_REPRESENTATION('HALDERN_EH_23040_0623',(#49,#52),#6);
#26=UNCERTAINTY_MEASURE_WITH_UNIT(LENGTH_MEASURE(1.0E-06),#28,'','');
#28= (CONVERSION_BASED_UNIT('MILLIMETRE',#55)LENGTH_UNIT()NAMED_UNIT(#58));
#29= (NAMED_UNIT(#60)PLANE_ANGLE_UNIT()SI_UNIT($,.RADIAN.));
#30= (NAMED_UNIT(#60)SOLID_ANGLE_UNIT()SI_UNIT($,.STERADIAN.));
#32=PRESENTATION_STYLE_ASSIGNMENT((#66));
#33=ADVANCED_FACE('',(#67),#68,.T.);
#34=PRESENTATION_STYLE_ASSIGNMENT((#69));
#35=ADVANCED_FACE('',(#70),#71,.T.);
#36=PRESENTATION_STYLE_ASSIGNMENT((#72));
#37=ADVANCED_FACE('',(#73),#74,.T.);
#38=PRESENTATION_STYLE_ASSIGNMENT((#75));
#39=ADVANCED_FACE('',(#76),#77,.T.);
#40=PRESENTATION_STYLE_ASSIGNMENT((#78));
#41=ADVANCED_FACE('',(#79),#80,.T.);
#42=PRESENTATION_STYLE_ASSIGNMENT((#81));
#43=ADVANCED_FACE('',(#82),#83,.T.);
#44=PRESENTATION_STYLE_ASSIGNMENT((#84));
#45=ADVANCED_FACE('',(#85),#86,.T.);
#46=PRESENTATION_STYLE_ASSIGNMENT((#87));
#47=ADVANCED_FACE('',(#88),#89,.T.);
#48=PRESENTATION_STYLE_ASSIGNMENT((#90));
#49=MANIFOLD_SOLID_BREP('HALDERN_EH_23040_0623',#91);
#50=PRODUCT('HALDERN_EH_23040_0623','','PART--DESC',(#92));
#51=PRODUCT_DEFINITION('','NONE',#93,#2);
#52=AXIS2_PLACEMENT_3D('',#94,#95,#96);
#55=LENGTH_MEASURE_WITH_UNIT(LENGTH_MEASURE(1.0),#97);
#58=DIMENSIONAL_EXPONENTS(1.0,0.0,0.0,0.0,0.0,0.0,0.0);
#60=DIMENSIONAL_EXPONENTS(0.0,0.0,0.0,0.0,0.0,0.0,0.0);
#66=SURFACE_STYLE_USAGE(.BOTH.,#98);
#67=FACE_OUTER_BOUND('',#99,.T.);
#68=CONICAL_SURFACE('',#100,5.46325000000002,0.785398163397435);
#69=SURFACE_STYLE_USAGE(.BOTH.,#101);
#70=FACE_OUTER_BOUND('',#102,.T.);
#71=CYLINDRICAL_SURFACE('',#103,6.0);
#72=SURFACE_STYLE_USAGE(.BOTH.,#104);
#73=FACE_OUTER_BOUND('',#105,.T.);
#74=CONICAL_SURFACE('',#106,5.46325000000002,0.785398163397435);
#75=SURFACE_STYLE_USAGE(.BOTH.,#107);
#76=FACE_OUTER_BOUND('',#108,.T.);
#77=PLANE('',#109);
#78=SURFACE_STYLE_USAGE(.BOTH.,#110);
#79=FACE_OUTER_BOUND('',#111,.T.);
#80=CONICAL_SURFACE('',#112,5.46325000000002,0.785398163397435);
#81=SURFACE_STYLE_USAGE(.BOTH.,#113);
#82=FACE_OUTER_BOUND('',#114,.T.);
#83=CYLINDRICAL_SURFACE('',#115,6.0);
#84=SURFACE_STYLE_USAGE(.BOTH.,#116);
#85=FACE_OUTER_BOUND('',#117,.T.);
#86=CONICAL_SURFACE('',#118,5.46325000000002,0.785398163397435);
#87=SURFACE_STYLE_USAGE(.BOTH.,#119);
#88=FACE_OUTER_BOUND('',#120,.T.);
#89=PLANE('',#121);
#90=SURFACE_STYLE_USAGE(.BOTH.,#122);
#91=CLOSED_SHELL('',(#33,#35,#37,#39,#41,#43,#45,#47));
#92=PRODUCT_CONTEXT('',#19,'mechanical');
#93=PRODUCT_DEFINITION_FORMATION_WITH_SPECIFIED_SOURCE(' ','NONE',#50,.NOT_KNOWN.);
#94=CARTESIAN_POINT('',(0.0,0.0,0.0));
#95=DIRECTION('',(0.0,0.0,1.0));
#96=DIRECTION('',(1.0,0.0,0.0));
#97= (NAMED_UNIT(#58)LENGTH_UNIT()SI_UNIT(.MILLI.,.METRE.));
#98=SURFACE_SIDE_STYLE('',(#124));
#99=EDGE_LOOP('',(#125,#126,#127,#128));
#100=AXIS2_PLACEMENT_3D('',#129,#130,#131);
#101=SURFACE_SIDE_STYLE('',(#132));
#102=EDGE_LOOP('',(#133,#134,#135,#136));
#103=AXIS2_PLACEMENT_3D('',#137,#138,#139);
#104=SURFACE_SIDE_STYLE('',(#140));
#105=EDGE_LOOP('',(#141,#142,#143,#144));
#106=AXIS2_PLACEMENT_3D('',#145,#146,#147);
#107=SURFACE_SIDE_STYLE('',(#148));
#108=EDGE_LOOP('',(#149,#150));
#109=AXIS2_PLACEMENT_3D('',#151,#152,#153);
#110=SURFACE_SIDE_STYLE('',(#154));
#111=EDGE_LOOP('',(#155,#156,#157,#158));
#112=AXIS2_PLACEMENT_3D('',#159,#160,#161);
#113=SURFACE_SIDE_STYLE('',(#162));
#114=EDGE_LOOP('',(#163,#164,#165,#166));
#115=AXIS2_PLACEMENT_3D('',#167,#168,#169);
#116=SURFACE_SIDE_STYLE('',(#170));
#117=EDGE_LOOP('',(#171,#172,#173,#174));
#118=AXIS2_PLACEMENT_3D('',#175,#176,#177);
#119=SURFACE_SIDE_STYLE('',(#178));
#120=EDGE_LOOP('',(#179,#180));
#121=AXIS2_PLACEMENT_3D('',#181,#182,#183);
#122=SURFACE_SIDE_STYLE('',(#184));
#124=SURFACE_STYLE_FILL_AREA(#185);
#125=ORIENTED_EDGE('',*,*,#186,.F.);
#126=ORIENTED_EDGE('',*,*,#187,.F.);
#127=ORIENTED_EDGE('',*,*,#188,.T.);
#128=ORIENTED_EDGE('',*,*,#189,.T.);
#129=CARTESIAN_POINT('',(2.38335829706666E-30,1.94622401690752E-14,79.46325));
#130=DIRECTION('',(-2.99932144369354E-32,-2.44921270764475E-16,-1.0));
#131=DIRECTION('',(-1.0,-8.08252590055213E-13,1.97988244669438E-28));
#132=SURFACE_STYLE_FILL_AREA(#190);
#133=ORIENTED_EDGE('',*,*,#191,.F.);
#134=ORIENTED_EDGE('',*,*,#192,.T.);
#135=ORIENTED_EDGE('',*,*,#193,.F.);
#136=ORIENTED_EDGE('',*,*,#194,.F.);
#137=CARTESIAN_POINT('',(1.19972857745771E-30,9.79685083057902E-15,40.0));
#138=DIRECTION('',(-2.99932144369609E-32,-2.44921270764475E-16,-1.0));
#139=DIRECTION('',(-1.0,-8.08252590055213E-13,1.97988244669438E-28));
#140=SURFACE_STYLE_FILL_AREA(#195);
#141=ORIENTED_EDGE('',*,*,#196,.F.);
#142=ORIENTED_EDGE('',*,*,#197,.T.);
#143=ORIENTED_EDGE('',*,*,#198,.F.);
#144=ORIENTED_EDGE('',*,*,#192,.F.);
#145=CARTESIAN_POINT('',(1.60988578487602E-32,1.31461492082828E-16,0.536749999999955));
#146=DIRECTION('',(2.99932144369354E-32,2.44921270764475E-16,1.0));
#147=DIRECTION('',(-1.0,-8.08252590055213E-13,1.97988244669438E-28));
#148=SURFACE_STYLE_FILL_AREA(#199);
#149=ORIENTED_EDGE('',*,*,#197,.F.);
#150=ORIENTED_EDGE('',*,*,#200,.F.);
#151=CARTESIAN_POINT('',(-2.46325000000002,3.01651160105298E-16,-3.5527136788005E-14));
#152=DIRECTION('',(-2.99932144364427E-32,-2.44921270764475E-16,-1.0));
#153=DIRECTION('',(0.0,-1.0,2.44921270764475E-16));
#154=SURFACE_STYLE_FILL_AREA(#201);
#155=ORIENTED_EDGE('',*,*,#196,.T.);
#156=ORIENTED_EDGE('',*,*,#202,.F.);
#157=ORIENTED_EDGE('',*,*,#198,.T.);
#158=ORIENTED_EDGE('',*,*,#200,.T.);
#159=CARTESIAN_POINT('',(1.60988578487602E-32,1.31461492082828E-16,0.536749999999955));
#160=DIRECTION('',(2.99932144369354E-32,2.44921270764475E-16,1.0));
#161=DIRECTION('',(-1.0,-8.08252590055213E-13,1.97988244669438E-28));
#162=SURFACE_STYLE_FILL_AREA(#203);
#163=ORIENTED_EDGE('',*,*,#191,.T.);
#164=ORIENTED_EDGE('',*,*,#189,.F.);
#165=ORIENTED_EDGE('',*,*,#193,.T.);
#166=ORIENTED_EDGE('',*,*,#202,.T.);
#167=CARTESIAN_POINT('',(1.19972857745771E-30,9.79685083057902E-15,40.0));
#168=DIRECTION('',(-2.99932144369609E-32,-2.44921270764475E-16,-1.0));
#169=DIRECTION('',(-1.0,-8.08252590055213E-13,1.97988244669438E-28));
#170=SURFACE_STYLE_FILL_AREA(#204);
#171=ORIENTED_EDGE('',*,*,#186,.T.);
#172=ORIENTED_EDGE('',*,*,#194,.T.);
#173=ORIENTED_EDGE('',*,*,#188,.F.);
#174=ORIENTED_EDGE('',*,*,#205,.F.);
#175=CARTESIAN_POINT('',(2.38335829706666E-30,1.94622401690752E-14,79.46325));
#176=DIRECTION('',(-2.99932144369354E-32,-2.44921270764475E-16,-1.0));
#177=DIRECTION('',(-1.0,-8.08252590055213E-13,1.97988244669438E-28));
#178=SURFACE_STYLE_FILL_AREA(#206);
#179=ORIENTED_EDGE('',*,*,#205,.T.);
#180=ORIENTED_EDGE('',*,*,#187,.T.);
#181=CARTESIAN_POINT('',(-2.46325000000002,1.49969274059738E-14,80.0));
#182=DIRECTION('',(7.34597619408494E-48,2.44921270764475E-16,1.0));
#183=DIRECTION('',(1.0,-2.99932144364427E-32,0.0));
#184=SURFACE_STYLE_FILL_AREA(#207);
#185=FILL_AREA_STYLE('',(#208));
#186=EDGE_CURVE('',#209,#210,#211,.T.);
#187=EDGE_CURVE('',#212,#209,#213,.T.);
#188=EDGE_CURVE('',#212,#214,#215,.T.);
#189=EDGE_CURVE('',#214,#210,#216,.T.);
#190=FILL_AREA_STYLE('',(#217));
#191=EDGE_CURVE('',#218,#210,#219,.T.);
#192=EDGE_CURVE('',#218,#220,#221,.T.);
#193=EDGE_CURVE('',#214,#220,#222,.T.);
#194=EDGE_CURVE('',#210,#214,#223,.T.);
#195=FILL_AREA_STYLE('',(#224));
#196=EDGE_CURVE('',#225,#218,#226,.T.);
#197=EDGE_CURVE('',#225,#227,#228,.T.);
#198=EDGE_CURVE('',#220,#227,#229,.T.);
#199=FILL_AREA_STYLE('',(#230));
#200=EDGE_CURVE('',#227,#225,#231,.T.);
#201=FILL_AREA_STYLE('',(#232));
#202=EDGE_CURVE('',#220,#218,#233,.T.);
#203=FILL_AREA_STYLE('',(#234));
#204=FILL_AREA_STYLE('',(#235));
#205=EDGE_CURVE('',#209,#212,#236,.T.);
#206=FILL_AREA_STYLE('',(#237));
#207=FILL_AREA_STYLE('',(#238));
#208=FILL_AREA_STYLE_COLOUR('',#239);
#209=VERTEX_POINT('',#240);
#210=VERTEX_POINT('',#241);
#211=LINE('',#242,#243);
#212=VERTEX_POINT('',#244);
#213=CIRCLE('',#245,4.92650000000003);
#214=VERTEX_POINT('',#246);
#215=LINE('',#247,#248);
#216=CIRCLE('',#249,6.0);
#217=FILL_AREA_STYLE_COLOUR('',#250);
#218=VERTEX_POINT('',#251);
#219=LINE('',#252,#253);
#220=VERTEX_POINT('',#254);
#221=CIRCLE('',#255,6.0);
#222=LINE('',#256,#257);
#223=CIRCLE('',#258,6.0);
#224=FILL_AREA_STYLE_COLOUR('',#259);
#225=VERTEX_POINT('',#260);
#226=LINE('',#261,#262);
#227=VERTEX_POINT('',#263);
#228=CIRCLE('',#264,4.92650000000003);
#229=LINE('',#265,#266);
#230=FILL_AREA_STYLE_COLOUR('',#267);
#231=CIRCLE('',#268,4.92650000000003);
#232=FILL_AREA_STYLE_COLOUR('',#269);
#233=CIRCLE('',#270,6.0);
#234=FILL_AREA_STYLE_COLOUR('',#271);
#235=FILL_AREA_STYLE_COLOUR('',#272);
#236=CIRCLE('',#273,4.92650000000003);
#237=FILL_AREA_STYLE_COLOUR('',#274);
#238=FILL_AREA_STYLE_COLOUR('',#275);
#239=COLOUR_RGB('',0.588235318660736,0.588235318660736,0.588235318660736);
#240=CARTESIAN_POINT('',(-4.92650000000003,1.52985785660791E-14,80.0));
#241=CARTESIAN_POINT('',(-6.0,1.52328478200377E-14,78.9265));
#242=CARTESIAN_POINT('',(-5.46325000000002,-4.39555468938383E-12,79.46325));
#243=VECTOR('',#276,1.0);
#244=CARTESIAN_POINT('',(4.92650000000003,4.00205340881379E-12,80.0));
#245=AXIS2_PLACEMENT_3D('',#277,#278,#279);
#246=CARTESIAN_POINT('',(6.0,4.86958110708776E-12,78.9265));
#247=CARTESIAN_POINT('',(5.46325000000002,4.43581725795077E-12,79.46325));
#248=VECTOR('',#280,5.46325000000002);
#249=AXIS2_PLACEMENT_3D('',#281,#282,#283);
#250=COLOUR_RGB('',0.588235318660736,0.588235318660736,0.588235318660736);
#251=CARTESIAN_POINT('',(-6.0,9.31956050417671E-16,1.07349999999995));
#252=CARTESIAN_POINT('',(-6.0,-4.84045345331299E-12,40.0));
#253=VECTOR('',#284,1.0);
#254=CARTESIAN_POINT('',(6.0,4.85051325139493E-12,1.07349999999995));
#255=AXIS2_PLACEMENT_3D('',#285,#286,#287);
#256=CARTESIAN_POINT('',(6.0,4.86004717924134E-12,40.0));
#257=VECTOR('',#288,6.0);
#258=AXIS2_PLACEMENT_3D('',#289,#290,#291);
#259=COLOUR_RGB('',0.588235318660736,0.588235318660736,0.588235318660736);
#260=CARTESIAN_POINT('',(-4.92650000000003,6.03302320210596E-16,-4.2632564145606E-14));
#261=CARTESIAN_POINT('',(-5.46325000000002,-4.41622353419333E-12,0.536749999999955));
#262=VECTOR('',#292,1.0);
#263=CARTESIAN_POINT('',(4.92650000000003,3.98245970715263E-12,-4.24660306919122E-14));
#264=AXIS2_PLACEMENT_3D('',#293,#294,#295);
#265=CARTESIAN_POINT('',(5.46325000000002,4.41648647927378E-12,0.536749999999955));
#266=VECTOR('',#296,5.46325000000002);
#267=COLOUR_RGB('',0.588235318660736,0.588235318660736,0.588235318660736);
#268=AXIS2_PLACEMENT_3D('',#297,#298,#299);
#269=COLOUR_RGB('',0.588235318660736,0.588235318660736,0.588235318660736);
#270=AXIS2_PLACEMENT_3D('',#300,#301,#302);
#271=COLOUR_RGB('',0.588235318660736,0.588235318660736,0.588235318660736);
#272=COLOUR_RGB('',0.588235318660736,0.588235318660736,0.588235318660736);
#273=AXIS2_PLACEMENT_3D('',#303,#304,#305);
#274=COLOUR_RGB('',0.588235318660736,0.588235318660736,0.588235318660736);
#275=COLOUR_RGB('',0.588235318660736,0.588235318660736,0.588235318660736);
#276=DIRECTION('',(-0.707106781186538,-5.71607480085331E-13,-0.707106781186557));
#277=CARTESIAN_POINT('',(2.39945715491542E-30,1.9593701661158E-14,80.0));
#278=DIRECTION('',(2.99932144369789E-32,2.44921270764475E-16,1.0));
#279=DIRECTION('',(-1.0,-8.08252590055213E-13,1.97988244669438E-28));
#280=DIRECTION('',(0.707106781186538,5.71434297453833E-13,-0.707106781186557));
#281=CARTESIAN_POINT('',(2.3672594392179E-30,1.93307786769924E-14,78.9265));
#282=DIRECTION('',(2.99932144369609E-32,2.44921270764475E-16,1.0));
#283=DIRECTION('',(-1.0,-8.08252590055213E-13,1.97988244669438E-28));
#284=DIRECTION('',(2.99932144369609E-32,2.44921270764475E-16,1.0));
#285=CARTESIAN_POINT('',(3.21977156975207E-32,2.6292298416566E-16,1.07349999999995));
#286=DIRECTION('',(2.99932144369609E-32,2.44921270764475E-16,1.0));
#287=DIRECTION('',(-1.0,-8.08252590055213E-13,1.97988244669438E-28));
#288=DIRECTION('',(-2.99932144364428E-32,-2.44921270764475E-16,-1.0));
#289=CARTESIAN_POINT('',(2.3672594392179E-30,1.93307786769924E-14,78.9265));
#290=DIRECTION('',(2.99932144369609E-32,2.44921270764475E-16,1.0));
#291=DIRECTION('',(-1.0,-8.08252590055213E-13,1.97988244669438E-28));
#292=DIRECTION('',(-0.707106781186538,-5.71434294593917E-13,0.707106781186557));
#293=CARTESIAN_POINT('',(-4.26229212798187E-46,-3.48054059549661E-30,-4.2632564145606E-14));
#294=DIRECTION('',(2.99932144369789E-32,2.44921270764475E-16,1.0));
#295=DIRECTION('',(-1.0,-8.08252590055213E-13,1.97988244669438E-28));
#296=DIRECTION('',(-0.707106781186538,-5.71780668436662E-13,-0.707106781186557));
#297=CARTESIAN_POINT('',(-4.26229212798187E-46,-3.48054059549661E-30,-4.2632564145606E-14));
#298=DIRECTION('',(2.99932144369789E-32,2.44921270764475E-16,1.0));
#299=DIRECTION('',(-1.0,-8.08252590055213E-13,1.97988244669438E-28));
#300=CARTESIAN_POINT('',(3.21977156975207E-32,2.6292298416566E-16,1.07349999999995));
#301=DIRECTION('',(2.99932144369609E-32,2.44921270764475E-16,1.0));
#302=DIRECTION('',(-1.0,-8.08252590055213E-13,1.97988244669438E-28));
#303=CARTESIAN_POINT('',(2.39945715491542E-30,1.9593701661158E-14,80.0));
#304=DIRECTION('',(2.99932144369789E-32,2.44921270764475E-16,1.0));
#305=DIRECTION('',(-1.0,-8.08252590055213E-13,1.97988244669438E-28));
ENDSEC;
END-ISO-10303-21;
