ISO-10303-21;
HEADER;
FILE_DESCRIPTION(('STEP AP214'),'1');
FILE_NAME('HALDERN_EH_23040_0664.stp','2021-10-05T09:34:55',('TraceParts'),('TraceParts S.A.'),'Spatial InterOp 3D',' ',' ');
FILE_SCHEMA(('AUTOMOTIVE_DESIGN { 1 0 10303 214 1 1 1 1 }'));
ENDSEC;
DATA;
#1=MECHANICAL_DESIGN_GEOMETRIC_PRESENTATION_REPRESENTATION(' ',(#10,#11,#12,#13,#14,#15,#16,#17,#18,#19,#20,#21,#22,#23,#24,#25,#26),#6);
#2=PRODUCT_DEFINITION_CONTEXT('',#27,'design');
#3=APPLICATION_PROTOCOL_DEFINITION('INTERNATIONAL STANDARD','automotive_design',1994,#27);
#4=PRODUCT_CATEGORY_RELATIONSHIP('NONE','NONE',#28,#29);
#5=SHAPE_DEFINITION_REPRESENTATION(#30,#31);
#6= (GEOMETRIC_REPRESENTATION_CONTEXT(3)GLOBAL_UNCERTAINTY_ASSIGNED_CONTEXT((#34))GLOBAL_UNIT_ASSIGNED_CONTEXT((#36,#37,#38))REPRESENTATION_CONTEXT('NONE','WORKSPACE'));
#10=STYLED_ITEM('',(#40),#41);
#11=STYLED_ITEM('',(#42),#43);
#12=STYLED_ITEM('',(#44),#45);
#13=STYLED_ITEM('',(#46),#47);
#14=STYLED_ITEM('',(#48),#49);
#15=STYLED_ITEM('',(#50),#51);
#16=STYLED_ITEM('',(#52),#53);
#17=STYLED_ITEM('',(#54),#55);
#18=STYLED_ITEM('',(#56),#57);
#19=STYLED_ITEM('',(#58),#59);
#20=STYLED_ITEM('',(#60),#61);
#21=STYLED_ITEM('',(#62),#63);
#22=STYLED_ITEM('',(#64),#65);
#23=STYLED_ITEM('',(#66),#67);
#24=STYLED_ITEM('',(#68),#69);
#25=STYLED_ITEM('',(#70),#71);
#26=STYLED_ITEM('',(#72),#73);
#27=APPLICATION_CONTEXT(' ');
#28=PRODUCT_CATEGORY('part','NONE');
#29=PRODUCT_RELATED_PRODUCT_CATEGORY('detail',' ',(#74));
#30=PRODUCT_DEFINITION_SHAPE('NONE','NONE',#75);
#31=ADVANCED_BREP_SHAPE_REPRESENTATION('HALDERN_EH_23040_0664',(#73,#76),#6);
#34=UNCERTAINTY_MEASURE_WITH_UNIT(LENGTH_MEASURE(1.0E-06),#36,'','');
#36= (CONVERSION_BASED_UNIT('MILLIMETRE',#79)LENGTH_UNIT()NAMED_UNIT(#82));
#37= (NAMED_UNIT(#84)PLANE_ANGLE_UNIT()SI_UNIT($,.RADIAN.));
#38= (NAMED_UNIT(#84)SOLID_ANGLE_UNIT()SI_UNIT($,.STERADIAN.));
#40=PRESENTATION_STYLE_ASSIGNMENT((#90));
#41=ADVANCED_FACE('',(#91),#92,.T.);
#42=PRESENTATION_STYLE_ASSIGNMENT((#93));
#43=ADVANCED_FACE('',(#94),#95,.T.);
#44=PRESENTATION_STYLE_ASSIGNMENT((#96));
#45=ADVANCED_FACE('',(#97),#98,.T.);
#46=PRESENTATION_STYLE_ASSIGNMENT((#99));
#47=ADVANCED_FACE('',(#100),#101,.T.);
#48=PRESENTATION_STYLE_ASSIGNMENT((#102));
#49=ADVANCED_FACE('',(#103),#104,.T.);
#50=PRESENTATION_STYLE_ASSIGNMENT((#105));
#51=ADVANCED_FACE('',(#106),#107,.T.);
#52=PRESENTATION_STYLE_ASSIGNMENT((#108));
#53=ADVANCED_FACE('',(#109),#110,.T.);
#54=PRESENTATION_STYLE_ASSIGNMENT((#111));
#55=ADVANCED_FACE('',(#112),#113,.T.);
#56=PRESENTATION_STYLE_ASSIGNMENT((#114));
#57=ADVANCED_FACE('',(#115),#116,.T.);
#58=PRESENTATION_STYLE_ASSIGNMENT((#117));
#59=ADVANCED_FACE('',(#118),#119,.T.);
#60=PRESENTATION_STYLE_ASSIGNMENT((#120));
#61=ADVANCED_FACE('',(#121),#122,.T.);
#62=PRESENTATION_STYLE_ASSIGNMENT((#123));
#63=ADVANCED_FACE('',(#124),#125,.T.);
#64=PRESENTATION_STYLE_ASSIGNMENT((#126));
#65=ADVANCED_FACE('',(#127),#128,.T.);
#66=PRESENTATION_STYLE_ASSIGNMENT((#129));
#67=ADVANCED_FACE('',(#130),#131,.T.);
#68=PRESENTATION_STYLE_ASSIGNMENT((#132));
#69=ADVANCED_FACE('',(#133),#134,.T.);
#70=PRESENTATION_STYLE_ASSIGNMENT((#135));
#71=ADVANCED_FACE('',(#136),#137,.T.);
#72=PRESENTATION_STYLE_ASSIGNMENT((#138));
#73=MANIFOLD_SOLID_BREP('HALDERN_EH_23040_0664',#139);
#74=PRODUCT('HALDERN_EH_23040_0664','','PART--DESC',(#140));
#75=PRODUCT_DEFINITION('','NONE',#141,#2);
#76=AXIS2_PLACEMENT_3D('',#142,#143,#144);
#79=LENGTH_MEASURE_WITH_UNIT(LENGTH_MEASURE(1.0),#145);
#82=DIMENSIONAL_EXPONENTS(1.0,0.0,0.0,0.0,0.0,0.0,0.0);
#84=DIMENSIONAL_EXPONENTS(0.0,0.0,0.0,0.0,0.0,0.0,0.0);
#90=SURFACE_STYLE_USAGE(.BOTH.,#146);
#91=FACE_OUTER_BOUND('',#147,.T.);
#92=CONICAL_SURFACE('',#148,7.3865,0.785398163397437);
#93=SURFACE_STYLE_USAGE(.BOTH.,#149);
#94=FACE_OUTER_BOUND('',#150,.T.);
#95=CYLINDRICAL_SURFACE('',#151,8.0);
#96=SURFACE_STYLE_USAGE(.BOTH.,#152);
#97=FACE_OUTER_BOUND('',#153,.T.);
#98=CONICAL_SURFACE('',#154,7.3865,0.785398163397425);
#99=SURFACE_STYLE_USAGE(.BOTH.,#155);
#100=FACE_OUTER_BOUND('',#156,.T.);
#101=CYLINDRICAL_SURFACE('',#157,6.773);
#102=SURFACE_STYLE_USAGE(.BOTH.,#158);
#103=FACE_OUTER_BOUND('',#159,.T.);
#104=CONICAL_SURFACE('',#160,7.3865,0.785398163397425);
#105=SURFACE_STYLE_USAGE(.BOTH.,#161);
#106=FACE_OUTER_BOUND('',#162,.T.);
#107=CYLINDRICAL_SURFACE('',#163,8.0);
#108=SURFACE_STYLE_USAGE(.BOTH.,#164);
#109=FACE_OUTER_BOUND('',#165,.T.);
#110=CONICAL_SURFACE('',#166,7.3865,0.785398163397443);
#111=SURFACE_STYLE_USAGE(.BOTH.,#167);
#112=FACE_OUTER_BOUND('',#168,.T.);
#113=PLANE('',#169);
#114=SURFACE_STYLE_USAGE(.BOTH.,#170);
#115=FACE_OUTER_BOUND('',#171,.T.);
#116=CONICAL_SURFACE('',#172,7.3865,0.785398163397443);
#117=SURFACE_STYLE_USAGE(.BOTH.,#173);
#118=FACE_OUTER_BOUND('',#174,.T.);
#119=CYLINDRICAL_SURFACE('',#175,8.0);
#120=SURFACE_STYLE_USAGE(.BOTH.,#176);
#121=FACE_OUTER_BOUND('',#177,.T.);
#122=CONICAL_SURFACE('',#178,7.3865,0.785398163397425);
#123=SURFACE_STYLE_USAGE(.BOTH.,#179);
#124=FACE_OUTER_BOUND('',#180,.T.);
#125=CYLINDRICAL_SURFACE('',#181,6.773);
#126=SURFACE_STYLE_USAGE(.BOTH.,#182);
#127=FACE_OUTER_BOUND('',#183,.T.);
#128=CONICAL_SURFACE('',#184,7.3865,0.785398163397425);
#129=SURFACE_STYLE_USAGE(.BOTH.,#185);
#130=FACE_OUTER_BOUND('',#186,.T.);
#131=CYLINDRICAL_SURFACE('',#187,8.0);
#132=SURFACE_STYLE_USAGE(.BOTH.,#188);
#133=FACE_OUTER_BOUND('',#189,.T.);
#134=CONICAL_SURFACE('',#190,7.3865,0.785398163397437);
#135=SURFACE_STYLE_USAGE(.BOTH.,#191);
#136=FACE_OUTER_BOUND('',#192,.T.);
#137=PLANE('',#193);
#138=SURFACE_STYLE_USAGE(.BOTH.,#194);
#139=CLOSED_SHELL('',(#41,#43,#45,#47,#49,#51,#53,#55,#57,#59,#61,#63,#65,#67,#69,#71));
#140=PRODUCT_CONTEXT('',#27,'mechanical');
#141=PRODUCT_DEFINITION_FORMATION_WITH_SPECIFIED_SOURCE(' ','NONE',#74,.NOT_KNOWN.);
#142=CARTESIAN_POINT('',(0.0,0.0,0.0));
#143=DIRECTION('',(0.0,0.0,1.0));
#144=DIRECTION('',(1.0,0.0,0.0));
#145= (NAMED_UNIT(#82)LENGTH_UNIT()SI_UNIT(.MILLI.,.METRE.));
#146=SURFACE_SIDE_STYLE('',(#196));
#147=EDGE_LOOP('',(#197,#198,#199,#200));
#148=AXIS2_PLACEMENT_3D('',#201,#202,#203);
#149=SURFACE_SIDE_STYLE('',(#204));
#150=EDGE_LOOP('',(#205,#206,#207,#208));
#151=AXIS2_PLACEMENT_3D('',#209,#210,#211);
#152=SURFACE_SIDE_STYLE('',(#212));
#153=EDGE_LOOP('',(#213,#214,#215,#216));
#154=AXIS2_PLACEMENT_3D('',#217,#218,#219);
#155=SURFACE_SIDE_STYLE('',(#220));
#156=EDGE_LOOP('',(#221,#222,#223,#224));
#157=AXIS2_PLACEMENT_3D('',#225,#226,#227);
#158=SURFACE_SIDE_STYLE('',(#228));
#159=EDGE_LOOP('',(#229,#230,#231,#232));
#160=AXIS2_PLACEMENT_3D('',#233,#234,#235);
#161=SURFACE_SIDE_STYLE('',(#236));
#162=EDGE_LOOP('',(#237,#238,#239,#240));
#163=AXIS2_PLACEMENT_3D('',#241,#242,#243);
#164=SURFACE_SIDE_STYLE('',(#244));
#165=EDGE_LOOP('',(#245,#246,#247,#248));
#166=AXIS2_PLACEMENT_3D('',#249,#250,#251);
#167=SURFACE_SIDE_STYLE('',(#252));
#168=EDGE_LOOP('',(#253,#254));
#169=AXIS2_PLACEMENT_3D('',#255,#256,#257);
#170=SURFACE_SIDE_STYLE('',(#258));
#171=EDGE_LOOP('',(#259,#260,#261,#262));
#172=AXIS2_PLACEMENT_3D('',#263,#264,#265);
#173=SURFACE_SIDE_STYLE('',(#266));
#174=EDGE_LOOP('',(#267,#268,#269,#270));
#175=AXIS2_PLACEMENT_3D('',#271,#272,#273);
#176=SURFACE_SIDE_STYLE('',(#274));
#177=EDGE_LOOP('',(#275,#276,#277,#278));
#178=AXIS2_PLACEMENT_3D('',#279,#280,#281);
#179=SURFACE_SIDE_STYLE('',(#282));
#180=EDGE_LOOP('',(#283,#284,#285,#286));
#181=AXIS2_PLACEMENT_3D('',#287,#288,#289);
#182=SURFACE_SIDE_STYLE('',(#290));
#183=EDGE_LOOP('',(#291,#292,#293,#294));
#184=AXIS2_PLACEMENT_3D('',#295,#296,#297);
#185=SURFACE_SIDE_STYLE('',(#298));
#186=EDGE_LOOP('',(#299,#300,#301,#302));
#187=AXIS2_PLACEMENT_3D('',#303,#304,#305);
#188=SURFACE_SIDE_STYLE('',(#306));
#189=EDGE_LOOP('',(#307,#308,#309,#310));
#190=AXIS2_PLACEMENT_3D('',#311,#312,#313);
#191=SURFACE_SIDE_STYLE('',(#314));
#192=EDGE_LOOP('',(#315,#316));
#193=AXIS2_PLACEMENT_3D('',#317,#318,#319);
#194=SURFACE_SIDE_STYLE('',(#320));
#196=SURFACE_STYLE_FILL_AREA(#321);
#197=ORIENTED_EDGE('',*,*,#322,.F.);
#198=ORIENTED_EDGE('',*,*,#323,.F.);
#199=ORIENTED_EDGE('',*,*,#324,.T.);
#200=ORIENTED_EDGE('',*,*,#325,.T.);
#201=CARTESIAN_POINT('',(0.0,0.0,85.6135));
#202=DIRECTION('',(0.0,-0.0,-1.0));
#203=DIRECTION('',(9.18551472385561E-13,-1.0,0.0));
#204=SURFACE_STYLE_FILL_AREA(#326);
#205=ORIENTED_EDGE('',*,*,#327,.F.);
#206=ORIENTED_EDGE('',*,*,#328,.T.);
#207=ORIENTED_EDGE('',*,*,#329,.F.);
#208=ORIENTED_EDGE('',*,*,#330,.F.);
#209=CARTESIAN_POINT('',(0.0,0.0,54.727));
#210=DIRECTION('',(0.0,-0.0,-1.0));
#211=DIRECTION('',(9.18551472385561E-13,-1.0,0.0));
#212=SURFACE_STYLE_FILL_AREA(#331);
#213=ORIENTED_EDGE('',*,*,#332,.F.);
#214=ORIENTED_EDGE('',*,*,#333,.T.);
#215=ORIENTED_EDGE('',*,*,#334,.F.);
#216=ORIENTED_EDGE('',*,*,#328,.F.);
#217=CARTESIAN_POINT('',(0.0,0.0,23.8405));
#218=DIRECTION('',(-0.0,0.0,1.0));
#219=DIRECTION('',(9.18551472385561E-13,-1.0,0.0));
#220=SURFACE_STYLE_FILL_AREA(#335);
#221=ORIENTED_EDGE('',*,*,#336,.F.);
#222=ORIENTED_EDGE('',*,*,#337,.T.);
#223=ORIENTED_EDGE('',*,*,#338,.F.);
#224=ORIENTED_EDGE('',*,*,#333,.F.);
#225=CARTESIAN_POINT('',(0.0,0.0,12.227));
#226=DIRECTION('',(0.0,-0.0,-1.0));
#227=DIRECTION('',(9.18551472385561E-13,-1.0,0.0));
#228=SURFACE_STYLE_FILL_AREA(#339);
#229=ORIENTED_EDGE('',*,*,#340,.F.);
#230=ORIENTED_EDGE('',*,*,#341,.F.);
#231=ORIENTED_EDGE('',*,*,#342,.T.);
#232=ORIENTED_EDGE('',*,*,#343,.T.);
#233=CARTESIAN_POINT('',(0.0,0.0,0.613500000000002));
#234=DIRECTION('',(0.0,-0.0,-1.0));
#235=DIRECTION('',(9.18551472385561E-13,-1.0,0.0));
#236=SURFACE_STYLE_FILL_AREA(#344);
#237=ORIENTED_EDGE('',*,*,#345,.F.);
#238=ORIENTED_EDGE('',*,*,#346,.T.);
#239=ORIENTED_EDGE('',*,*,#347,.F.);
#240=ORIENTED_EDGE('',*,*,#348,.F.);
#241=CARTESIAN_POINT('',(0.0,0.0,-18.773));
#242=DIRECTION('',(0.0,-0.0,-1.0));
#243=DIRECTION('',(9.18551472385561E-13,-1.0,0.0));
#244=SURFACE_STYLE_FILL_AREA(#349);
#245=ORIENTED_EDGE('',*,*,#350,.F.);
#246=ORIENTED_EDGE('',*,*,#351,.T.);
#247=ORIENTED_EDGE('',*,*,#352,.F.);
#248=ORIENTED_EDGE('',*,*,#346,.F.);
#249=CARTESIAN_POINT('',(0.0,0.0,-38.1594999999999));
#250=DIRECTION('',(-0.0,0.0,1.0));
#251=DIRECTION('',(9.18551472385561E-13,-1.0,0.0));
#252=SURFACE_STYLE_FILL_AREA(#353);
#253=ORIENTED_EDGE('',*,*,#351,.F.);
#254=ORIENTED_EDGE('',*,*,#354,.F.);
#255=CARTESIAN_POINT('',(-6.22069412582922E-16,-3.3865,-38.7729999999999));
#256=DIRECTION('',(0.0,0.0,-1.0));
#257=DIRECTION('',(0.0,-1.0,0.0));
#258=SURFACE_STYLE_FILL_AREA(#355);
#259=ORIENTED_EDGE('',*,*,#350,.T.);
#260=ORIENTED_EDGE('',*,*,#356,.F.);
#261=ORIENTED_EDGE('',*,*,#352,.T.);
#262=ORIENTED_EDGE('',*,*,#354,.T.);
#263=CARTESIAN_POINT('',(0.0,0.0,-38.1594999999999));
#264=DIRECTION('',(-0.0,0.0,1.0));
#265=DIRECTION('',(9.18551472385561E-13,-1.0,0.0));
#266=SURFACE_STYLE_FILL_AREA(#357);
#267=ORIENTED_EDGE('',*,*,#345,.T.);
#268=ORIENTED_EDGE('',*,*,#343,.F.);
#269=ORIENTED_EDGE('',*,*,#347,.T.);
#270=ORIENTED_EDGE('',*,*,#356,.T.);
#271=CARTESIAN_POINT('',(0.0,0.0,-18.773));
#272=DIRECTION('',(0.0,-0.0,-1.0));
#273=DIRECTION('',(9.18551472385561E-13,-1.0,0.0));
#274=SURFACE_STYLE_FILL_AREA(#358);
#275=ORIENTED_EDGE('',*,*,#340,.T.);
#276=ORIENTED_EDGE('',*,*,#348,.T.);
#277=ORIENTED_EDGE('',*,*,#342,.F.);
#278=ORIENTED_EDGE('',*,*,#337,.F.);
#279=CARTESIAN_POINT('',(0.0,0.0,0.613500000000002));
#280=DIRECTION('',(0.0,-0.0,-1.0));
#281=DIRECTION('',(9.18551472385561E-13,-1.0,0.0));
#282=SURFACE_STYLE_FILL_AREA(#359);
#283=ORIENTED_EDGE('',*,*,#336,.T.);
#284=ORIENTED_EDGE('',*,*,#360,.F.);
#285=ORIENTED_EDGE('',*,*,#338,.T.);
#286=ORIENTED_EDGE('',*,*,#341,.T.);
#287=CARTESIAN_POINT('',(0.0,0.0,12.227));
#288=DIRECTION('',(0.0,-0.0,-1.0));
#289=DIRECTION('',(9.18551472385561E-13,-1.0,0.0));
#290=SURFACE_STYLE_FILL_AREA(#361);
#291=ORIENTED_EDGE('',*,*,#332,.T.);
#292=ORIENTED_EDGE('',*,*,#362,.F.);
#293=ORIENTED_EDGE('',*,*,#334,.T.);
#294=ORIENTED_EDGE('',*,*,#360,.T.);
#295=CARTESIAN_POINT('',(0.0,0.0,23.8405));
#296=DIRECTION('',(-0.0,0.0,1.0));
#297=DIRECTION('',(9.18551472385561E-13,-1.0,0.0));
#298=SURFACE_STYLE_FILL_AREA(#363);
#299=ORIENTED_EDGE('',*,*,#327,.T.);
#300=ORIENTED_EDGE('',*,*,#325,.F.);
#301=ORIENTED_EDGE('',*,*,#329,.T.);
#302=ORIENTED_EDGE('',*,*,#362,.T.);
#303=CARTESIAN_POINT('',(0.0,0.0,54.727));
#304=DIRECTION('',(0.0,-0.0,-1.0));
#305=DIRECTION('',(9.18551472385561E-13,-1.0,0.0));
#306=SURFACE_STYLE_FILL_AREA(#364);
#307=ORIENTED_EDGE('',*,*,#322,.T.);
#308=ORIENTED_EDGE('',*,*,#330,.T.);
#309=ORIENTED_EDGE('',*,*,#324,.F.);
#310=ORIENTED_EDGE('',*,*,#365,.F.);
#311=CARTESIAN_POINT('',(0.0,0.0,85.6135));
#312=DIRECTION('',(0.0,-0.0,-1.0));
#313=DIRECTION('',(9.18551472385561E-13,-1.0,0.0));
#314=SURFACE_STYLE_FILL_AREA(#366);
#315=ORIENTED_EDGE('',*,*,#365,.T.);
#316=ORIENTED_EDGE('',*,*,#323,.T.);
#317=CARTESIAN_POINT('',(7.03172029880694E-15,-3.3865,86.2270000000001));
#318=DIRECTION('',(0.0,0.0,1.0));
#319=DIRECTION('',(1.0,-0.0,0.0));
#320=SURFACE_STYLE_FILL_AREA(#367);
#321=FILL_AREA_STYLE('',(#368));
#322=EDGE_CURVE('',#369,#370,#371,.T.);
#323=EDGE_CURVE('',#372,#369,#373,.T.);
#324=EDGE_CURVE('',#372,#374,#375,.T.);
#325=EDGE_CURVE('',#374,#370,#376,.T.);
#326=FILL_AREA_STYLE('',(#377));
#327=EDGE_CURVE('',#378,#370,#379,.T.);
#328=EDGE_CURVE('',#378,#380,#381,.T.);
#329=EDGE_CURVE('',#374,#380,#382,.T.);
#330=EDGE_CURVE('',#370,#374,#383,.T.);
#331=FILL_AREA_STYLE('',(#384));
#332=EDGE_CURVE('',#385,#378,#386,.T.);
#333=EDGE_CURVE('',#385,#387,#388,.T.);
#334=EDGE_CURVE('',#380,#387,#389,.T.);
#335=FILL_AREA_STYLE('',(#390));
#336=EDGE_CURVE('',#391,#385,#392,.T.);
#337=EDGE_CURVE('',#391,#393,#394,.T.);
#338=EDGE_CURVE('',#387,#393,#395,.T.);
#339=FILL_AREA_STYLE('',(#396));
#340=EDGE_CURVE('',#391,#397,#398,.T.);
#341=EDGE_CURVE('',#393,#391,#399,.T.);
#342=EDGE_CURVE('',#393,#400,#401,.T.);
#343=EDGE_CURVE('',#400,#397,#402,.T.);
#344=FILL_AREA_STYLE('',(#403));
#345=EDGE_CURVE('',#404,#397,#405,.T.);
#346=EDGE_CURVE('',#404,#406,#407,.T.);
#347=EDGE_CURVE('',#400,#406,#408,.T.);
#348=EDGE_CURVE('',#397,#400,#409,.T.);
#349=FILL_AREA_STYLE('',(#410));
#350=EDGE_CURVE('',#411,#404,#412,.T.);
#351=EDGE_CURVE('',#411,#413,#414,.T.);
#352=EDGE_CURVE('',#406,#413,#415,.T.);
#353=FILL_AREA_STYLE('',(#416));
#354=EDGE_CURVE('',#413,#411,#417,.T.);
#355=FILL_AREA_STYLE('',(#418));
#356=EDGE_CURVE('',#406,#404,#419,.T.);
#357=FILL_AREA_STYLE('',(#420));
#358=FILL_AREA_STYLE('',(#421));
#359=FILL_AREA_STYLE('',(#422));
#360=EDGE_CURVE('',#387,#385,#423,.T.);
#361=FILL_AREA_STYLE('',(#424));
#362=EDGE_CURVE('',#380,#378,#425,.T.);
#363=FILL_AREA_STYLE('',(#426));
#364=FILL_AREA_STYLE('',(#427));
#365=EDGE_CURVE('',#369,#372,#428,.T.);
#366=FILL_AREA_STYLE('',(#429));
#367=FILL_AREA_STYLE('',(#430));
#368=FILL_AREA_STYLE_COLOUR('',#431);
#369=VERTEX_POINT('',#432);
#370=VERTEX_POINT('',#433);
#371=LINE('',#434,#435);
#372=VERTEX_POINT('',#436);
#373=CIRCLE('',#437,6.773);
#374=VERTEX_POINT('',#438);
#375=LINE('',#439,#440);
#376=CIRCLE('',#441,8.0);
#377=FILL_AREA_STYLE_COLOUR('',#442);
#378=VERTEX_POINT('',#443);
#379=LINE('',#444,#445);
#380=VERTEX_POINT('',#446);
#381=CIRCLE('',#447,8.0);
#382=LINE('',#448,#449);
#383=CIRCLE('',#450,8.0);
#384=FILL_AREA_STYLE_COLOUR('',#451);
#385=VERTEX_POINT('',#452);
#386=LINE('',#453,#454);
#387=VERTEX_POINT('',#455);
#388=CIRCLE('',#456,6.773);
#389=LINE('',#457,#458);
#390=FILL_AREA_STYLE_COLOUR('',#459);
#391=VERTEX_POINT('',#460);
#392=LINE('',#461,#462);
#393=VERTEX_POINT('',#463);
#394=CIRCLE('',#464,6.773);
#395=LINE('',#465,#466);
#396=FILL_AREA_STYLE_COLOUR('',#467);
#397=VERTEX_POINT('',#468);
#398=LINE('',#469,#470);
#399=CIRCLE('',#471,6.773);
#400=VERTEX_POINT('',#472);
#401=LINE('',#473,#474);
#402=CIRCLE('',#475,8.0);
#403=FILL_AREA_STYLE_COLOUR('',#476);
#404=VERTEX_POINT('',#477);
#405=LINE('',#478,#479);
#406=VERTEX_POINT('',#480);
#407=CIRCLE('',#481,8.0);
#408=LINE('',#482,#483);
#409=CIRCLE('',#484,8.0);
#410=FILL_AREA_STYLE_COLOUR('',#485);
#411=VERTEX_POINT('',#486);
#412=LINE('',#487,#488);
#413=VERTEX_POINT('',#489);
#414=CIRCLE('',#490,6.773);
#415=LINE('',#491,#492);
#416=FILL_AREA_STYLE_COLOUR('',#493);
#417=CIRCLE('',#494,6.773);
#418=FILL_AREA_STYLE_COLOUR('',#495);
#419=CIRCLE('',#496,8.0);
#420=FILL_AREA_STYLE_COLOUR('',#497);
#421=FILL_AREA_STYLE_COLOUR('',#498);
#422=FILL_AREA_STYLE_COLOUR('',#499);
#423=CIRCLE('',#500,6.773);
#424=FILL_AREA_STYLE_COLOUR('',#501);
#425=CIRCLE('',#502,8.0);
#426=FILL_AREA_STYLE_COLOUR('',#503);
#427=FILL_AREA_STYLE_COLOUR('',#504);
#428=CIRCLE('',#505,6.773);
#429=FILL_AREA_STYLE_COLOUR('',#506);
#430=FILL_AREA_STYLE_COLOUR('',#507);
#431=COLOUR_RGB('',0.588235318660736,0.588235318660736,0.588235318660736);
#432=CARTESIAN_POINT('',(6.40965088622401E-15,-6.773,86.2270000000001));
#433=CARTESIAN_POINT('',(6.109132486996E-15,-8.0,85.0));
#434=CARTESIAN_POINT('',(6.7839758952927E-12,-7.3865,85.6135));
#435=VECTOR('',#508,1.0);
#436=CARTESIAN_POINT('',(-6.22217857574446E-12,6.77299999999999,86.2270000000001));
#437=AXIS2_PLACEMENT_3D('',#509,#510,#511);
#438=CARTESIAN_POINT('',(-7.34939149652381E-12,8.0,85.0));
#439=CARTESIAN_POINT('',(-6.78578503613413E-12,7.3865,85.6135));
#440=VECTOR('',#512,7.3865);
#441=AXIS2_PLACEMENT_3D('',#513,#514,#515);
#442=COLOUR_RGB('',0.588235318660736,0.588235318660736,0.588235318660736);
#443=CARTESIAN_POINT('',(2.40188167206952E-15,-8.0,24.4540000000001));
#444=CARTESIAN_POINT('',(7.34939146416755E-12,-8.0,54.727));
#445=VECTOR('',#516,1.0);
#446=CARTESIAN_POINT('',(-7.34939149652381E-12,8.0,24.4540000000001));
#447=AXIS2_PLACEMENT_3D('',#517,#518,#519);
#448=CARTESIAN_POINT('',(-7.34939149652381E-12,8.0,54.727));
#449=VECTOR('',#520,8.0);
#450=AXIS2_PLACEMENT_3D('',#521,#522,#523);
#451=COLOUR_RGB('',0.588235318660736,0.588235318660736,0.588235318660736);
#452=CARTESIAN_POINT('',(2.55214087168352E-15,-6.773,23.227));
#453=CARTESIAN_POINT('',(6.7857850062592E-12,-7.3865,23.8405));
#454=VECTOR('',#524,1.0);
#455=CARTESIAN_POINT('',(-6.22217857574446E-12,6.773,23.227));
#456=AXIS2_PLACEMENT_3D('',#525,#526,#527);
#457=CARTESIAN_POINT('',(-6.78578503613413E-12,7.3865,23.8405));
#458=VECTOR('',#528,7.3865);
#459=COLOUR_RGB('',0.588235318660736,0.588235318660736,0.588235318660736);
#460=CARTESIAN_POINT('',(1.20507388247891E-15,-6.773,1.22700000000003));
#461=CARTESIAN_POINT('',(6.22217854835085E-12,-6.773,12.227));
#462=VECTOR('',#529,1.0);
#463=CARTESIAN_POINT('',(-6.22217857574446E-12,6.773,1.22700000000003));
#464=AXIS2_PLACEMENT_3D('',#530,#531,#532);
#465=CARTESIAN_POINT('',(-6.22217857574446E-12,6.773,12.227));
#466=VECTOR('',#533,6.773);
#467=COLOUR_RGB('',0.588235318660736,0.588235318660736,0.588235318660736);
#468=CARTESIAN_POINT('',(9.04555483250894E-16,-8.0,-2.8421709430404E-14));
#469=CARTESIAN_POINT('',(6.7839758952927E-12,-7.3865,0.613500000000002));
#470=VECTOR('',#534,1.0);
#471=AXIS2_PLACEMENT_3D('',#535,#536,#537);
#472=CARTESIAN_POINT('',(-7.34939149652381E-12,8.0,-2.88657986402541E-14));
#473=CARTESIAN_POINT('',(-6.78578503613413E-12,7.3865,0.613500000000002));
#474=VECTOR('',#538,7.3865);
#475=AXIS2_PLACEMENT_3D('',#539,#540,#541);
#476=COLOUR_RGB('',0.588235318660736,0.588235318660736,0.588235318660736);
#477=CARTESIAN_POINT('',(-1.39439802477985E-15,-8.0,-37.5459999999999));
#478=CARTESIAN_POINT('',(7.34939146416755E-12,-8.0,-18.773));
#479=VECTOR('',#542,1.0);
#480=CARTESIAN_POINT('',(-7.3493914965238E-12,8.0,-37.5459999999999));
#481=AXIS2_PLACEMENT_3D('',#543,#544,#545);
#482=CARTESIAN_POINT('',(-7.34939149652381E-12,8.0,-18.773));
#483=VECTOR('',#546,8.0);
#484=AXIS2_PLACEMENT_3D('',#547,#548,#549);
#485=COLOUR_RGB('',0.588235318660736,0.588235318660736,0.588235318660736);
#486=CARTESIAN_POINT('',(-1.24413882516584E-15,-6.773,-38.7729999999999));
#487=CARTESIAN_POINT('',(6.7857850062592E-12,-7.3865,-38.1594999999999));
#488=VECTOR('',#550,1.0);
#489=CARTESIAN_POINT('',(-6.22217857574446E-12,6.77299999999999,-38.7729999999999));
#490=AXIS2_PLACEMENT_3D('',#551,#552,#553);
#491=CARTESIAN_POINT('',(-6.78578503613413E-12,7.3865,-38.1594999999999));
#492=VECTOR('',#554,7.3865);
#493=COLOUR_RGB('',0.588235318660736,0.588235318660736,0.588235318660736);
#494=AXIS2_PLACEMENT_3D('',#555,#556,#557);
#495=COLOUR_RGB('',0.588235318660736,0.588235318660736,0.588235318660736);
#496=AXIS2_PLACEMENT_3D('',#558,#559,#560);
#497=COLOUR_RGB('',0.588235318660736,0.588235318660736,0.588235318660736);
#498=COLOUR_RGB('',0.588235318660736,0.588235318660736,0.588235318660736);
#499=COLOUR_RGB('',0.588235318660736,0.588235318660736,0.588235318660736);
#500=AXIS2_PLACEMENT_3D('',#561,#562,#563);
#501=COLOUR_RGB('',0.588235318660736,0.588235318660736,0.588235318660736);
#502=AXIS2_PLACEMENT_3D('',#564,#565,#566);
#503=COLOUR_RGB('',0.588235318660736,0.588235318660736,0.588235318660736);
#504=COLOUR_RGB('',0.588235318660736,0.588235318660736,0.588235318660736);
#505=AXIS2_PLACEMENT_3D('',#567,#568,#569);
#506=COLOUR_RGB('',0.588235318660736,0.588235318660736,0.588235318660736);
#507=COLOUR_RGB('',0.588235318660736,0.588235318660736,0.588235318660736);
#508=DIRECTION('',(6.49427382247003E-13,-0.707106781186539,-0.707106781186556));
#509=CARTESIAN_POINT('',(0.0,0.0,86.2270000000001));
#510=DIRECTION('',(0.0,0.0,1.0));
#511=DIRECTION('',(9.18551472385561E-13,-1.0,0.0));
#512=DIRECTION('',(-6.49600570598334E-13,0.707106781186539,-0.707106781186556));
#513=CARTESIAN_POINT('',(0.0,0.0,85.0));
#514=DIRECTION('',(0.0,0.0,1.0));
#515=DIRECTION('',(9.18551472385561E-13,-1.0,0.0));
#516=DIRECTION('',(-0.0,-0.0,1.0));
#517=CARTESIAN_POINT('',(0.0,0.0,24.4540000000001));
#518=DIRECTION('',(0.0,0.0,1.0));
#519=DIRECTION('',(9.18551472385561E-13,-1.0,0.0));
#520=DIRECTION('',(0.0,0.0,-1.0));
#521=CARTESIAN_POINT('',(0.0,0.0,85.0));
#522=DIRECTION('',(0.0,0.0,1.0));
#523=DIRECTION('',(9.18551472385561E-13,-1.0,0.0));
#524=DIRECTION('',(6.4960056773841E-13,-0.707106781186531,0.707106781186564));
#525=CARTESIAN_POINT('',(0.0,0.0,23.227));
#526=DIRECTION('',(0.0,0.0,1.0));
#527=DIRECTION('',(9.18551472385561E-13,-1.0,0.0));
#528=DIRECTION('',(6.49600570598327E-13,-0.707106781186531,-0.707106781186564));
#529=DIRECTION('',(-0.0,-0.0,1.0));
#530=CARTESIAN_POINT('',(0.0,0.0,1.22700000000003));
#531=DIRECTION('',(0.0,0.0,1.0));
#532=DIRECTION('',(9.18551472385561E-13,-1.0,0.0));
#533=DIRECTION('',(0.0,0.0,-1.0));
#534=DIRECTION('',(6.49427382246996E-13,-0.707106781186531,-0.707106781186564));
#535=CARTESIAN_POINT('',(0.0,0.0,1.22700000000003));
#536=DIRECTION('',(0.0,0.0,1.0));
#537=DIRECTION('',(9.18551472385561E-13,-1.0,0.0));
#538=DIRECTION('',(-6.49600570598327E-13,0.707106781186531,-0.707106781186564));
#539=CARTESIAN_POINT('',(0.0,0.0,-2.8421709430404E-14));
#540=DIRECTION('',(0.0,0.0,1.0));
#541=DIRECTION('',(9.18551472385561E-13,-1.0,0.0));
#542=DIRECTION('',(-0.0,-0.0,1.0));
#543=CARTESIAN_POINT('',(0.0,0.0,-37.5459999999999));
#544=DIRECTION('',(0.0,0.0,1.0));
#545=DIRECTION('',(9.18551472385561E-13,-1.0,0.0));
#546=DIRECTION('',(0.0,0.0,-1.0));
#547=CARTESIAN_POINT('',(0.0,0.0,-2.8421709430404E-14));
#548=DIRECTION('',(0.0,0.0,1.0));
#549=DIRECTION('',(9.18551472385561E-13,-1.0,0.0));
#550=DIRECTION('',(6.49600567738422E-13,-0.707106781186544,0.707106781186551));
#551=CARTESIAN_POINT('',(0.0,0.0,-38.7729999999999));
#552=DIRECTION('',(0.0,0.0,1.0));
#553=DIRECTION('',(9.18551472385561E-13,-1.0,0.0));
#554=DIRECTION('',(6.49600570598338E-13,-0.707106781186543,-0.707106781186552));
#555=CARTESIAN_POINT('',(0.0,0.0,-38.7729999999999));
#556=DIRECTION('',(0.0,0.0,1.0));
#557=DIRECTION('',(9.18551472385561E-13,-1.0,0.0));
#558=CARTESIAN_POINT('',(0.0,0.0,-37.5459999999999));
#559=DIRECTION('',(0.0,0.0,1.0));
#560=DIRECTION('',(9.18551472385561E-13,-1.0,0.0));
#561=CARTESIAN_POINT('',(0.0,0.0,23.227));
#562=DIRECTION('',(0.0,0.0,1.0));
#563=DIRECTION('',(9.18551472385561E-13,-1.0,0.0));
#564=CARTESIAN_POINT('',(0.0,0.0,24.4540000000001));
#565=DIRECTION('',(0.0,0.0,1.0));
#566=DIRECTION('',(9.18551472385561E-13,-1.0,0.0));
#567=CARTESIAN_POINT('',(0.0,0.0,86.2270000000001));
#568=DIRECTION('',(0.0,0.0,1.0));
#569=DIRECTION('',(9.18551472385561E-13,-1.0,0.0));
ENDSEC;
END-ISO-10303-21;
