ISO-10303-21;
HEADER;
FILE_DESCRIPTION(('STEP AP214'),'1');
FILE_NAME(' ','  ',('TraceParts'),('TraceParts S.A.'),'XStep 1.0',' ',' ');
FILE_SCHEMA(('automotive_design'));
ENDSEC;
DATA;
#1=MECHANICAL_DESIGN_GEOMETRIC_PRESENTATION_REPRESENTATION(' ',(#10,#11,#12,#13,#14,#15,#16,#17,#18,#19,#20,#21,#22,#23,#24,#25,#26,#27,#28,#29,#30,#31,#32,#33,#34,#35,#36,#37,#38,#39,#40,#41,#42,#43,#44,#45,#46,#47,#48,#49,#50,#51,#52),#6);
#2=PRODUCT_DEFINITION_CONTEXT('',#53,'design');
#3=APPLICATION_PROTOCOL_DEFINITION('INTERNATIONAL STANDARD','automotive_design',1994,#53);
#4=PRODUCT_CATEGORY_RELATIONSHIP('NONE','NONE',#54,#55);
#5=SHAPE_DEFINITION_REPRESENTATION(#56,#57);
#6= (GEOMETRIC_REPRESENTATION_CONTEXT(3)GLOBAL_UNCERTAINTY_ASSIGNED_CONTEXT((#60))GLOBAL_UNIT_ASSIGNED_CONTEXT((#62,#63,#64))REPRESENTATION_CONTEXT('NONE','WORKSPACE'));
#10=STYLED_ITEM('',(#66),#67);
#11=STYLED_ITEM('',(#68),#69);
#12=STYLED_ITEM('',(#70),#71);
#13=STYLED_ITEM('',(#72),#73);
#14=STYLED_ITEM('',(#74),#75);
#15=STYLED_ITEM('',(#76),#77);
#16=STYLED_ITEM('',(#78),#79);
#17=STYLED_ITEM('',(#80),#81);
#18=STYLED_ITEM('',(#82),#83);
#19=STYLED_ITEM('',(#84),#85);
#20=STYLED_ITEM('',(#86),#87);
#21=STYLED_ITEM('',(#88),#89);
#22=STYLED_ITEM('',(#90),#91);
#23=STYLED_ITEM('',(#92),#93);
#24=STYLED_ITEM('',(#94),#95);
#25=STYLED_ITEM('',(#96),#97);
#26=STYLED_ITEM('',(#98),#99);
#27=STYLED_ITEM('',(#100),#101);
#28=STYLED_ITEM('',(#102),#103);
#29=STYLED_ITEM('',(#104),#105);
#30=STYLED_ITEM('',(#106),#107);
#31=STYLED_ITEM('',(#108),#109);
#32=STYLED_ITEM('',(#110),#111);
#33=STYLED_ITEM('',(#112),#113);
#34=STYLED_ITEM('',(#114),#115);
#35=STYLED_ITEM('',(#116),#117);
#36=STYLED_ITEM('',(#118),#119);
#37=STYLED_ITEM('',(#120),#121);
#38=STYLED_ITEM('',(#122),#123);
#39=STYLED_ITEM('',(#124),#125);
#40=STYLED_ITEM('',(#126),#127);
#41=STYLED_ITEM('',(#128),#129);
#42=STYLED_ITEM('',(#130),#131);
#43=STYLED_ITEM('',(#132),#133);
#44=STYLED_ITEM('',(#134),#135);
#45=STYLED_ITEM('',(#136),#137);
#46=STYLED_ITEM('',(#138),#139);
#47=STYLED_ITEM('',(#140),#141);
#48=STYLED_ITEM('',(#142),#143);
#49=STYLED_ITEM('',(#144),#145);
#50=STYLED_ITEM('',(#146),#147);
#51=STYLED_ITEM('',(#148),#149);
#52=STYLED_ITEM('',(#150),#151);
#53=APPLICATION_CONTEXT(' ');
#54=PRODUCT_CATEGORY('part','NONE');
#55=PRODUCT_RELATED_PRODUCT_CATEGORY('detail',' ',(#152));
#56=PRODUCT_DEFINITION_SHAPE('NONE','NONE',#153);
#57=ADVANCED_BREP_SHAPE_REPRESENTATION('1',(#93,#154),#6);
#60=UNCERTAINTY_MEASURE_WITH_UNIT(LENGTH_MEASURE(1.0E-006),#62,'','');
#62= (CONVERSION_BASED_UNIT('MILLIMETRE',#157)LENGTH_UNIT()NAMED_UNIT(#160));
#63= (NAMED_UNIT(#162)PLANE_ANGLE_UNIT()SI_UNIT($,.RADIAN.));
#64= (NAMED_UNIT(#162)SOLID_ANGLE_UNIT()SI_UNIT($,.STERADIAN.));
#66=PRESENTATION_STYLE_ASSIGNMENT((#168));
#67=ADVANCED_FACE('',(#169),#170,.T.);
#68=PRESENTATION_STYLE_ASSIGNMENT((#171));
#69=EDGE_CURVE('',#151,#143,#172,.T.);
#70=PRESENTATION_STYLE_ASSIGNMENT((#173));
#71=ADVANCED_FACE('',(#174),#175,.F.);
#72=PRESENTATION_STYLE_ASSIGNMENT((#176));
#73=ADVANCED_FACE('',(#177,#178),#179,.T.);
#74=PRESENTATION_STYLE_ASSIGNMENT((#180));
#75=ADVANCED_FACE('',(#181,#182),#183,.T.);
#76=PRESENTATION_STYLE_ASSIGNMENT((#184));
#77=ADVANCED_FACE('',(#185),#186,.F.);
#78=PRESENTATION_STYLE_ASSIGNMENT((#187));
#79=ADVANCED_FACE('',(#188),#189,.F.);
#80=PRESENTATION_STYLE_ASSIGNMENT((#190));
#81=EDGE_CURVE('',#133,#143,#191,.T.);
#82=PRESENTATION_STYLE_ASSIGNMENT((#192));
#83=EDGE_CURVE('',#87,#145,#193,.T.);
#84=PRESENTATION_STYLE_ASSIGNMENT((#194));
#85=EDGE_CURVE('',#143,#135,#195,.T.);
#86=PRESENTATION_STYLE_ASSIGNMENT((#196));
#87=VERTEX_POINT('',#197);
#88=PRESENTATION_STYLE_ASSIGNMENT((#198));
#89=EDGE_CURVE('',#145,#95,#199,.T.);
#90=PRESENTATION_STYLE_ASSIGNMENT((#200));
#91=EDGE_CURVE('',#139,#115,#201,.T.);
#92=PRESENTATION_STYLE_ASSIGNMENT((#202));
#93=MANIFOLD_SOLID_BREP('1',#203);
#94=PRESENTATION_STYLE_ASSIGNMENT((#204));
#95=VERTEX_POINT('',#205);
#96=PRESENTATION_STYLE_ASSIGNMENT((#206));
#97=EDGE_CURVE('',#151,#99,#207,.T.);
#98=PRESENTATION_STYLE_ASSIGNMENT((#208));
#99=VERTEX_POINT('',#209);
#100=PRESENTATION_STYLE_ASSIGNMENT((#210));
#101=ADVANCED_FACE('',(#211),#212,.T.);
#102=PRESENTATION_STYLE_ASSIGNMENT((#213));
#103=ADVANCED_FACE('',(#214),#215,.F.);
#104=PRESENTATION_STYLE_ASSIGNMENT((#216));
#105=EDGE_CURVE('',#145,#139,#217,.T.);
#106=PRESENTATION_STYLE_ASSIGNMENT((#218));
#107=EDGE_CURVE('',#95,#145,#219,.T.);
#108=PRESENTATION_STYLE_ASSIGNMENT((#220));
#109=EDGE_CURVE('',#141,#133,#221,.T.);
#110=PRESENTATION_STYLE_ASSIGNMENT((#222));
#111=EDGE_CURVE('',#141,#135,#223,.T.);
#112=PRESENTATION_STYLE_ASSIGNMENT((#224));
#113=EDGE_CURVE('',#119,#87,#225,.T.);
#114=PRESENTATION_STYLE_ASSIGNMENT((#226));
#115=VERTEX_POINT('',#227);
#116=PRESENTATION_STYLE_ASSIGNMENT((#228));
#117=ADVANCED_FACE('',(#229),#230,.T.);
#118=PRESENTATION_STYLE_ASSIGNMENT((#231));
#119=VERTEX_POINT('',#232);
#120=PRESENTATION_STYLE_ASSIGNMENT((#233));
#121=EDGE_CURVE('',#115,#139,#234,.T.);
#122=PRESENTATION_STYLE_ASSIGNMENT((#235));
#123=EDGE_CURVE('',#143,#133,#236,.T.);
#124=PRESENTATION_STYLE_ASSIGNMENT((#237));
#125=EDGE_CURVE('',#99,#151,#238,.T.);
#126=PRESENTATION_STYLE_ASSIGNMENT((#239));
#127=EDGE_CURVE('',#87,#119,#240,.T.);
#128=PRESENTATION_STYLE_ASSIGNMENT((#241));
#129=EDGE_CURVE('',#135,#141,#242,.T.);
#130=PRESENTATION_STYLE_ASSIGNMENT((#243));
#131=ADVANCED_FACE('',(#244),#245,.T.);
#132=PRESENTATION_STYLE_ASSIGNMENT((#246));
#133=VERTEX_POINT('',#247);
#134=PRESENTATION_STYLE_ASSIGNMENT((#248));
#135=VERTEX_POINT('',#249);
#136=PRESENTATION_STYLE_ASSIGNMENT((#250));
#137=EDGE_CURVE('',#95,#119,#251,.T.);
#138=PRESENTATION_STYLE_ASSIGNMENT((#252));
#139=VERTEX_POINT('',#253);
#140=PRESENTATION_STYLE_ASSIGNMENT((#254));
#141=VERTEX_POINT('',#255);
#142=PRESENTATION_STYLE_ASSIGNMENT((#256));
#143=VERTEX_POINT('',#257);
#144=PRESENTATION_STYLE_ASSIGNMENT((#258));
#145=VERTEX_POINT('',#259);
#146=PRESENTATION_STYLE_ASSIGNMENT((#260));
#147=EDGE_CURVE('',#133,#99,#261,.T.);
#148=PRESENTATION_STYLE_ASSIGNMENT((#262));
#149=EDGE_CURVE('',#115,#95,#263,.T.);
#150=PRESENTATION_STYLE_ASSIGNMENT((#264));
#151=VERTEX_POINT('',#265);
#152=PRODUCT('1','1','PART-1-DESC',(#266));
#153=PRODUCT_DEFINITION('NONE','NONE',#267,#2);
#154=AXIS2_PLACEMENT_3D('',#268,#269,#270);
#157=LENGTH_MEASURE_WITH_UNIT(LENGTH_MEASURE(1.0),#271);
#160=DIMENSIONAL_EXPONENTS(1.0,0.0,0.0,0.0,0.0,0.0,0.0);
#162=DIMENSIONAL_EXPONENTS(0.0,0.0,0.0,0.0,0.0,0.0,0.0);
#168=SURFACE_STYLE_USAGE(.BOTH.,#272);
#169=FACE_OUTER_BOUND('',#273,.T.);
#170=CYLINDRICAL_SURFACE('',#274,6.0);
#171=CURVE_STYLE('',#275,POSITIVE_LENGTH_MEASURE(1.0E-006),#276);
#172=LINE('',#277,#278);
#173=SURFACE_STYLE_USAGE(.BOTH.,#279);
#174=FACE_OUTER_BOUND('',#280,.T.);
#175=CONICAL_SURFACE('',#281,3.34999999999999,0.785398163397448);
#176=SURFACE_STYLE_USAGE(.BOTH.,#282);
#177=FACE_OUTER_BOUND('',#283,.T.);
#178=FACE_BOUND('',#284,.T.);
#179=PLANE('',#285);
#180=SURFACE_STYLE_USAGE(.BOTH.,#286);
#181=FACE_OUTER_BOUND('',#287,.T.);
#182=FACE_BOUND('',#288,.T.);
#183=PLANE('',#289);
#184=SURFACE_STYLE_USAGE(.BOTH.,#290);
#185=FACE_OUTER_BOUND('',#291,.T.);
#186=CYLINDRICAL_SURFACE('',#292,3.19999999999999);
#187=SURFACE_STYLE_USAGE(.BOTH.,#293);
#188=FACE_OUTER_BOUND('',#294,.T.);
#189=CONICAL_SURFACE('',#295,3.34999999999999,0.785398163397448);
#190=CURVE_STYLE('',#296,POSITIVE_LENGTH_MEASURE(1.0E-006),#297);
#191=CIRCLE('',#298,6.0);
#192=CURVE_STYLE('',#299,POSITIVE_LENGTH_MEASURE(1.0E-006),#300);
#193=LINE('',#301,#302);
#194=CURVE_STYLE('',#303,POSITIVE_LENGTH_MEASURE(1.0E-006),#304);
#195=CIRCLE('',#305,8.99999999999999);
#196=POINT_STYLE(' ',#306,POSITIVE_LENGTH_MEASURE(1.0E-006),#307);
#197=CARTESIAN_POINT('',(-3.49999999999997,4.95200188054929E-015,2.29999999999998));
#198=CURVE_STYLE('',#308,POSITIVE_LENGTH_MEASURE(1.0E-006),#309);
#199=CIRCLE('',#310,3.19999999999999);
#200=CURVE_STYLE('',#311,POSITIVE_LENGTH_MEASURE(1.0E-006),#312);
#201=CIRCLE('',#313,3.19999999999999);
#202=SURFACE_STYLE_USAGE(.BOTH.,#314);
#203=CLOSED_SHELL('',(#77,#101,#71,#117,#131,#79,#75,#67,#73,#103));
#204=POINT_STYLE(' ',#315,POSITIVE_LENGTH_MEASURE(1.0E-006),#316);
#205=CARTESIAN_POINT('',(3.20000000000002,6.30504127494149E-015,1.99999999999997));
#206=CURVE_STYLE('',#317,POSITIVE_LENGTH_MEASURE(1.0E-006),#318);
#207=CIRCLE('',#319,6.0);
#208=POINT_STYLE(' ',#320,POSITIVE_LENGTH_MEASURE(1.0E-006),#321);
#209=CARTESIAN_POINT('',(6.00000000000003,7.11391504917657E-015,2.29999999999998));
#210=SURFACE_STYLE_USAGE(.BOTH.,#322);
#211=FACE_OUTER_BOUND('',#323,.T.);
#212=CYLINDRICAL_SURFACE('',#324,6.0);
#213=SURFACE_STYLE_USAGE(.BOTH.,#325);
#214=FACE_OUTER_BOUND('',#326,.T.);
#215=CYLINDRICAL_SURFACE('',#327,3.19999999999999);
#216=CURVE_STYLE('',#328,POSITIVE_LENGTH_MEASURE(1.0E-006),#329);
#217=LINE('',#330,#331);
#218=CURVE_STYLE('',#332,POSITIVE_LENGTH_MEASURE(1.0E-006),#333);
#219=CIRCLE('',#334,3.19999999999999);
#220=CURVE_STYLE('',#335,POSITIVE_LENGTH_MEASURE(1.0E-006),#336);
#221=CIRCLE('',#337,8.99999999999999);
#222=CURVE_STYLE('',#338,POSITIVE_LENGTH_MEASURE(1.0E-006),#339);
#223=CIRCLE('',#340,3.46031030631661);
#224=CURVE_STYLE('',#341,POSITIVE_LENGTH_MEASURE(1.0E-006),#342);
#225=CIRCLE('',#343,3.5);
#226=POINT_STYLE(' ',#344,POSITIVE_LENGTH_MEASURE(1.0E-006),#345);
#227=CARTESIAN_POINT('',(3.20000000000002,6.30504127494149E-015,-2.8421709430404E-014));
#228=SURFACE_STYLE_USAGE(.BOTH.,#346);
#229=FACE_OUTER_BOUND('',#347,.T.);
#230=SPHERICAL_SURFACE('',#348,8.99999999999999);
#231=POINT_STYLE(' ',#349,POSITIVE_LENGTH_MEASURE(1.0E-006),#350);
#232=CARTESIAN_POINT('',(3.50000000000003,6.39170632218097E-015,2.29999999999998));
#233=CURVE_STYLE('',#351,POSITIVE_LENGTH_MEASURE(1.0E-006),#352);
#234=CIRCLE('',#353,3.19999999999999);
#235=CURVE_STYLE('',#354,POSITIVE_LENGTH_MEASURE(1.0E-006),#355);
#236=CIRCLE('',#356,6.0);
#237=CURVE_STYLE('',#357,POSITIVE_LENGTH_MEASURE(1.0E-006),#358);
#238=CIRCLE('',#359,6.0);
#239=CURVE_STYLE('',#360,POSITIVE_LENGTH_MEASURE(1.0E-006),#361);
#240=CIRCLE('',#362,3.5);
#241=CURVE_STYLE('',#363,POSITIVE_LENGTH_MEASURE(1.0E-006),#364);
#242=CIRCLE('',#365,3.46031030631661);
#243=SURFACE_STYLE_USAGE(.BOTH.,#366);
#244=FACE_OUTER_BOUND('',#367,.T.);
#245=SPHERICAL_SURFACE('',#368,8.99999999999999);
#246=POINT_STYLE(' ',#369,POSITIVE_LENGTH_MEASURE(1.0E-006),#370);
#247=CARTESIAN_POINT('',(6.00000000000003,7.21802596451394E-015,1.60000000000005));
#248=POINT_STYLE(' ',#371,POSITIVE_LENGTH_MEASURE(1.0E-006),#372);
#249=CARTESIAN_POINT('',(-3.46031030631653,4.81603257496631E-015,-3.01980662698043E-014));
#250=CURVE_STYLE('',#373,POSITIVE_LENGTH_MEASURE(1.0E-006),#374);
#251=LINE('',#375,#376);
#252=POINT_STYLE(' ',#377,POSITIVE_LENGTH_MEASURE(1.0E-006),#378);
#253=CARTESIAN_POINT('',(-3.19999999999996,4.84791034047438E-015,-2.8421709430404E-014));
#254=POINT_STYLE(' ',#379,POSITIVE_LENGTH_MEASURE(1.0E-006),#380);
#255=CARTESIAN_POINT('',(3.46031030631665,6.59600193738956E-015,-2.8421709430404E-014));
#256=POINT_STYLE(' ',#381,POSITIVE_LENGTH_MEASURE(1.0E-006),#382);
#257=CARTESIAN_POINT('',(-6.0,4.60298906970991E-015,1.60000000000009));
#258=POINT_STYLE(' ',#383,POSITIVE_LENGTH_MEASURE(1.0E-006),#384);
#259=CARTESIAN_POINT('',(-3.19999999999996,4.97037097585662E-015,1.99999999999997));
#260=CURVE_STYLE('',#385,POSITIVE_LENGTH_MEASURE(1.0E-006),#386);
#261=LINE('',#387,#388);
#262=CURVE_STYLE('',#389,POSITIVE_LENGTH_MEASURE(1.0E-006),#390);
#263=LINE('',#391,#392);
#264=POINT_STYLE(' ',#393,POSITIVE_LENGTH_MEASURE(1.0E-006),#394);
#265=CARTESIAN_POINT('',(-5.99999999999997,4.64585029209369E-015,2.29999999999998));
#266=PRODUCT_CONTEXT('',#53,'mechanical');
#267=PRODUCT_DEFINITION_FORMATION_WITH_SPECIFIED_SOURCE(' ','NONE',#152,.NOT_KNOWN.);
#268=CARTESIAN_POINT('',(0.0,0.0,0.0));
#269=DIRECTION('',(0.0,0.0,1.0));
#270=DIRECTION('',(1.0,0.0,0.0));
#271= (NAMED_UNIT(#160)LENGTH_UNIT()SI_UNIT(.MILLI.,.METRE.));
#272=SURFACE_SIDE_STYLE('',(#396));
#273=EDGE_LOOP('',(#397,#398,#399,#400));
#274=AXIS2_PLACEMENT_3D('',#401,#402,#403);
#275=DRAUGHTING_PRE_DEFINED_CURVE_FONT('continuous');
#276=COLOUR_RGB('',0.509803950786591,0.509803950786591,0.588235318660736);
#277=CARTESIAN_POINT('',(-5.99999999999997,3.64731315959766E-015,1.95000000000002));
#278=VECTOR('',#404,1.0);
#279=SURFACE_SIDE_STYLE('',(#405));
#280=EDGE_LOOP('',(#406,#407,#408,#409));
#281=AXIS2_PLACEMENT_3D('',#410,#411,#412);
#282=SURFACE_SIDE_STYLE('',(#413));
#283=EDGE_LOOP('',(#414,#415));
#284=EDGE_LOOP('',(#416,#417));
#285=AXIS2_PLACEMENT_3D('',#418,#419,#420);
#286=SURFACE_SIDE_STYLE('',(#421));
#287=EDGE_LOOP('',(#422,#423));
#288=EDGE_LOOP('',(#424,#425));
#289=AXIS2_PLACEMENT_3D('',#426,#427,#428);
#290=SURFACE_SIDE_STYLE('',(#429));
#291=EDGE_LOOP('',(#430,#431,#432,#433));
#292=AXIS2_PLACEMENT_3D('',#434,#435,#436);
#293=SURFACE_SIDE_STYLE('',(#437));
#294=EDGE_LOOP('',(#438,#439,#440,#441));
#295=AXIS2_PLACEMENT_3D('',#442,#443,#444);
#296=DRAUGHTING_PRE_DEFINED_CURVE_FONT('continuous');
#297=COLOUR_RGB('',0.509803950786591,0.509803950786591,0.588235318660736);
#298=AXIS2_PLACEMENT_3D('',#445,#446,#447);
#299=DRAUGHTING_PRE_DEFINED_CURVE_FONT('continuous');
#300=COLOUR_RGB('',0.509803950786591,0.509803950786591,0.588235318660736);
#301=CARTESIAN_POINT('',(-3.34999999999997,4.41285441021301E-015,2.14999999999998));
#302=VECTOR('',#448,1.0);
#303=DRAUGHTING_PRE_DEFINED_CURVE_FONT('continuous');
#304=COLOUR_RGB('',0.509803950786591,0.509803950786591,0.588235318660736);
#305=AXIS2_PLACEMENT_3D('',#449,#450,#451);
#306=PRE_DEFINED_MARKER('');
#307=COLOUR_RGB('',0.509803950786591,0.509803950786591,0.588235318660736);
#308=DRAUGHTING_PRE_DEFINED_CURVE_FONT('continuous');
#309=COLOUR_RGB('',0.509803950786591,0.509803950786591,0.588235318660736);
#310=AXIS2_PLACEMENT_3D('',#452,#453,#454);
#311=DRAUGHTING_PRE_DEFINED_CURVE_FONT('continuous');
#312=COLOUR_RGB('',0.509803950786591,0.509803950786591,0.588235318660736);
#313=AXIS2_PLACEMENT_3D('',#455,#456,#457);
#314=SURFACE_SIDE_STYLE('',(#458));
#315=PRE_DEFINED_MARKER('');
#316=COLOUR_RGB('',0.509803950786591,0.509803950786591,0.588235318660736);
#317=DRAUGHTING_PRE_DEFINED_CURVE_FONT('continuous');
#318=COLOUR_RGB('',0.509803950786591,0.509803950786591,0.588235318660736);
#319=AXIS2_PLACEMENT_3D('',#459,#460,#461);
#320=PRE_DEFINED_MARKER('');
#321=COLOUR_RGB('',0.509803950786591,0.509803950786591,0.588235318660736);
#322=SURFACE_SIDE_STYLE('',(#462));
#323=EDGE_LOOP('',(#463,#464,#465,#466));
#324=AXIS2_PLACEMENT_3D('',#467,#468,#469);
#325=SURFACE_SIDE_STYLE('',(#470));
#326=EDGE_LOOP('',(#471,#472,#473,#474));
#327=AXIS2_PLACEMENT_3D('',#475,#476,#477);
#328=DRAUGHTING_PRE_DEFINED_CURVE_FONT('continuous');
#329=COLOUR_RGB('',0.509803950786591,0.509803950786591,0.588235318660736);
#330=CARTESIAN_POINT('',(-3.19999999999996,4.45618693383275E-015,0.999999999999972));
#331=VECTOR('',#478,1.0);
#332=DRAUGHTING_PRE_DEFINED_CURVE_FONT('continuous');
#333=COLOUR_RGB('',0.509803950786591,0.509803950786591,0.588235318660736);
#334=AXIS2_PLACEMENT_3D('',#479,#480,#481);
#335=DRAUGHTING_PRE_DEFINED_CURVE_FONT('continuous');
#336=COLOUR_RGB('',0.509803950786591,0.509803950786591,0.588235318660736);
#337=AXIS2_PLACEMENT_3D('',#482,#483,#484);
#338=DRAUGHTING_PRE_DEFINED_CURVE_FONT('continuous');
#339=COLOUR_RGB('',0.509803950786591,0.509803950786591,0.588235318660736);
#340=AXIS2_PLACEMENT_3D('',#485,#486,#487);
#341=DRAUGHTING_PRE_DEFINED_CURVE_FONT('continuous');
#342=COLOUR_RGB('',0.509803950786591,0.509803950786591,0.588235318660736);
#343=AXIS2_PLACEMENT_3D('',#488,#489,#490);
#344=PRE_DEFINED_MARKER('');
#345=COLOUR_RGB('',0.509803950786591,0.509803950786591,0.588235318660736);
#346=SURFACE_SIDE_STYLE('',(#491));
#347=EDGE_LOOP('',(#492,#493,#494,#495));
#348=AXIS2_PLACEMENT_3D('',#496,#497,#498);
#349=PRE_DEFINED_MARKER('');
#350=COLOUR_RGB('',0.509803950786591,0.509803950786591,0.588235318660736);
#351=DRAUGHTING_PRE_DEFINED_CURVE_FONT('continuous');
#352=COLOUR_RGB('',0.509803950786591,0.509803950786591,0.588235318660736);
#353=AXIS2_PLACEMENT_3D('',#499,#500,#501);
#354=DRAUGHTING_PRE_DEFINED_CURVE_FONT('continuous');
#355=COLOUR_RGB('',0.509803950786591,0.509803950786591,0.588235318660736);
#356=AXIS2_PLACEMENT_3D('',#502,#503,#504);
#357=DRAUGHTING_PRE_DEFINED_CURVE_FONT('continuous');
#358=COLOUR_RGB('',0.509803950786591,0.509803950786591,0.588235318660736);
#359=AXIS2_PLACEMENT_3D('',#505,#506,#507);
#360=DRAUGHTING_PRE_DEFINED_CURVE_FONT('continuous');
#361=COLOUR_RGB('',0.509803950786591,0.509803950786591,0.588235318660736);
#362=AXIS2_PLACEMENT_3D('',#508,#509,#510);
#363=DRAUGHTING_PRE_DEFINED_CURVE_FONT('continuous');
#364=COLOUR_RGB('',0.509803950786591,0.509803950786591,0.588235318660736);
#365=AXIS2_PLACEMENT_3D('',#511,#512,#513);
#366=SURFACE_SIDE_STYLE('',(#514));
#367=EDGE_LOOP('',(#515,#516,#517,#518));
#368=AXIS2_PLACEMENT_3D('',#519,#520,#521);
#369=PRE_DEFINED_MARKER('');
#370=COLOUR_RGB('',0.509803950786591,0.509803950786591,0.588235318660736);
#371=PRE_DEFINED_MARKER('');
#372=COLOUR_RGB('',0.509803950786591,0.509803950786591,0.588235318660736);
#373=DRAUGHTING_PRE_DEFINED_CURVE_FONT('continuous');
#374=COLOUR_RGB('',0.509803950786591,0.509803950786591,0.588235318660736);
#375=CARTESIAN_POINT('',(3.35000000000002,6.34837379856123E-015,2.14999999999998));
#376=VECTOR('',#522,1.0);
#377=PRE_DEFINED_MARKER('');
#378=COLOUR_RGB('',0.509803950786591,0.509803950786591,0.588235318660736);
#379=PRE_DEFINED_MARKER('');
#380=COLOUR_RGB('',0.509803950786591,0.509803950786591,0.588235318660736);
#381=PRE_DEFINED_MARKER('');
#382=COLOUR_RGB('',0.509803950786591,0.509803950786591,0.588235318660736);
#383=PRE_DEFINED_MARKER('');
#384=COLOUR_RGB('',0.509803950786591,0.509803950786591,0.588235318660736);
#385=DRAUGHTING_PRE_DEFINED_CURVE_FONT('continuous');
#386=COLOUR_RGB('',0.509803950786591,0.509803950786591,0.588235318660736);
#387=CARTESIAN_POINT('',(6.00000000000003,7.11391504917657E-015,1.95000000000002));
#388=VECTOR('',#523,1.0);
#389=DRAUGHTING_PRE_DEFINED_CURVE_FONT('continuous');
#390=COLOUR_RGB('',0.509803950786591,0.509803950786591,0.588235318660736);
#391=CARTESIAN_POINT('',(3.20000000000002,6.30504127494149E-015,0.999999999999972));
#392=VECTOR('',#524,1.0);
#393=PRE_DEFINED_MARKER('');
#394=COLOUR_RGB('',0.509803950786591,0.509803950786591,0.588235318660736);
#396=SURFACE_STYLE_FILL_AREA(#525);
#397=ORIENTED_EDGE('',*,*,#69,.T.);
#398=ORIENTED_EDGE('',*,*,#123,.T.);
#399=ORIENTED_EDGE('',*,*,#147,.T.);
#400=ORIENTED_EDGE('',*,*,#125,.T.);
#401=CARTESIAN_POINT('',(2.8421709430404E-014,5.38061410438712E-015,1.14999999999998));
#402=DIRECTION('',(0.0,-0.0,1.0));
#403=DIRECTION('',(-1.0,-1.66422855416005E-016,0.0));
#404=DIRECTION('',(0.0,0.0,-1.0));
#405=SURFACE_STYLE_FILL_AREA(#526);
#406=ORIENTED_EDGE('',*,*,#83,.F.);
#407=ORIENTED_EDGE('',*,*,#113,.F.);
#408=ORIENTED_EDGE('',*,*,#137,.F.);
#409=ORIENTED_EDGE('',*,*,#107,.T.);
#410=CARTESIAN_POINT('',(2.8421709430404E-014,5.38061410438712E-015,2.14999999999998));
#411=DIRECTION('',(0.0,-0.0,1.0));
#412=DIRECTION('',(-1.0,-1.66422855416005E-016,0.0));
#413=SURFACE_STYLE_FILL_AREA(#527);
#414=ORIENTED_EDGE('',*,*,#129,.T.);
#415=ORIENTED_EDGE('',*,*,#111,.T.);
#416=ORIENTED_EDGE('',*,*,#91,.F.);
#417=ORIENTED_EDGE('',*,*,#121,.F.);
#418=CARTESIAN_POINT('',(-4.59999999999997,4.67646545093925E-015,-2.8421709430404E-014));
#419=DIRECTION('',(0.0,0.0,-1.0));
#420=DIRECTION('',(1.0,1.22460635382238E-016,0.0));
#421=SURFACE_STYLE_FILL_AREA(#528);
#422=ORIENTED_EDGE('',*,*,#97,.F.);
#423=ORIENTED_EDGE('',*,*,#125,.F.);
#424=ORIENTED_EDGE('',*,*,#127,.T.);
#425=ORIENTED_EDGE('',*,*,#113,.T.);
#426=CARTESIAN_POINT('',(-4.74999999999997,4.79892608632149E-015,2.29999999999998));
#427=DIRECTION('',(0.0,0.0,1.0));
#428=DIRECTION('',(-1.0,-1.22460635382238E-016,0.0));
#429=SURFACE_STYLE_FILL_AREA(#529);
#430=ORIENTED_EDGE('',*,*,#105,.F.);
#431=ORIENTED_EDGE('',*,*,#107,.F.);
#432=ORIENTED_EDGE('',*,*,#149,.F.);
#433=ORIENTED_EDGE('',*,*,#121,.T.);
#434=CARTESIAN_POINT('',(2.8421709430404E-014,5.38061410438712E-015,0.999999999999972));
#435=DIRECTION('',(0.0,-0.0,1.0));
#436=DIRECTION('',(-1.0,-1.66422855416005E-016,0.0));
#437=SURFACE_STYLE_FILL_AREA(#530);
#438=ORIENTED_EDGE('',*,*,#83,.T.);
#439=ORIENTED_EDGE('',*,*,#89,.T.);
#440=ORIENTED_EDGE('',*,*,#137,.T.);
#441=ORIENTED_EDGE('',*,*,#127,.F.);
#442=CARTESIAN_POINT('',(2.8421709430404E-014,5.38061410438712E-015,2.14999999999998));
#443=DIRECTION('',(0.0,-0.0,1.0));
#444=DIRECTION('',(-1.0,-1.66422855416005E-016,0.0));
#445=CARTESIAN_POINT('',(2.8421709430404E-014,5.38061410438712E-015,1.60000000000005));
#446=DIRECTION('',(0.0,0.0,1.0));
#447=DIRECTION('',(-1.0,-1.66422855416005E-016,0.0));
#448=DIRECTION('',(0.707106781186548,2.04271475316279E-016,-0.707106781186548));
#449=CARTESIAN_POINT('',(4.17443857259059E-014,5.74849833992709E-015,8.3082039324994));
#450=DIRECTION('',(2.44921270764476E-016,-1.0,0.0));
#451=DIRECTION('',(-0.0,0.0,1.0));
#452=CARTESIAN_POINT('',(2.8421709430404E-014,5.38061410438712E-015,1.99999999999997));
#453=DIRECTION('',(-0.0,0.0,-1.0));
#454=DIRECTION('',(-1.0,-1.66422855416005E-016,0.0));
#455=CARTESIAN_POINT('',(2.8421709430404E-014,5.38061410438712E-015,-2.8421709430404E-014));
#456=DIRECTION('',(-0.0,0.0,-1.0));
#457=DIRECTION('',(-1.0,-1.66422855416005E-016,0.0));
#458=SURFACE_STYLE_FILL_AREA(#531);
#459=CARTESIAN_POINT('',(2.8421709430404E-014,5.38061410438712E-015,2.29999999999998));
#460=DIRECTION('',(-0.0,0.0,-1.0));
#461=DIRECTION('',(-1.0,-1.66422855416005E-016,0.0));
#462=SURFACE_STYLE_FILL_AREA(#532);
#463=ORIENTED_EDGE('',*,*,#69,.F.);
#464=ORIENTED_EDGE('',*,*,#97,.T.);
#465=ORIENTED_EDGE('',*,*,#147,.F.);
#466=ORIENTED_EDGE('',*,*,#81,.T.);
#467=CARTESIAN_POINT('',(2.8421709430404E-014,5.38061410438712E-015,1.14999999999998));
#468=DIRECTION('',(0.0,-0.0,1.0));
#469=DIRECTION('',(-1.0,-1.66422855416005E-016,0.0));
#470=SURFACE_STYLE_FILL_AREA(#533);
#471=ORIENTED_EDGE('',*,*,#105,.T.);
#472=ORIENTED_EDGE('',*,*,#91,.T.);
#473=ORIENTED_EDGE('',*,*,#149,.T.);
#474=ORIENTED_EDGE('',*,*,#89,.F.);
#475=CARTESIAN_POINT('',(2.8421709430404E-014,5.38061410438712E-015,0.999999999999972));
#476=DIRECTION('',(0.0,-0.0,1.0));
#477=DIRECTION('',(-1.0,-1.66422855416005E-016,0.0));
#478=DIRECTION('',(0.0,0.0,-1.0));
#479=CARTESIAN_POINT('',(2.8421709430404E-014,5.38061410438712E-015,1.99999999999997));
#480=DIRECTION('',(-0.0,0.0,-1.0));
#481=DIRECTION('',(-1.0,-1.66422855416005E-016,0.0));
#482=CARTESIAN_POINT('',(4.17443857259059E-014,5.74849833992709E-015,8.3082039324994));
#483=DIRECTION('',(2.44921270764476E-016,-1.0,0.0));
#484=DIRECTION('',(-0.0,0.0,1.0));
#485=CARTESIAN_POINT('',(4.17443857259059E-014,5.74849833992709E-015,-2.8421709430404E-014));
#486=DIRECTION('',(0.0,0.0,-1.0));
#487=DIRECTION('',(0.0,-1.0,0.0));
#488=CARTESIAN_POINT('',(2.8421709430404E-014,5.38061410438712E-015,2.29999999999998));
#489=DIRECTION('',(-0.0,0.0,-1.0));
#490=DIRECTION('',(-1.0,-1.66422855416005E-016,0.0));
#491=SURFACE_STYLE_FILL_AREA(#534);
#492=ORIENTED_EDGE('',*,*,#109,.F.);
#493=ORIENTED_EDGE('',*,*,#129,.F.);
#494=ORIENTED_EDGE('',*,*,#85,.F.);
#495=ORIENTED_EDGE('',*,*,#81,.F.);
#496=CARTESIAN_POINT('',(4.17443857259059E-014,5.74849833992709E-015,8.3082039324994));
#497=DIRECTION('',(0.0,0.0,-1.0));
#498=DIRECTION('',(1.0,1.22460635382238E-016,0.0));
#499=CARTESIAN_POINT('',(2.8421709430404E-014,5.38061410438712E-015,-2.8421709430404E-014));
#500=DIRECTION('',(-0.0,0.0,-1.0));
#501=DIRECTION('',(-1.0,-1.66422855416005E-016,0.0));
#502=CARTESIAN_POINT('',(2.8421709430404E-014,5.38061410438712E-015,1.60000000000005));
#503=DIRECTION('',(0.0,0.0,1.0));
#504=DIRECTION('',(-1.0,-1.66422855416005E-016,0.0));
#505=CARTESIAN_POINT('',(2.8421709430404E-014,5.38061410438712E-015,2.29999999999998));
#506=DIRECTION('',(-0.0,0.0,-1.0));
#507=DIRECTION('',(-1.0,-1.66422855416005E-016,0.0));
#508=CARTESIAN_POINT('',(2.8421709430404E-014,5.38061410438712E-015,2.29999999999998));
#509=DIRECTION('',(-0.0,0.0,-1.0));
#510=DIRECTION('',(-1.0,-1.66422855416005E-016,0.0));
#511=CARTESIAN_POINT('',(4.17443857259059E-014,5.74849833992709E-015,-2.8421709430404E-014));
#512=DIRECTION('',(0.0,0.0,-1.0));
#513=DIRECTION('',(0.0,-1.0,0.0));
#514=SURFACE_STYLE_FILL_AREA(#535);
#515=ORIENTED_EDGE('',*,*,#109,.T.);
#516=ORIENTED_EDGE('',*,*,#123,.F.);
#517=ORIENTED_EDGE('',*,*,#85,.T.);
#518=ORIENTED_EDGE('',*,*,#111,.F.);
#519=CARTESIAN_POINT('',(4.17443857259059E-014,5.74849833992709E-015,8.3082039324994));
#520=DIRECTION('',(0.0,0.0,-1.0));
#521=DIRECTION('',(1.0,1.22460635382238E-016,0.0));
#522=DIRECTION('',(0.707106781186548,2.04271475316279E-016,0.707106781186548));
#523=DIRECTION('',(-0.0,-0.0,1.0));
#524=DIRECTION('',(0.0,0.0,1.0));
#525=FILL_AREA_STYLE('',(#536));
#526=FILL_AREA_STYLE('',(#537));
#527=FILL_AREA_STYLE('',(#538));
#528=FILL_AREA_STYLE('',(#539));
#529=FILL_AREA_STYLE('',(#540));
#530=FILL_AREA_STYLE('',(#541));
#531=FILL_AREA_STYLE('',(#542));
#532=FILL_AREA_STYLE('',(#543));
#533=FILL_AREA_STYLE('',(#544));
#534=FILL_AREA_STYLE('',(#545));
#535=FILL_AREA_STYLE('',(#546));
#536=FILL_AREA_STYLE_COLOUR('',#547);
#537=FILL_AREA_STYLE_COLOUR('',#548);
#538=FILL_AREA_STYLE_COLOUR('',#549);
#539=FILL_AREA_STYLE_COLOUR('',#550);
#540=FILL_AREA_STYLE_COLOUR('',#551);
#541=FILL_AREA_STYLE_COLOUR('',#552);
#542=FILL_AREA_STYLE_COLOUR('',#553);
#543=FILL_AREA_STYLE_COLOUR('',#554);
#544=FILL_AREA_STYLE_COLOUR('',#555);
#545=FILL_AREA_STYLE_COLOUR('',#556);
#546=FILL_AREA_STYLE_COLOUR('',#557);
#547=COLOUR_RGB('',0.509803950786591,0.509803950786591,0.588235318660736);
#548=COLOUR_RGB('',0.509803950786591,0.509803950786591,0.588235318660736);
#549=COLOUR_RGB('',0.509803950786591,0.509803950786591,0.588235318660736);
#550=COLOUR_RGB('',0.509803950786591,0.509803950786591,0.588235318660736);
#551=COLOUR_RGB('',0.509803950786591,0.509803950786591,0.588235318660736);
#552=COLOUR_RGB('',0.509803950786591,0.509803950786591,0.588235318660736);
#553=COLOUR_RGB('',0.509803950786591,0.509803950786591,0.588235318660736);
#554=COLOUR_RGB('',0.509803950786591,0.509803950786591,0.588235318660736);
#555=COLOUR_RGB('',0.509803950786591,0.509803950786591,0.588235318660736);
#556=COLOUR_RGB('',0.509803950786591,0.509803950786591,0.588235318660736);
#557=COLOUR_RGB('',0.509803950786591,0.509803950786591,0.588235318660736);
ENDSEC;
END-ISO-10303-21;
