ISO-10303-21;
HEADER;
FILE_DESCRIPTION(('STEP AP214'),'1');
FILE_NAME(' ','  ',('TraceParts'),('TraceParts S.A.'),'XStep 1.0',' ',' ');
FILE_SCHEMA(('automotive_design'));
ENDSEC;
DATA;
#1=MECHANICAL_DESIGN_GEOMETRIC_PRESENTATION_REPRESENTATION(' ',(#10,#11,#12,#13,#14,#15,#16,#17,#18,#19,#20,#21,#22,#23,#24,#25,#26,#27,#28,#29,#30,#31,#32,#33,#34,#35,#36,#37,#38,#39,#40,#41,#42,#43,#44,#45,#46,#47,#48,#49,#50,#51,#52),#6);
#2=PRODUCT_DEFINITION_CONTEXT('',#53,'design');
#3=APPLICATION_PROTOCOL_DEFINITION('INTERNATIONAL STANDARD','automotive_design',1994,#53);
#4=PRODUCT_CATEGORY_RELATIONSHIP('NONE','NONE',#54,#55);
#5=SHAPE_DEFINITION_REPRESENTATION(#56,#57);
#6= (GEOMETRIC_REPRESENTATION_CONTEXT(3)GLOBAL_UNCERTAINTY_ASSIGNED_CONTEXT((#60))GLOBAL_UNIT_ASSIGNED_CONTEXT((#62,#63,#64))REPRESENTATION_CONTEXT('NONE','WORKSPACE'));
#10=STYLED_ITEM('',(#66),#67);
#11=STYLED_ITEM('',(#68),#69);
#12=STYLED_ITEM('',(#70),#71);
#13=STYLED_ITEM('',(#72),#73);
#14=STYLED_ITEM('',(#74),#75);
#15=STYLED_ITEM('',(#76),#77);
#16=STYLED_ITEM('',(#78),#79);
#17=STYLED_ITEM('',(#80),#81);
#18=STYLED_ITEM('',(#82),#83);
#19=STYLED_ITEM('',(#84),#85);
#20=STYLED_ITEM('',(#86),#87);
#21=STYLED_ITEM('',(#88),#89);
#22=STYLED_ITEM('',(#90),#91);
#23=STYLED_ITEM('',(#92),#93);
#24=STYLED_ITEM('',(#94),#95);
#25=STYLED_ITEM('',(#96),#97);
#26=STYLED_ITEM('',(#98),#99);
#27=STYLED_ITEM('',(#100),#101);
#28=STYLED_ITEM('',(#102),#103);
#29=STYLED_ITEM('',(#104),#105);
#30=STYLED_ITEM('',(#106),#107);
#31=STYLED_ITEM('',(#108),#109);
#32=STYLED_ITEM('',(#110),#111);
#33=STYLED_ITEM('',(#112),#113);
#34=STYLED_ITEM('',(#114),#115);
#35=STYLED_ITEM('',(#116),#117);
#36=STYLED_ITEM('',(#118),#119);
#37=STYLED_ITEM('',(#120),#121);
#38=STYLED_ITEM('',(#122),#123);
#39=STYLED_ITEM('',(#124),#125);
#40=STYLED_ITEM('',(#126),#127);
#41=STYLED_ITEM('',(#128),#129);
#42=STYLED_ITEM('',(#130),#131);
#43=STYLED_ITEM('',(#132),#133);
#44=STYLED_ITEM('',(#134),#135);
#45=STYLED_ITEM('',(#136),#137);
#46=STYLED_ITEM('',(#138),#139);
#47=STYLED_ITEM('',(#140),#141);
#48=STYLED_ITEM('',(#142),#143);
#49=STYLED_ITEM('',(#144),#145);
#50=STYLED_ITEM('',(#146),#147);
#51=STYLED_ITEM('',(#148),#149);
#52=STYLED_ITEM('',(#150),#151);
#53=APPLICATION_CONTEXT(' ');
#54=PRODUCT_CATEGORY('part','NONE');
#55=PRODUCT_RELATED_PRODUCT_CATEGORY('detail',' ',(#152));
#56=PRODUCT_DEFINITION_SHAPE('NONE','NONE',#153);
#57=ADVANCED_BREP_SHAPE_REPRESENTATION('1',(#121,#154),#6);
#60=UNCERTAINTY_MEASURE_WITH_UNIT(LENGTH_MEASURE(1.0E-006),#62,'','');
#62= (CONVERSION_BASED_UNIT('MILLIMETRE',#157)LENGTH_UNIT()NAMED_UNIT(#160));
#63= (NAMED_UNIT(#162)PLANE_ANGLE_UNIT()SI_UNIT($,.RADIAN.));
#64= (NAMED_UNIT(#162)SOLID_ANGLE_UNIT()SI_UNIT($,.STERADIAN.));
#66=PRESENTATION_STYLE_ASSIGNMENT((#168));
#67=EDGE_CURVE('',#139,#111,#169,.T.);
#68=PRESENTATION_STYLE_ASSIGNMENT((#170));
#69=EDGE_CURVE('',#71,#81,#171,.T.);
#70=PRESENTATION_STYLE_ASSIGNMENT((#172));
#71=VERTEX_POINT('',#173);
#72=PRESENTATION_STYLE_ASSIGNMENT((#174));
#73=EDGE_CURVE('',#117,#149,#175,.T.);
#74=PRESENTATION_STYLE_ASSIGNMENT((#176));
#75=EDGE_CURVE('',#81,#71,#177,.T.);
#76=PRESENTATION_STYLE_ASSIGNMENT((#178));
#77=ADVANCED_FACE('',(#179),#180,.F.);
#78=PRESENTATION_STYLE_ASSIGNMENT((#181));
#79=ADVANCED_FACE('',(#182),#183,.T.);
#80=PRESENTATION_STYLE_ASSIGNMENT((#184));
#81=VERTEX_POINT('',#185);
#82=PRESENTATION_STYLE_ASSIGNMENT((#186));
#83=VERTEX_POINT('',#187);
#84=PRESENTATION_STYLE_ASSIGNMENT((#188));
#85=ADVANCED_FACE('',(#189),#190,.T.);
#86=PRESENTATION_STYLE_ASSIGNMENT((#191));
#87=EDGE_CURVE('',#83,#71,#192,.T.);
#88=PRESENTATION_STYLE_ASSIGNMENT((#193));
#89=EDGE_CURVE('',#111,#129,#194,.T.);
#90=PRESENTATION_STYLE_ASSIGNMENT((#195));
#91=EDGE_CURVE('',#139,#83,#196,.T.);
#92=PRESENTATION_STYLE_ASSIGNMENT((#197));
#93=EDGE_CURVE('',#83,#139,#198,.T.);
#94=PRESENTATION_STYLE_ASSIGNMENT((#199));
#95=ADVANCED_FACE('',(#200),#201,.F.);
#96=PRESENTATION_STYLE_ASSIGNMENT((#202));
#97=ADVANCED_FACE('',(#203),#204,.F.);
#98=PRESENTATION_STYLE_ASSIGNMENT((#205));
#99=VERTEX_POINT('',#206);
#100=PRESENTATION_STYLE_ASSIGNMENT((#207));
#101=ADVANCED_FACE('',(#208),#209,.T.);
#102=PRESENTATION_STYLE_ASSIGNMENT((#210));
#103=EDGE_CURVE('',#117,#147,#211,.T.);
#104=PRESENTATION_STYLE_ASSIGNMENT((#212));
#105=EDGE_CURVE('',#107,#149,#213,.T.);
#106=PRESENTATION_STYLE_ASSIGNMENT((#214));
#107=VERTEX_POINT('',#215);
#108=PRESENTATION_STYLE_ASSIGNMENT((#216));
#109=EDGE_CURVE('',#99,#117,#217,.T.);
#110=PRESENTATION_STYLE_ASSIGNMENT((#218));
#111=VERTEX_POINT('',#219);
#112=PRESENTATION_STYLE_ASSIGNMENT((#220));
#113=EDGE_CURVE('',#129,#83,#221,.T.);
#114=PRESENTATION_STYLE_ASSIGNMENT((#222));
#115=ADVANCED_FACE('',(#223,#224),#225,.T.);
#116=PRESENTATION_STYLE_ASSIGNMENT((#226));
#117=VERTEX_POINT('',#227);
#118=PRESENTATION_STYLE_ASSIGNMENT((#228));
#119=VERTEX_POINT('',#229);
#120=PRESENTATION_STYLE_ASSIGNMENT((#230));
#121=MANIFOLD_SOLID_BREP('1',#231);
#122=PRESENTATION_STYLE_ASSIGNMENT((#232));
#123=ADVANCED_FACE('',(#233,#234),#235,.T.);
#124=PRESENTATION_STYLE_ASSIGNMENT((#236));
#125=ADVANCED_FACE('',(#237),#238,.T.);
#126=PRESENTATION_STYLE_ASSIGNMENT((#239));
#127=EDGE_CURVE('',#119,#99,#240,.T.);
#128=PRESENTATION_STYLE_ASSIGNMENT((#241));
#129=VERTEX_POINT('',#242);
#130=PRESENTATION_STYLE_ASSIGNMENT((#243));
#131=EDGE_CURVE('',#81,#139,#244,.T.);
#132=PRESENTATION_STYLE_ASSIGNMENT((#245));
#133=EDGE_CURVE('',#149,#117,#246,.T.);
#134=PRESENTATION_STYLE_ASSIGNMENT((#247));
#135=EDGE_CURVE('',#149,#119,#248,.T.);
#136=PRESENTATION_STYLE_ASSIGNMENT((#249));
#137=EDGE_CURVE('',#107,#147,#250,.T.);
#138=PRESENTATION_STYLE_ASSIGNMENT((#251));
#139=VERTEX_POINT('',#252);
#140=PRESENTATION_STYLE_ASSIGNMENT((#253));
#141=EDGE_CURVE('',#99,#119,#254,.T.);
#142=PRESENTATION_STYLE_ASSIGNMENT((#255));
#143=EDGE_CURVE('',#147,#107,#256,.T.);
#144=PRESENTATION_STYLE_ASSIGNMENT((#257));
#145=EDGE_CURVE('',#129,#111,#258,.T.);
#146=PRESENTATION_STYLE_ASSIGNMENT((#259));
#147=VERTEX_POINT('',#260);
#148=PRESENTATION_STYLE_ASSIGNMENT((#261));
#149=VERTEX_POINT('',#262);
#150=PRESENTATION_STYLE_ASSIGNMENT((#263));
#151=ADVANCED_FACE('',(#264),#265,.F.);
#152=PRODUCT('1','1','PART-1-DESC',(#266));
#153=PRODUCT_DEFINITION('NONE','NONE',#267,#2);
#154=AXIS2_PLACEMENT_3D('',#268,#269,#270);
#157=LENGTH_MEASURE_WITH_UNIT(LENGTH_MEASURE(1.0),#271);
#160=DIMENSIONAL_EXPONENTS(1.0,0.0,0.0,0.0,0.0,0.0,0.0);
#162=DIMENSIONAL_EXPONENTS(0.0,0.0,0.0,0.0,0.0,0.0,0.0);
#168=CURVE_STYLE('',#272,POSITIVE_LENGTH_MEASURE(1.0E-006),#273);
#169=CIRCLE('',#274,32.0000000000001);
#170=CURVE_STYLE('',#275,POSITIVE_LENGTH_MEASURE(1.0E-006),#276);
#171=CIRCLE('',#277,22.0);
#172=POINT_STYLE(' ',#278,POSITIVE_LENGTH_MEASURE(1.0E-006),#279);
#173=CARTESIAN_POINT('',(22.0000000000001,1.36109472919408E-014,8.19999999999996));
#174=CURVE_STYLE('',#280,POSITIVE_LENGTH_MEASURE(1.0E-006),#281);
#175=CIRCLE('',#282,12.5);
#176=CURVE_STYLE('',#283,POSITIVE_LENGTH_MEASURE(1.0E-006),#284);
#177=CIRCLE('',#285,22.0);
#178=SURFACE_STYLE_USAGE(.BOTH.,#286);
#179=FACE_OUTER_BOUND('',#287,.T.);
#180=CYLINDRICAL_SURFACE('',#288,12.5);
#181=SURFACE_STYLE_USAGE(.BOTH.,#289);
#182=FACE_OUTER_BOUND('',#290,.T.);
#183=SPHERICAL_SURFACE('',#291,32.0000000000001);
#184=POINT_STYLE(' ',#292,POSITIVE_LENGTH_MEASURE(1.0E-006),#293);
#185=CARTESIAN_POINT('',(-22.0,4.64585029209369E-015,8.19999999999996));
#186=POINT_STYLE(' ',#294,POSITIVE_LENGTH_MEASURE(1.0E-006),#295);
#187=CARTESIAN_POINT('',(22.0000000000001,1.40041634690668E-014,5.79999999999993));
#188=SURFACE_STYLE_USAGE(.BOTH.,#296);
#189=FACE_OUTER_BOUND('',#297,.T.);
#190=SPHERICAL_SURFACE('',#298,32.0000000000001);
#191=CURVE_STYLE('',#299,POSITIVE_LENGTH_MEASURE(1.0E-006),#300);
#192=LINE('',#301,#302);
#193=CURVE_STYLE('',#303,POSITIVE_LENGTH_MEASURE(1.0E-006),#304);
#194=CIRCLE('',#305,13.4462024045442);
#195=CURVE_STYLE('',#306,POSITIVE_LENGTH_MEASURE(1.0E-006),#307);
#196=CIRCLE('',#308,22.0);
#197=CURVE_STYLE('',#309,POSITIVE_LENGTH_MEASURE(1.0E-006),#310);
#198=CIRCLE('',#311,22.0);
#199=SURFACE_STYLE_USAGE(.BOTH.,#312);
#200=FACE_OUTER_BOUND('',#313,.T.);
#201=CYLINDRICAL_SURFACE('',#314,12.5);
#202=SURFACE_STYLE_USAGE(.BOTH.,#315);
#203=FACE_OUTER_BOUND('',#316,.T.);
#204=CONICAL_SURFACE('',#317,12.9,0.785398163397448);
#205=POINT_STYLE(' ',#318,POSITIVE_LENGTH_MEASURE(1.0E-006),#319);
#206=CARTESIAN_POINT('',(-13.3,5.71125781991915E-015,8.19999999999996));
#207=SURFACE_STYLE_USAGE(.BOTH.,#320);
#208=FACE_OUTER_BOUND('',#321,.T.);
#209=CYLINDRICAL_SURFACE('',#322,22.0);
#210=CURVE_STYLE('',#323,POSITIVE_LENGTH_MEASURE(1.0E-006),#324);
#211=LINE('',#325,#326);
#212=CURVE_STYLE('',#327,POSITIVE_LENGTH_MEASURE(1.0E-006),#328);
#213=LINE('',#329,#330);
#214=POINT_STYLE(' ',#331,POSITIVE_LENGTH_MEASURE(1.0E-006),#332);
#215=CARTESIAN_POINT('',(12.5000000000001,1.09030314417744E-014,-2.8421709430404E-014));
#216=CURVE_STYLE('',#333,POSITIVE_LENGTH_MEASURE(1.0E-006),#334);
#217=LINE('',#335,#336);
#218=POINT_STYLE(' ',#337,POSITIVE_LENGTH_MEASURE(1.0E-006),#338);
#219=CARTESIAN_POINT('',(-13.4462024045439,5.19126517549712E-015,-4.2632564145606E-014));
#220=CURVE_STYLE('',#339,POSITIVE_LENGTH_MEASURE(1.0E-006),#340);
#221=CIRCLE('',#341,32.0000000000001);
#222=SURFACE_STYLE_USAGE(.BOTH.,#342);
#223=FACE_OUTER_BOUND('',#343,.T.);
#224=FACE_BOUND('',#344,.T.);
#225=PLANE('',#345);
#226=POINT_STYLE(' ',#346,POSITIVE_LENGTH_MEASURE(1.0E-006),#347);
#227=CARTESIAN_POINT('',(-12.5,5.76024207407205E-015,7.39999999999995));
#228=POINT_STYLE(' ',#348,POSITIVE_LENGTH_MEASURE(1.0E-006),#349);
#229=CARTESIAN_POINT('',(13.3000000000001,1.11310664607358E-014,8.19999999999996));
#230=SURFACE_STYLE_USAGE(.BOTH.,#350);
#231=CLOSED_SHELL('',(#77,#125,#151,#85,#79,#97,#115,#101,#123,#95));
#232=SURFACE_STYLE_USAGE(.BOTH.,#351);
#233=FACE_OUTER_BOUND('',#352,.T.);
#234=FACE_BOUND('',#353,.T.);
#235=PLANE('',#354);
#236=SURFACE_STYLE_USAGE(.BOTH.,#355);
#237=FACE_OUTER_BOUND('',#356,.T.);
#238=CYLINDRICAL_SURFACE('',#357,22.0);
#239=CURVE_STYLE('',#358,POSITIVE_LENGTH_MEASURE(1.0E-006),#359);
#240=CIRCLE('',#360,13.3);
#241=POINT_STYLE(' ',#361,POSITIVE_LENGTH_MEASURE(1.0E-006),#362);
#242=CARTESIAN_POINT('',(13.4462024045444,1.19091564921257E-014,-2.8421709430404E-014));
#243=CURVE_STYLE('',#363,POSITIVE_LENGTH_MEASURE(1.0E-006),#364);
#244=LINE('',#365,#366);
#245=CURVE_STYLE('',#367,POSITIVE_LENGTH_MEASURE(1.0E-006),#368);
#246=CIRCLE('',#369,12.5);
#247=CURVE_STYLE('',#370,POSITIVE_LENGTH_MEASURE(1.0E-006),#371);
#248=LINE('',#372,#373);
#249=CURVE_STYLE('',#374,POSITIVE_LENGTH_MEASURE(1.0E-006),#375);
#250=CIRCLE('',#376,12.5);
#251=POINT_STYLE(' ',#377,POSITIVE_LENGTH_MEASURE(1.0E-006),#378);
#252=CARTESIAN_POINT('',(-21.9999999999999,4.49889752963501E-015,5.79999999999997));
#253=CURVE_STYLE('',#379,POSITIVE_LENGTH_MEASURE(1.0E-006),#380);
#254=CIRCLE('',#381,13.3);
#255=CURVE_STYLE('',#382,POSITIVE_LENGTH_MEASURE(1.0E-006),#383);
#256=CIRCLE('',#384,12.5);
#257=CURVE_STYLE('',#385,POSITIVE_LENGTH_MEASURE(1.0E-006),#386);
#258=CIRCLE('',#387,13.4462024045442);
#259=POINT_STYLE(' ',#388,POSITIVE_LENGTH_MEASURE(1.0E-006),#389);
#260=CARTESIAN_POINT('',(-12.5,5.30713772315777E-015,-2.8421709430404E-014));
#261=POINT_STYLE(' ',#390,POSITIVE_LENGTH_MEASURE(1.0E-006),#391);
#262=CARTESIAN_POINT('',(12.5000000000001,1.09030314417744E-014,7.39999999999995));
#263=SURFACE_STYLE_USAGE(.BOTH.,#392);
#264=FACE_OUTER_BOUND('',#393,.T.);
#265=CONICAL_SURFACE('',#394,12.9,0.785398163397448);
#266=PRODUCT_CONTEXT('',#53,'mechanical');
#267=PRODUCT_DEFINITION_FORMATION_WITH_SPECIFIED_SOURCE(' ','NONE',#152,.NOT_KNOWN.);
#268=CARTESIAN_POINT('',(0.0,0.0,0.0));
#269=DIRECTION('',(0.0,0.0,1.0));
#270=DIRECTION('',(1.0,0.0,0.0));
#271= (NAMED_UNIT(#160)LENGTH_UNIT()SI_UNIT(.MILLI.,.METRE.));
#272=DRAUGHTING_PRE_DEFINED_CURVE_FONT('continuous');
#273=COLOUR_RGB('',0.509803950786591,0.509803950786591,0.588235318660736);
#274=AXIS2_PLACEMENT_3D('',#396,#397,#398);
#275=DRAUGHTING_PRE_DEFINED_CURVE_FONT('continuous');
#276=COLOUR_RGB('',0.509803950786591,0.509803950786591,0.588235318660736);
#277=AXIS2_PLACEMENT_3D('',#399,#400,#401);
#278=PRE_DEFINED_MARKER('');
#279=COLOUR_RGB('',0.509803950786591,0.509803950786591,0.588235318660736);
#280=DRAUGHTING_PRE_DEFINED_CURVE_FONT('continuous');
#281=COLOUR_RGB('',0.509803950786591,0.509803950786591,0.588235318660736);
#282=AXIS2_PLACEMENT_3D('',#402,#403,#404);
#283=DRAUGHTING_PRE_DEFINED_CURVE_FONT('continuous');
#284=COLOUR_RGB('',0.509803950786591,0.509803950786591,0.588235318660736);
#285=AXIS2_PLACEMENT_3D('',#405,#406,#407);
#286=SURFACE_SIDE_STYLE('',(#408));
#287=EDGE_LOOP('',(#409,#410,#411,#412));
#288=AXIS2_PLACEMENT_3D('',#413,#414,#415);
#289=SURFACE_SIDE_STYLE('',(#416));
#290=EDGE_LOOP('',(#417,#418,#419,#420));
#291=AXIS2_PLACEMENT_3D('',#421,#422,#423);
#292=PRE_DEFINED_MARKER('');
#293=COLOUR_RGB('',0.509803950786591,0.509803950786591,0.588235318660736);
#294=PRE_DEFINED_MARKER('');
#295=COLOUR_RGB('',0.509803950786591,0.509803950786591,0.588235318660736);
#296=SURFACE_SIDE_STYLE('',(#424));
#297=EDGE_LOOP('',(#425,#426,#427,#428));
#298=AXIS2_PLACEMENT_3D('',#429,#430,#431);
#299=DRAUGHTING_PRE_DEFINED_CURVE_FONT('continuous');
#300=COLOUR_RGB('',0.509803950786591,0.509803950786591,0.588235318660736);
#301=CARTESIAN_POINT('',(22.0000000000001,1.36109472919408E-014,6.99999999999994));
#302=VECTOR('',#432,1.0);
#303=DRAUGHTING_PRE_DEFINED_CURVE_FONT('continuous');
#304=COLOUR_RGB('',0.509803950786591,0.509803950786591,0.588235318660736);
#305=AXIS2_PLACEMENT_3D('',#433,#434,#435);
#306=DRAUGHTING_PRE_DEFINED_CURVE_FONT('continuous');
#307=COLOUR_RGB('',0.509803950786591,0.509803950786591,0.588235318660736);
#308=AXIS2_PLACEMENT_3D('',#436,#437,#438);
#309=DRAUGHTING_PRE_DEFINED_CURVE_FONT('continuous');
#310=COLOUR_RGB('',0.509803950786591,0.509803950786591,0.588235318660736);
#311=AXIS2_PLACEMENT_3D('',#439,#440,#441);
#312=SURFACE_SIDE_STYLE('',(#442));
#313=EDGE_LOOP('',(#443,#444,#445,#446));
#314=AXIS2_PLACEMENT_3D('',#447,#448,#449);
#315=SURFACE_SIDE_STYLE('',(#450));
#316=EDGE_LOOP('',(#451,#452,#453,#454));
#317=AXIS2_PLACEMENT_3D('',#455,#456,#457);
#318=PRE_DEFINED_MARKER('');
#319=COLOUR_RGB('',0.509803950786591,0.509803950786591,0.588235318660736);
#320=SURFACE_SIDE_STYLE('',(#458));
#321=EDGE_LOOP('',(#459,#460,#461,#462));
#322=AXIS2_PLACEMENT_3D('',#463,#464,#465);
#323=DRAUGHTING_PRE_DEFINED_CURVE_FONT('continuous');
#324=COLOUR_RGB('',0.509803950786591,0.509803950786591,0.588235318660736);
#325=CARTESIAN_POINT('',(-12.5,3.77693709923142E-015,3.69999999999996));
#326=VECTOR('',#466,1.0);
#327=DRAUGHTING_PRE_DEFINED_CURVE_FONT('continuous');
#328=COLOUR_RGB('',0.509803950786591,0.509803950786591,0.588235318660736);
#329=CARTESIAN_POINT('',(12.5000000000001,1.09030314417744E-014,3.69999999999996));
#330=VECTOR('',#467,1.0);
#331=PRE_DEFINED_MARKER('');
#332=COLOUR_RGB('',0.509803950786591,0.509803950786591,0.588235318660736);
#333=DRAUGHTING_PRE_DEFINED_CURVE_FONT('continuous');
#334=COLOUR_RGB('',0.509803950786591,0.509803950786591,0.588235318660736);
#335=CARTESIAN_POINT('',(-12.9,3.66291958975073E-015,7.79999999999995));
#336=VECTOR('',#468,1.0);
#337=PRE_DEFINED_MARKER('');
#338=COLOUR_RGB('',0.509803950786591,0.509803950786591,0.588235318660736);
#339=DRAUGHTING_PRE_DEFINED_CURVE_FONT('continuous');
#340=COLOUR_RGB('',0.509803950786591,0.509803950786591,0.588235318660736);
#341=AXIS2_PLACEMENT_3D('',#469,#470,#471);
#342=SURFACE_SIDE_STYLE('',(#472));
#343=EDGE_LOOP('',(#473,#474));
#344=EDGE_LOOP('',(#475,#476));
#345=AXIS2_PLACEMENT_3D('',#477,#478,#479);
#346=PRE_DEFINED_MARKER('');
#347=COLOUR_RGB('',0.509803950786591,0.509803950786591,0.588235318660736);
#348=PRE_DEFINED_MARKER('');
#349=COLOUR_RGB('',0.509803950786591,0.509803950786591,0.588235318660736);
#350=SURFACE_SIDE_STYLE('',(#480));
#351=SURFACE_SIDE_STYLE('',(#481));
#352=EDGE_LOOP('',(#482,#483));
#353=EDGE_LOOP('',(#484,#485));
#354=AXIS2_PLACEMENT_3D('',#486,#487,#488);
#355=SURFACE_SIDE_STYLE('',(#489));
#356=EDGE_LOOP('',(#490,#491,#492,#493));
#357=AXIS2_PLACEMENT_3D('',#494,#495,#496);
#358=DRAUGHTING_PRE_DEFINED_CURVE_FONT('continuous');
#359=COLOUR_RGB('',0.509803950786591,0.509803950786591,0.588235318660736);
#360=AXIS2_PLACEMENT_3D('',#497,#498,#499);
#361=PRE_DEFINED_MARKER('');
#362=COLOUR_RGB('',0.509803950786591,0.509803950786591,0.588235318660736);
#363=DRAUGHTING_PRE_DEFINED_CURVE_FONT('continuous');
#364=COLOUR_RGB('',0.509803950786591,0.509803950786591,0.588235318660736);
#365=CARTESIAN_POINT('',(-22.0,1.06902124906509E-015,6.99999999999994));
#366=VECTOR('',#500,1.0);
#367=DRAUGHTING_PRE_DEFINED_CURVE_FONT('continuous');
#368=COLOUR_RGB('',0.509803950786591,0.509803950786591,0.588235318660736);
#369=AXIS2_PLACEMENT_3D('',#501,#502,#503);
#370=DRAUGHTING_PRE_DEFINED_CURVE_FONT('continuous');
#371=COLOUR_RGB('',0.509803950786591,0.509803950786591,0.588235318660736);
#372=CARTESIAN_POINT('',(12.9000000000001,1.10170489512551E-014,7.79999999999995));
#373=VECTOR('',#504,1.0);
#374=DRAUGHTING_PRE_DEFINED_CURVE_FONT('continuous');
#375=COLOUR_RGB('',0.509803950786591,0.509803950786591,0.588235318660736);
#376=AXIS2_PLACEMENT_3D('',#505,#506,#507);
#377=PRE_DEFINED_MARKER('');
#378=COLOUR_RGB('',0.509803950786591,0.509803950786591,0.588235318660736);
#379=DRAUGHTING_PRE_DEFINED_CURVE_FONT('continuous');
#380=COLOUR_RGB('',0.509803950786591,0.509803950786591,0.588235318660736);
#381=AXIS2_PLACEMENT_3D('',#508,#509,#510);
#382=DRAUGHTING_PRE_DEFINED_CURVE_FONT('continuous');
#383=COLOUR_RGB('',0.509803950786591,0.509803950786591,0.588235318660736);
#384=AXIS2_PLACEMENT_3D('',#511,#512,#513);
#385=DRAUGHTING_PRE_DEFINED_CURVE_FONT('continuous');
#386=COLOUR_RGB('',0.509803950786591,0.509803950786591,0.588235318660736);
#387=AXIS2_PLACEMENT_3D('',#514,#515,#516);
#388=PRE_DEFINED_MARKER('');
#389=COLOUR_RGB('',0.509803950786591,0.509803950786591,0.588235318660736);
#390=PRE_DEFINED_MARKER('');
#391=COLOUR_RGB('',0.509803950786591,0.509803950786591,0.588235318660736);
#392=SURFACE_SIDE_STYLE('',(#517));
#393=EDGE_LOOP('',(#518,#519,#520,#521));
#394=AXIS2_PLACEMENT_3D('',#522,#523,#524);
#396=CARTESIAN_POINT('',(1.11910480882216E-013,8.6158955122484E-015,29.0379000772444));
#397=DIRECTION('',(2.44921270764475E-016,-1.0,0.0));
#398=DIRECTION('',(-0.0,0.0,1.0));
#399=CARTESIAN_POINT('',(2.8421709430404E-014,7.33998427050292E-015,8.19999999999996));
#400=DIRECTION('',(-0.0,0.0,-1.0));
#401=DIRECTION('',(-1.0,-1.62583138319482E-016,0.0));
#402=CARTESIAN_POINT('',(2.8421709430404E-014,7.33998427050292E-015,7.39999999999995));
#403=DIRECTION('',(-0.0,0.0,-1.0));
#404=DIRECTION('',(-1.0,-1.62583138319482E-016,0.0));
#405=CARTESIAN_POINT('',(2.8421709430404E-014,7.33998427050292E-015,8.19999999999996));
#406=DIRECTION('',(-0.0,0.0,-1.0));
#407=DIRECTION('',(-1.0,-1.62583138319482E-016,0.0));
#408=SURFACE_STYLE_FILL_AREA(#525);
#409=ORIENTED_EDGE('',*,*,#103,.F.);
#410=ORIENTED_EDGE('',*,*,#133,.F.);
#411=ORIENTED_EDGE('',*,*,#105,.F.);
#412=ORIENTED_EDGE('',*,*,#137,.T.);
#413=CARTESIAN_POINT('',(2.8421709430404E-014,7.33998427050292E-015,3.69999999999996));
#414=DIRECTION('',(0.0,-0.0,1.0));
#415=DIRECTION('',(-1.0,-1.62583138319482E-016,0.0));
#416=SURFACE_STYLE_FILL_AREA(#526);
#417=ORIENTED_EDGE('',*,*,#113,.T.);
#418=ORIENTED_EDGE('',*,*,#91,.F.);
#419=ORIENTED_EDGE('',*,*,#67,.T.);
#420=ORIENTED_EDGE('',*,*,#145,.F.);
#421=CARTESIAN_POINT('',(1.11910480882216E-013,8.6158955122484E-015,29.0379000772444));
#422=DIRECTION('',(0.0,0.0,-1.0));
#423=DIRECTION('',(1.0,1.22460635382238E-016,0.0));
#424=SURFACE_STYLE_FILL_AREA(#527);
#425=ORIENTED_EDGE('',*,*,#113,.F.);
#426=ORIENTED_EDGE('',*,*,#89,.F.);
#427=ORIENTED_EDGE('',*,*,#67,.F.);
#428=ORIENTED_EDGE('',*,*,#93,.F.);
#429=CARTESIAN_POINT('',(1.11910480882216E-013,8.6158955122484E-015,29.0379000772444));
#430=DIRECTION('',(0.0,0.0,-1.0));
#431=DIRECTION('',(1.0,1.22460635382238E-016,0.0));
#432=DIRECTION('',(-0.0,-0.0,1.0));
#433=CARTESIAN_POINT('',(1.11910480882216E-013,8.6158955122484E-015,-2.8421709430404E-014));
#434=DIRECTION('',(0.0,0.0,-1.0));
#435=DIRECTION('',(0.0,-1.0,0.0));
#436=CARTESIAN_POINT('',(2.8421709430404E-014,7.33998427050292E-015,5.79999999999993));
#437=DIRECTION('',(0.0,0.0,1.0));
#438=DIRECTION('',(-1.0,-1.62583138319482E-016,0.0));
#439=CARTESIAN_POINT('',(2.8421709430404E-014,7.33998427050292E-015,5.79999999999993));
#440=DIRECTION('',(0.0,0.0,1.0));
#441=DIRECTION('',(-1.0,-1.62583138319482E-016,0.0));
#442=SURFACE_STYLE_FILL_AREA(#528);
#443=ORIENTED_EDGE('',*,*,#103,.T.);
#444=ORIENTED_EDGE('',*,*,#143,.T.);
#445=ORIENTED_EDGE('',*,*,#105,.T.);
#446=ORIENTED_EDGE('',*,*,#73,.F.);
#447=CARTESIAN_POINT('',(2.8421709430404E-014,7.33998427050292E-015,3.69999999999996));
#448=DIRECTION('',(0.0,-0.0,1.0));
#449=DIRECTION('',(-1.0,-1.62583138319482E-016,0.0));
#450=SURFACE_STYLE_FILL_AREA(#529);
#451=ORIENTED_EDGE('',*,*,#109,.T.);
#452=ORIENTED_EDGE('',*,*,#73,.T.);
#453=ORIENTED_EDGE('',*,*,#135,.T.);
#454=ORIENTED_EDGE('',*,*,#141,.F.);
#455=CARTESIAN_POINT('',(2.8421709430404E-014,7.33998427050292E-015,7.79999999999995));
#456=DIRECTION('',(0.0,-0.0,1.0));
#457=DIRECTION('',(-1.0,-1.62583138319482E-016,0.0));
#458=SURFACE_STYLE_FILL_AREA(#530);
#459=ORIENTED_EDGE('',*,*,#131,.T.);
#460=ORIENTED_EDGE('',*,*,#91,.T.);
#461=ORIENTED_EDGE('',*,*,#87,.T.);
#462=ORIENTED_EDGE('',*,*,#69,.T.);
#463=CARTESIAN_POINT('',(2.8421709430404E-014,7.33998427050292E-015,4.09999999999997));
#464=DIRECTION('',(0.0,-0.0,1.0));
#465=DIRECTION('',(-1.0,-1.62583138319482E-016,0.0));
#466=DIRECTION('',(0.0,0.0,-1.0));
#467=DIRECTION('',(0.0,0.0,1.0));
#468=DIRECTION('',(0.707106781186548,2.01556385319489E-016,-0.707106781186548));
#469=CARTESIAN_POINT('',(1.11910480882216E-013,8.6158955122484E-015,29.0379000772444));
#470=DIRECTION('',(2.44921270764475E-016,-1.0,0.0));
#471=DIRECTION('',(-0.0,0.0,1.0));
#472=SURFACE_STYLE_FILL_AREA(#531);
#473=ORIENTED_EDGE('',*,*,#75,.F.);
#474=ORIENTED_EDGE('',*,*,#69,.F.);
#475=ORIENTED_EDGE('',*,*,#141,.T.);
#476=ORIENTED_EDGE('',*,*,#127,.T.);
#477=CARTESIAN_POINT('',(-17.65,5.17855405600642E-015,8.19999999999996));
#478=DIRECTION('',(0.0,0.0,1.0));
#479=DIRECTION('',(-1.0,-1.22460635382238E-016,0.0));
#480=SURFACE_STYLE_FILL_AREA(#532);
#481=SURFACE_STYLE_FILL_AREA(#533);
#482=ORIENTED_EDGE('',*,*,#89,.T.);
#483=ORIENTED_EDGE('',*,*,#145,.T.);
#484=ORIENTED_EDGE('',*,*,#143,.F.);
#485=ORIENTED_EDGE('',*,*,#137,.F.);
#486=CARTESIAN_POINT('',(-17.25,4.72544970509214E-015,-2.8421709430404E-014));
#487=DIRECTION('',(0.0,0.0,-1.0));
#488=DIRECTION('',(1.0,1.22460635382238E-016,0.0));
#489=SURFACE_STYLE_FILL_AREA(#534);
#490=ORIENTED_EDGE('',*,*,#131,.F.);
#491=ORIENTED_EDGE('',*,*,#75,.T.);
#492=ORIENTED_EDGE('',*,*,#87,.F.);
#493=ORIENTED_EDGE('',*,*,#93,.T.);
#494=CARTESIAN_POINT('',(2.8421709430404E-014,7.33998427050292E-015,4.09999999999997));
#495=DIRECTION('',(0.0,-0.0,1.0));
#496=DIRECTION('',(-1.0,-1.62583138319482E-016,0.0));
#497=CARTESIAN_POINT('',(2.8421709430404E-014,7.33998427050292E-015,8.19999999999996));
#498=DIRECTION('',(-0.0,0.0,-1.0));
#499=DIRECTION('',(-1.0,-1.62583138319482E-016,0.0));
#500=DIRECTION('',(0.0,0.0,-1.0));
#501=CARTESIAN_POINT('',(2.8421709430404E-014,7.33998427050292E-015,7.39999999999995));
#502=DIRECTION('',(-0.0,0.0,-1.0));
#503=DIRECTION('',(-1.0,-1.62583138319482E-016,0.0));
#504=DIRECTION('',(0.707106781186548,2.01556385319489E-016,0.707106781186548));
#505=CARTESIAN_POINT('',(2.8421709430404E-014,7.33998427050292E-015,-2.8421709430404E-014));
#506=DIRECTION('',(-0.0,0.0,-1.0));
#507=DIRECTION('',(-1.0,-1.62583138319482E-016,0.0));
#508=CARTESIAN_POINT('',(2.8421709430404E-014,7.33998427050292E-015,8.19999999999996));
#509=DIRECTION('',(-0.0,0.0,-1.0));
#510=DIRECTION('',(-1.0,-1.62583138319482E-016,0.0));
#511=CARTESIAN_POINT('',(2.8421709430404E-014,7.33998427050292E-015,-2.8421709430404E-014));
#512=DIRECTION('',(-0.0,0.0,-1.0));
#513=DIRECTION('',(-1.0,-1.62583138319482E-016,0.0));
#514=CARTESIAN_POINT('',(1.11910480882216E-013,8.6158955122484E-015,-2.8421709430404E-014));
#515=DIRECTION('',(0.0,0.0,-1.0));
#516=DIRECTION('',(0.0,-1.0,0.0));
#517=SURFACE_STYLE_FILL_AREA(#535);
#518=ORIENTED_EDGE('',*,*,#109,.F.);
#519=ORIENTED_EDGE('',*,*,#127,.F.);
#520=ORIENTED_EDGE('',*,*,#135,.F.);
#521=ORIENTED_EDGE('',*,*,#133,.T.);
#522=CARTESIAN_POINT('',(2.8421709430404E-014,7.33998427050292E-015,7.79999999999995));
#523=DIRECTION('',(0.0,-0.0,1.0));
#524=DIRECTION('',(-1.0,-1.62583138319482E-016,0.0));
#525=FILL_AREA_STYLE('',(#536));
#526=FILL_AREA_STYLE('',(#537));
#527=FILL_AREA_STYLE('',(#538));
#528=FILL_AREA_STYLE('',(#539));
#529=FILL_AREA_STYLE('',(#540));
#530=FILL_AREA_STYLE('',(#541));
#531=FILL_AREA_STYLE('',(#542));
#532=FILL_AREA_STYLE('',(#543));
#533=FILL_AREA_STYLE('',(#544));
#534=FILL_AREA_STYLE('',(#545));
#535=FILL_AREA_STYLE('',(#546));
#536=FILL_AREA_STYLE_COLOUR('',#547);
#537=FILL_AREA_STYLE_COLOUR('',#548);
#538=FILL_AREA_STYLE_COLOUR('',#549);
#539=FILL_AREA_STYLE_COLOUR('',#550);
#540=FILL_AREA_STYLE_COLOUR('',#551);
#541=FILL_AREA_STYLE_COLOUR('',#552);
#542=FILL_AREA_STYLE_COLOUR('',#553);
#543=FILL_AREA_STYLE_COLOUR('',#554);
#544=FILL_AREA_STYLE_COLOUR('',#555);
#545=FILL_AREA_STYLE_COLOUR('',#556);
#546=FILL_AREA_STYLE_COLOUR('',#557);
#547=COLOUR_RGB('',0.509803950786591,0.509803950786591,0.588235318660736);
#548=COLOUR_RGB('',0.509803950786591,0.509803950786591,0.588235318660736);
#549=COLOUR_RGB('',0.509803950786591,0.509803950786591,0.588235318660736);
#550=COLOUR_RGB('',0.509803950786591,0.509803950786591,0.588235318660736);
#551=COLOUR_RGB('',0.509803950786591,0.509803950786591,0.588235318660736);
#552=COLOUR_RGB('',0.509803950786591,0.509803950786591,0.588235318660736);
#553=COLOUR_RGB('',0.509803950786591,0.509803950786591,0.588235318660736);
#554=COLOUR_RGB('',0.509803950786591,0.509803950786591,0.588235318660736);
#555=COLOUR_RGB('',0.509803950786591,0.509803950786591,0.588235318660736);
#556=COLOUR_RGB('',0.509803950786591,0.509803950786591,0.588235318660736);
#557=COLOUR_RGB('',0.509803950786591,0.509803950786591,0.588235318660736);
ENDSEC;
END-ISO-10303-21;
