ISO-10303-21;
HEADER;
FILE_DESCRIPTION(('STEP AP214'),'1');
FILE_NAME(' ','  ',('TraceParts'),('TraceParts S.A.'),'XStep 1.0',' ',' ');
FILE_SCHEMA(('automotive_design'));
ENDSEC;
DATA;
#1=MECHANICAL_DESIGN_GEOMETRIC_PRESENTATION_REPRESENTATION(' ',(#10,#11,#12,#13,#14,#15,#16,#17,#18,#19,#20,#21,#22,#23,#24,#25,#26,#27,#28,#29,#30,#31,#32,#33,#34,#35,#36,#37,#38,#39,#40,#41,#42,#43,#44,#45,#46,#47,#48,#49,#50,#51,#52),#6);
#2=PRODUCT_DEFINITION_CONTEXT('',#53,'design');
#3=APPLICATION_PROTOCOL_DEFINITION('INTERNATIONAL STANDARD','automotive_design',1994,#53);
#4=PRODUCT_CATEGORY_RELATIONSHIP('NONE','NONE',#54,#55);
#5=SHAPE_DEFINITION_REPRESENTATION(#56,#57);
#6= (GEOMETRIC_REPRESENTATION_CONTEXT(3)GLOBAL_UNCERTAINTY_ASSIGNED_CONTEXT((#60))GLOBAL_UNIT_ASSIGNED_CONTEXT((#62,#63,#64))REPRESENTATION_CONTEXT('NONE','WORKSPACE'));
#10=STYLED_ITEM('',(#66),#67);
#11=STYLED_ITEM('',(#68),#69);
#12=STYLED_ITEM('',(#70),#71);
#13=STYLED_ITEM('',(#72),#73);
#14=STYLED_ITEM('',(#74),#75);
#15=STYLED_ITEM('',(#76),#77);
#16=STYLED_ITEM('',(#78),#79);
#17=STYLED_ITEM('',(#80),#81);
#18=STYLED_ITEM('',(#82),#83);
#19=STYLED_ITEM('',(#84),#85);
#20=STYLED_ITEM('',(#86),#87);
#21=STYLED_ITEM('',(#88),#89);
#22=STYLED_ITEM('',(#90),#91);
#23=STYLED_ITEM('',(#92),#93);
#24=STYLED_ITEM('',(#94),#95);
#25=STYLED_ITEM('',(#96),#97);
#26=STYLED_ITEM('',(#98),#99);
#27=STYLED_ITEM('',(#100),#101);
#28=STYLED_ITEM('',(#102),#103);
#29=STYLED_ITEM('',(#104),#105);
#30=STYLED_ITEM('',(#106),#107);
#31=STYLED_ITEM('',(#108),#109);
#32=STYLED_ITEM('',(#110),#111);
#33=STYLED_ITEM('',(#112),#113);
#34=STYLED_ITEM('',(#114),#115);
#35=STYLED_ITEM('',(#116),#117);
#36=STYLED_ITEM('',(#118),#119);
#37=STYLED_ITEM('',(#120),#121);
#38=STYLED_ITEM('',(#122),#123);
#39=STYLED_ITEM('',(#124),#125);
#40=STYLED_ITEM('',(#126),#127);
#41=STYLED_ITEM('',(#128),#129);
#42=STYLED_ITEM('',(#130),#131);
#43=STYLED_ITEM('',(#132),#133);
#44=STYLED_ITEM('',(#134),#135);
#45=STYLED_ITEM('',(#136),#137);
#46=STYLED_ITEM('',(#138),#139);
#47=STYLED_ITEM('',(#140),#141);
#48=STYLED_ITEM('',(#142),#143);
#49=STYLED_ITEM('',(#144),#145);
#50=STYLED_ITEM('',(#146),#147);
#51=STYLED_ITEM('',(#148),#149);
#52=STYLED_ITEM('',(#150),#151);
#53=APPLICATION_CONTEXT(' ');
#54=PRODUCT_CATEGORY('part','NONE');
#55=PRODUCT_RELATED_PRODUCT_CATEGORY('detail',' ',(#152));
#56=PRODUCT_DEFINITION_SHAPE('NONE','NONE',#153);
#57=ADVANCED_BREP_SHAPE_REPRESENTATION('1',(#111,#154),#6);
#60=UNCERTAINTY_MEASURE_WITH_UNIT(LENGTH_MEASURE(1.0E-006),#62,'','');
#62= (CONVERSION_BASED_UNIT('MILLIMETRE',#157)LENGTH_UNIT()NAMED_UNIT(#160));
#63= (NAMED_UNIT(#162)PLANE_ANGLE_UNIT()SI_UNIT($,.RADIAN.));
#64= (NAMED_UNIT(#162)SOLID_ANGLE_UNIT()SI_UNIT($,.STERADIAN.));
#66=PRESENTATION_STYLE_ASSIGNMENT((#168));
#67=ADVANCED_FACE('',(#169),#170,.T.);
#68=PRESENTATION_STYLE_ASSIGNMENT((#171));
#69=VERTEX_POINT('',#172);
#70=PRESENTATION_STYLE_ASSIGNMENT((#173));
#71=VERTEX_POINT('',#174);
#72=PRESENTATION_STYLE_ASSIGNMENT((#175));
#73=VERTEX_POINT('',#176);
#74=PRESENTATION_STYLE_ASSIGNMENT((#177));
#75=EDGE_CURVE('',#79,#81,#178,.T.);
#76=PRESENTATION_STYLE_ASSIGNMENT((#179));
#77=VERTEX_POINT('',#180);
#78=PRESENTATION_STYLE_ASSIGNMENT((#181));
#79=VERTEX_POINT('',#182);
#80=PRESENTATION_STYLE_ASSIGNMENT((#183));
#81=VERTEX_POINT('',#184);
#82=PRESENTATION_STYLE_ASSIGNMENT((#185));
#83=EDGE_CURVE('',#69,#145,#186,.T.);
#84=PRESENTATION_STYLE_ASSIGNMENT((#187));
#85=VERTEX_POINT('',#188);
#86=PRESENTATION_STYLE_ASSIGNMENT((#189));
#87=EDGE_CURVE('',#81,#133,#190,.T.);
#88=PRESENTATION_STYLE_ASSIGNMENT((#191));
#89=ADVANCED_FACE('',(#192),#193,.T.);
#90=PRESENTATION_STYLE_ASSIGNMENT((#194));
#91=EDGE_CURVE('',#145,#127,#195,.T.);
#92=PRESENTATION_STYLE_ASSIGNMENT((#196));
#93=EDGE_CURVE('',#117,#77,#197,.T.);
#94=PRESENTATION_STYLE_ASSIGNMENT((#198));
#95=EDGE_CURVE('',#85,#69,#199,.T.);
#96=PRESENTATION_STYLE_ASSIGNMENT((#200));
#97=EDGE_CURVE('',#73,#71,#201,.T.);
#98=PRESENTATION_STYLE_ASSIGNMENT((#202));
#99=ADVANCED_FACE('',(#203),#204,.F.);
#100=PRESENTATION_STYLE_ASSIGNMENT((#205));
#101=EDGE_CURVE('',#71,#73,#206,.T.);
#102=PRESENTATION_STYLE_ASSIGNMENT((#207));
#103=EDGE_CURVE('',#127,#85,#208,.T.);
#104=PRESENTATION_STYLE_ASSIGNMENT((#209));
#105=EDGE_CURVE('',#69,#85,#210,.T.);
#106=PRESENTATION_STYLE_ASSIGNMENT((#211));
#107=EDGE_CURVE('',#81,#79,#212,.T.);
#108=PRESENTATION_STYLE_ASSIGNMENT((#213));
#109=VERTEX_POINT('',#214);
#110=PRESENTATION_STYLE_ASSIGNMENT((#215));
#111=MANIFOLD_SOLID_BREP('1',#216);
#112=PRESENTATION_STYLE_ASSIGNMENT((#217));
#113=EDGE_CURVE('',#71,#127,#218,.T.);
#114=PRESENTATION_STYLE_ASSIGNMENT((#219));
#115=EDGE_CURVE('',#145,#73,#220,.T.);
#116=PRESENTATION_STYLE_ASSIGNMENT((#221));
#117=VERTEX_POINT('',#222);
#118=PRESENTATION_STYLE_ASSIGNMENT((#223));
#119=EDGE_CURVE('',#77,#117,#224,.T.);
#120=PRESENTATION_STYLE_ASSIGNMENT((#225));
#121=EDGE_CURVE('',#109,#79,#226,.T.);
#122=PRESENTATION_STYLE_ASSIGNMENT((#227));
#123=ADVANCED_FACE('',(#228,#229),#230,.T.);
#124=PRESENTATION_STYLE_ASSIGNMENT((#231));
#125=ADVANCED_FACE('',(#232),#233,.F.);
#126=PRESENTATION_STYLE_ASSIGNMENT((#234));
#127=VERTEX_POINT('',#235);
#128=PRESENTATION_STYLE_ASSIGNMENT((#236));
#129=EDGE_CURVE('',#117,#81,#237,.T.);
#130=PRESENTATION_STYLE_ASSIGNMENT((#238));
#131=ADVANCED_FACE('',(#239),#240,.T.);
#132=PRESENTATION_STYLE_ASSIGNMENT((#241));
#133=VERTEX_POINT('',#242);
#134=PRESENTATION_STYLE_ASSIGNMENT((#243));
#135=EDGE_CURVE('',#133,#109,#244,.T.);
#136=PRESENTATION_STYLE_ASSIGNMENT((#245));
#137=ADVANCED_FACE('',(#246),#247,.T.);
#138=PRESENTATION_STYLE_ASSIGNMENT((#248));
#139=EDGE_CURVE('',#79,#77,#249,.T.);
#140=PRESENTATION_STYLE_ASSIGNMENT((#250));
#141=EDGE_CURVE('',#127,#145,#251,.T.);
#142=PRESENTATION_STYLE_ASSIGNMENT((#252));
#143=ADVANCED_FACE('',(#253),#254,.F.);
#144=PRESENTATION_STYLE_ASSIGNMENT((#255));
#145=VERTEX_POINT('',#256);
#146=PRESENTATION_STYLE_ASSIGNMENT((#257));
#147=ADVANCED_FACE('',(#258),#259,.F.);
#148=PRESENTATION_STYLE_ASSIGNMENT((#260));
#149=ADVANCED_FACE('',(#261,#262),#263,.T.);
#150=PRESENTATION_STYLE_ASSIGNMENT((#264));
#151=EDGE_CURVE('',#109,#133,#265,.T.);
#152=PRODUCT('1','1','PART-1-DESC',(#266));
#153=PRODUCT_DEFINITION('NONE','NONE',#267,#2);
#154=AXIS2_PLACEMENT_3D('',#268,#269,#270);
#157=LENGTH_MEASURE_WITH_UNIT(LENGTH_MEASURE(1.0),#271);
#160=DIMENSIONAL_EXPONENTS(1.0,0.0,0.0,0.0,0.0,0.0,0.0);
#162=DIMENSIONAL_EXPONENTS(0.0,0.0,0.0,0.0,0.0,0.0,0.0);
#168=SURFACE_STYLE_USAGE(.BOTH.,#272);
#169=FACE_OUTER_BOUND('',#273,.T.);
#170=CYLINDRICAL_SURFACE('',#274,28.0);
#171=POINT_STYLE(' ',#275,POSITIVE_LENGTH_MEASURE(1.0E-006),#276);
#172=CARTESIAN_POINT('',(-16.3,6.07863972606587E-015,11.2));
#173=POINT_STYLE(' ',#277,POSITIVE_LENGTH_MEASURE(1.0E-006),#278);
#174=CARTESIAN_POINT('',(15.5000000000001,1.25560240795623E-014,-2.8421709430404E-014));
#175=POINT_STYLE(' ',#279,POSITIVE_LENGTH_MEASURE(1.0E-006),#280);
#176=CARTESIAN_POINT('',(-15.5,5.49082867623113E-015,-2.8421709430404E-014));
#177=CURVE_STYLE('',#281,POSITIVE_LENGTH_MEASURE(1.0E-006),#282);
#178=CIRCLE('',#283,28.0);
#179=POINT_STYLE(' ',#284,POSITIVE_LENGTH_MEASURE(1.0E-006),#285);
#180=CARTESIAN_POINT('',(28.0000000000001,1.61699563350188E-014,11.2));
#181=POINT_STYLE(' ',#286,POSITIVE_LENGTH_MEASURE(1.0E-006),#287);
#182=CARTESIAN_POINT('',(28.0000000000001,1.65459599798384E-014,7.59999999999988));
#183=POINT_STYLE(' ',#288,POSITIVE_LENGTH_MEASURE(1.0E-006),#289);
#184=CARTESIAN_POINT('',(-28.0,4.42542114840566E-015,7.59999999999994));
#185=CURVE_STYLE('',#290,POSITIVE_LENGTH_MEASURE(1.0E-006),#291);
#186=LINE('',#292,#293);
#187=POINT_STYLE(' ',#294,POSITIVE_LENGTH_MEASURE(1.0E-006),#295);
#188=CARTESIAN_POINT('',(16.3000000000001,1.27873157439116E-014,11.2));
#189=CURVE_STYLE('',#296,POSITIVE_LENGTH_MEASURE(1.0E-006),#297);
#190=CIRCLE('',#298,41.0000000000001);
#191=SURFACE_STYLE_USAGE(.BOTH.,#299);
#192=FACE_OUTER_BOUND('',#300,.T.);
#193=SPHERICAL_SURFACE('',#301,41.0000000000001);
#194=CURVE_STYLE('',#302,POSITIVE_LENGTH_MEASURE(1.0E-006),#303);
#195=CIRCLE('',#304,15.5);
#196=CURVE_STYLE('',#305,POSITIVE_LENGTH_MEASURE(1.0E-006),#306);
#197=CIRCLE('',#307,28.0);
#198=CURVE_STYLE('',#308,POSITIVE_LENGTH_MEASURE(1.0E-006),#309);
#199=CIRCLE('',#310,16.3);
#200=CURVE_STYLE('',#311,POSITIVE_LENGTH_MEASURE(1.0E-006),#312);
#201=CIRCLE('',#313,15.5);
#202=SURFACE_STYLE_USAGE(.BOTH.,#314);
#203=FACE_OUTER_BOUND('',#315,.T.);
#204=CONICAL_SURFACE('',#316,15.9,0.785398163397448);
#205=CURVE_STYLE('',#317,POSITIVE_LENGTH_MEASURE(1.0E-006),#318);
#206=CIRCLE('',#319,15.5);
#207=CURVE_STYLE('',#320,POSITIVE_LENGTH_MEASURE(1.0E-006),#321);
#208=LINE('',#322,#323);
#209=CURVE_STYLE('',#324,POSITIVE_LENGTH_MEASURE(1.0E-006),#325);
#210=CIRCLE('',#326,16.3);
#211=CURVE_STYLE('',#327,POSITIVE_LENGTH_MEASURE(1.0E-006),#328);
#212=CIRCLE('',#329,28.0);
#213=POINT_STYLE(' ',#330,POSITIVE_LENGTH_MEASURE(1.0E-006),#331);
#214=CARTESIAN_POINT('',(16.4620969014003,1.3720082090972E-014,-2.8421709430404E-014));
#215=SURFACE_STYLE_USAGE(.BOTH.,#332);
#216=CLOSED_SHELL('',(#147,#137,#99,#89,#131,#125,#149,#67,#123,#143));
#217=CURVE_STYLE('',#333,POSITIVE_LENGTH_MEASURE(1.0E-006),#334);
#218=LINE('',#335,#336);
#219=CURVE_STYLE('',#337,POSITIVE_LENGTH_MEASURE(1.0E-006),#338);
#220=LINE('',#339,#340);
#221=POINT_STYLE(' ',#341,POSITIVE_LENGTH_MEASURE(1.0E-006),#342);
#222=CARTESIAN_POINT('',(-28.0,4.64585029209369E-015,11.2));
#223=CURVE_STYLE('',#343,POSITIVE_LENGTH_MEASURE(1.0E-006),#344);
#224=CIRCLE('',#345,28.0);
#225=CURVE_STYLE('',#346,POSITIVE_LENGTH_MEASURE(1.0E-006),#347);
#226=CIRCLE('',#348,41.0000000000001);
#227=SURFACE_STYLE_USAGE(.BOTH.,#349);
#228=FACE_OUTER_BOUND('',#350,.T.);
#229=FACE_BOUND('',#351,.T.);
#230=PLANE('',#352);
#231=SURFACE_STYLE_USAGE(.BOTH.,#353);
#232=FACE_OUTER_BOUND('',#354,.T.);
#233=CONICAL_SURFACE('',#355,15.9,0.785398163397448);
#234=POINT_STYLE(' ',#356,POSITIVE_LENGTH_MEASURE(1.0E-006),#357);
#235=CARTESIAN_POINT('',(15.5000000000001,1.25560240795624E-014,10.3999999999999));
#236=CURVE_STYLE('',#358,POSITIVE_LENGTH_MEASURE(1.0E-006),#359);
#237=LINE('',#360,#361);
#238=SURFACE_STYLE_USAGE(.BOTH.,#362);
#239=FACE_OUTER_BOUND('',#363,.T.);
#240=SPHERICAL_SURFACE('',#364,41.0000000000001);
#241=POINT_STYLE(' ',#365,POSITIVE_LENGTH_MEASURE(1.0E-006),#366);
#242=CARTESIAN_POINT('',(-16.4620969014002,5.37300967838637E-015,-2.8421709430404E-014));
#243=CURVE_STYLE('',#367,POSITIVE_LENGTH_MEASURE(1.0E-006),#368);
#244=CIRCLE('',#369,16.4620969014004);
#245=SURFACE_STYLE_USAGE(.BOTH.,#370);
#246=FACE_OUTER_BOUND('',#371,.T.);
#247=CYLINDRICAL_SURFACE('',#372,28.0);
#248=CURVE_STYLE('',#373,POSITIVE_LENGTH_MEASURE(1.0E-006),#374);
#249=LINE('',#375,#376);
#250=CURVE_STYLE('',#377,POSITIVE_LENGTH_MEASURE(1.0E-006),#378);
#251=CIRCLE('',#379,15.5);
#252=SURFACE_STYLE_USAGE(.BOTH.,#380);
#253=FACE_OUTER_BOUND('',#381,.T.);
#254=CYLINDRICAL_SURFACE('',#382,15.5);
#255=POINT_STYLE(' ',#383,POSITIVE_LENGTH_MEASURE(1.0E-006),#384);
#256=CARTESIAN_POINT('',(-15.5,6.12762398021876E-015,10.3999999999999));
#257=SURFACE_STYLE_USAGE(.BOTH.,#385);
#258=FACE_OUTER_BOUND('',#386,.T.);
#259=CYLINDRICAL_SURFACE('',#387,15.5);
#260=SURFACE_STYLE_USAGE(.BOTH.,#388);
#261=FACE_OUTER_BOUND('',#389,.T.);
#262=FACE_BOUND('',#390,.T.);
#263=PLANE('',#391);
#264=CURVE_STYLE('',#392,POSITIVE_LENGTH_MEASURE(1.0E-006),#393);
#265=CIRCLE('',#394,16.4620969014004);
#266=PRODUCT_CONTEXT('',#53,'mechanical');
#267=PRODUCT_DEFINITION_FORMATION_WITH_SPECIFIED_SOURCE(' ','NONE',#152,.NOT_KNOWN.);
#268=CARTESIAN_POINT('',(0.0,0.0,0.0));
#269=DIRECTION('',(0.0,0.0,1.0));
#270=DIRECTION('',(1.0,0.0,0.0));
#271= (NAMED_UNIT(#160)LENGTH_UNIT()SI_UNIT(.MILLI.,.METRE.));
#272=SURFACE_SIDE_STYLE('',(#396));
#273=EDGE_LOOP('',(#397,#398,#399,#400));
#274=AXIS2_PLACEMENT_3D('',#401,#402,#403);
#275=PRE_DEFINED_MARKER('');
#276=COLOUR_RGB('',0.509803950786591,0.509803950786591,0.588235318660736);
#277=PRE_DEFINED_MARKER('');
#278=COLOUR_RGB('',0.509803950786591,0.509803950786591,0.588235318660736);
#279=PRE_DEFINED_MARKER('');
#280=COLOUR_RGB('',0.509803950786591,0.509803950786591,0.588235318660736);
#281=DRAUGHTING_PRE_DEFINED_CURVE_FONT('continuous');
#282=COLOUR_RGB('',0.509803950786591,0.509803950786591,0.588235318660736);
#283=AXIS2_PLACEMENT_3D('',#404,#405,#406);
#284=PRE_DEFINED_MARKER('');
#285=COLOUR_RGB('',0.509803950786591,0.509803950786591,0.588235318660736);
#286=PRE_DEFINED_MARKER('');
#287=COLOUR_RGB('',0.509803950786591,0.509803950786591,0.588235318660736);
#288=PRE_DEFINED_MARKER('');
#289=COLOUR_RGB('',0.509803950786591,0.509803950786591,0.588235318660736);
#290=DRAUGHTING_PRE_DEFINED_CURVE_FONT('continuous');
#291=COLOUR_RGB('',0.509803950786591,0.509803950786591,0.588235318660736);
#292=CARTESIAN_POINT('',(-15.9,3.47782625385574E-015,10.8));
#293=VECTOR('',#407,1.0);
#294=PRE_DEFINED_MARKER('');
#295=COLOUR_RGB('',0.509803950786591,0.509803950786591,0.588235318660736);
#296=DRAUGHTING_PRE_DEFINED_CURVE_FONT('continuous');
#297=COLOUR_RGB('',0.509803950786591,0.509803950786591,0.588235318660736);
#298=AXIS2_PLACEMENT_3D('',#408,#409,#410);
#299=SURFACE_SIDE_STYLE('',(#411));
#300=EDGE_LOOP('',(#412,#413,#414,#415));
#301=AXIS2_PLACEMENT_3D('',#416,#417,#418);
#302=DRAUGHTING_PRE_DEFINED_CURVE_FONT('continuous');
#303=COLOUR_RGB('',0.509803950786591,0.509803950786591,0.588235318660736);
#304=AXIS2_PLACEMENT_3D('',#419,#420,#421);
#305=DRAUGHTING_PRE_DEFINED_CURVE_FONT('continuous');
#306=COLOUR_RGB('',0.509803950786591,0.509803950786591,0.588235318660736);
#307=AXIS2_PLACEMENT_3D('',#422,#423,#424);
#308=DRAUGHTING_PRE_DEFINED_CURVE_FONT('continuous');
#309=COLOUR_RGB('',0.509803950786591,0.509803950786591,0.588235318660736);
#310=AXIS2_PLACEMENT_3D('',#425,#426,#427);
#311=DRAUGHTING_PRE_DEFINED_CURVE_FONT('continuous');
#312=COLOUR_RGB('',0.509803950786591,0.509803950786591,0.588235318660736);
#313=AXIS2_PLACEMENT_3D('',#428,#429,#430);
#314=SURFACE_SIDE_STYLE('',(#431));
#315=EDGE_LOOP('',(#432,#433,#434,#435));
#316=AXIS2_PLACEMENT_3D('',#436,#437,#438);
#317=DRAUGHTING_PRE_DEFINED_CURVE_FONT('continuous');
#318=COLOUR_RGB('',0.509803950786591,0.509803950786591,0.588235318660736);
#319=AXIS2_PLACEMENT_3D('',#439,#440,#441);
#320=DRAUGHTING_PRE_DEFINED_CURVE_FONT('continuous');
#321=COLOUR_RGB('',0.509803950786591,0.509803950786591,0.588235318660736);
#322=CARTESIAN_POINT('',(15.9000000000001,1.2671669911737E-014,10.8));
#323=VECTOR('',#442,1.0);
#324=DRAUGHTING_PRE_DEFINED_CURVE_FONT('continuous');
#325=COLOUR_RGB('',0.509803950786591,0.509803950786591,0.588235318660736);
#326=AXIS2_PLACEMENT_3D('',#443,#444,#445);
#327=DRAUGHTING_PRE_DEFINED_CURVE_FONT('continuous');
#328=COLOUR_RGB('',0.509803950786591,0.509803950786591,0.588235318660736);
#329=AXIS2_PLACEMENT_3D('',#446,#447,#448);
#330=PRE_DEFINED_MARKER('');
#331=COLOUR_RGB('',0.509803950786591,0.509803950786591,0.588235318660736);
#332=SURFACE_SIDE_STYLE('',(#449));
#333=DRAUGHTING_PRE_DEFINED_CURVE_FONT('continuous');
#334=COLOUR_RGB('',0.509803950786591,0.509803950786591,0.588235318660736);
#335=CARTESIAN_POINT('',(15.5000000000001,1.25560240795623E-014,5.19999999999996));
#336=VECTOR('',#450,1.0);
#337=DRAUGHTING_PRE_DEFINED_CURVE_FONT('continuous');
#338=COLOUR_RGB('',0.509803950786591,0.509803950786591,0.588235318660736);
#339=CARTESIAN_POINT('',(-15.5,3.59347208603034E-015,5.19999999999996));
#340=VECTOR('',#451,1.0);
#341=PRE_DEFINED_MARKER('');
#342=COLOUR_RGB('',0.509803950786591,0.509803950786591,0.588235318660736);
#343=DRAUGHTING_PRE_DEFINED_CURVE_FONT('continuous');
#344=COLOUR_RGB('',0.509803950786591,0.509803950786591,0.588235318660736);
#345=AXIS2_PLACEMENT_3D('',#452,#453,#454);
#346=DRAUGHTING_PRE_DEFINED_CURVE_FONT('continuous');
#347=COLOUR_RGB('',0.509803950786591,0.509803950786591,0.588235318660736);
#348=AXIS2_PLACEMENT_3D('',#455,#456,#457);
#349=SURFACE_SIDE_STYLE('',(#458));
#350=EDGE_LOOP('',(#459,#460));
#351=EDGE_LOOP('',(#461,#462));
#352=AXIS2_PLACEMENT_3D('',#463,#464,#465);
#353=SURFACE_SIDE_STYLE('',(#466));
#354=EDGE_LOOP('',(#467,#468,#469,#470));
#355=AXIS2_PLACEMENT_3D('',#471,#472,#473);
#356=PRE_DEFINED_MARKER('');
#357=COLOUR_RGB('',0.509803950786591,0.509803950786591,0.588235318660736);
#358=DRAUGHTING_PRE_DEFINED_CURVE_FONT('continuous');
#359=COLOUR_RGB('',0.509803950786591,0.509803950786591,0.588235318660736);
#360=CARTESIAN_POINT('',(-28.0,-2.0460169426104E-017,9.39999999999992));
#361=VECTOR('',#474,1.0);
#362=SURFACE_SIDE_STYLE('',(#475));
#363=EDGE_LOOP('',(#476,#477,#478,#479));
#364=AXIS2_PLACEMENT_3D('',#480,#481,#482);
#365=PRE_DEFINED_MARKER('');
#366=COLOUR_RGB('',0.509803950786591,0.509803950786591,0.588235318660736);
#367=DRAUGHTING_PRE_DEFINED_CURVE_FONT('continuous');
#368=COLOUR_RGB('',0.509803950786591,0.509803950786591,0.588235318660736);
#369=AXIS2_PLACEMENT_3D('',#483,#484,#485);
#370=SURFACE_SIDE_STYLE('',(#486));
#371=EDGE_LOOP('',(#487,#488,#489,#490));
#372=AXIS2_PLACEMENT_3D('',#491,#492,#493);
#373=DRAUGHTING_PRE_DEFINED_CURVE_FONT('continuous');
#374=COLOUR_RGB('',0.509803950786591,0.509803950786591,0.588235318660736);
#375=CARTESIAN_POINT('',(28.0000000000001,1.61699563350188E-014,9.39999999999992));
#376=VECTOR('',#494,1.0);
#377=DRAUGHTING_PRE_DEFINED_CURVE_FONT('continuous');
#378=COLOUR_RGB('',0.509803950786591,0.509803950786591,0.588235318660736);
#379=AXIS2_PLACEMENT_3D('',#495,#496,#497);
#380=SURFACE_SIDE_STYLE('',(#498));
#381=EDGE_LOOP('',(#499,#500,#501,#502));
#382=AXIS2_PLACEMENT_3D('',#503,#504,#505);
#383=PRE_DEFINED_MARKER('');
#384=COLOUR_RGB('',0.509803950786591,0.509803950786591,0.588235318660736);
#385=SURFACE_SIDE_STYLE('',(#506));
#386=EDGE_LOOP('',(#507,#508,#509,#510));
#387=AXIS2_PLACEMENT_3D('',#511,#512,#513);
#388=SURFACE_SIDE_STYLE('',(#514));
#389=EDGE_LOOP('',(#515,#516));
#390=EDGE_LOOP('',(#517,#518));
#391=AXIS2_PLACEMENT_3D('',#519,#520,#521);
#392=DRAUGHTING_PRE_DEFINED_CURVE_FONT('continuous');
#393=COLOUR_RGB('',0.509803950786591,0.509803950786591,0.588235318660736);
#394=AXIS2_PLACEMENT_3D('',#522,#523,#524);
#396=SURFACE_STYLE_FILL_AREA(#525);
#397=ORIENTED_EDGE('',*,*,#129,.T.);
#398=ORIENTED_EDGE('',*,*,#107,.T.);
#399=ORIENTED_EDGE('',*,*,#139,.T.);
#400=ORIENTED_EDGE('',*,*,#119,.T.);
#401=CARTESIAN_POINT('',(2.8421709430404E-014,8.07474808279635E-015,5.59999999999997));
#402=DIRECTION('',(0.0,-0.0,1.0));
#403=DIRECTION('',(-1.0,-1.66653945054278E-016,0.0));
#404=CARTESIAN_POINT('',(2.8421709430404E-014,8.07474808279635E-015,7.59999999999988));
#405=DIRECTION('',(0.0,0.0,1.0));
#406=DIRECTION('',(-1.0,-1.66653945054278E-016,0.0));
#407=DIRECTION('',(0.707106781186548,2.04434880366564E-016,-0.707106781186547));
#408=CARTESIAN_POINT('',(-4.2632564145606E-014,9.6881643984331E-015,37.5499582637439));
#409=DIRECTION('',(2.44921270764475E-016,-1.0,0.0));
#410=DIRECTION('',(-0.0,0.0,1.0));
#411=SURFACE_STYLE_FILL_AREA(#526);
#412=ORIENTED_EDGE('',*,*,#121,.F.);
#413=ORIENTED_EDGE('',*,*,#135,.F.);
#414=ORIENTED_EDGE('',*,*,#87,.F.);
#415=ORIENTED_EDGE('',*,*,#75,.F.);
#416=CARTESIAN_POINT('',(-4.2632564145606E-014,9.6881643984331E-015,37.5499582637439));
#417=DIRECTION('',(0.0,0.0,-1.0));
#418=DIRECTION('',(1.0,1.22460635382238E-016,0.0));
#419=CARTESIAN_POINT('',(2.8421709430404E-014,8.07474808279635E-015,10.3999999999999));
#420=DIRECTION('',(-0.0,0.0,-1.0));
#421=DIRECTION('',(-1.0,-1.66653945054278E-016,0.0));
#422=CARTESIAN_POINT('',(2.8421709430404E-014,8.07474808279635E-015,11.2));
#423=DIRECTION('',(-0.0,0.0,-1.0));
#424=DIRECTION('',(-1.0,-1.66653945054278E-016,0.0));
#425=CARTESIAN_POINT('',(2.8421709430404E-014,8.07474808279635E-015,11.2));
#426=DIRECTION('',(-0.0,0.0,-1.0));
#427=DIRECTION('',(-1.0,-1.66653945054278E-016,0.0));
#428=CARTESIAN_POINT('',(2.8421709430404E-014,8.07474808279635E-015,-2.8421709430404E-014));
#429=DIRECTION('',(-0.0,0.0,-1.0));
#430=DIRECTION('',(-1.0,-1.66653945054278E-016,0.0));
#431=SURFACE_STYLE_FILL_AREA(#527);
#432=ORIENTED_EDGE('',*,*,#83,.F.);
#433=ORIENTED_EDGE('',*,*,#95,.F.);
#434=ORIENTED_EDGE('',*,*,#103,.F.);
#435=ORIENTED_EDGE('',*,*,#141,.T.);
#436=CARTESIAN_POINT('',(2.8421709430404E-014,8.07474808279635E-015,10.8));
#437=DIRECTION('',(0.0,-0.0,1.0));
#438=DIRECTION('',(-1.0,-1.66653945054278E-016,0.0));
#439=CARTESIAN_POINT('',(2.8421709430404E-014,8.07474808279635E-015,-2.8421709430404E-014));
#440=DIRECTION('',(-0.0,0.0,-1.0));
#441=DIRECTION('',(-1.0,-1.66653945054278E-016,0.0));
#442=DIRECTION('',(0.707106781186548,2.04434880366564E-016,0.707106781186547));
#443=CARTESIAN_POINT('',(2.8421709430404E-014,8.07474808279635E-015,11.2));
#444=DIRECTION('',(-0.0,0.0,-1.0));
#445=DIRECTION('',(-1.0,-1.66653945054278E-016,0.0));
#446=CARTESIAN_POINT('',(2.8421709430404E-014,8.07474808279635E-015,7.59999999999988));
#447=DIRECTION('',(0.0,0.0,1.0));
#448=DIRECTION('',(-1.0,-1.66653945054278E-016,0.0));
#449=SURFACE_STYLE_FILL_AREA(#528);
#450=DIRECTION('',(0.0,0.0,1.0));
#451=DIRECTION('',(0.0,0.0,-1.0));
#452=CARTESIAN_POINT('',(2.8421709430404E-014,8.07474808279635E-015,11.2));
#453=DIRECTION('',(-0.0,0.0,-1.0));
#454=DIRECTION('',(-1.0,-1.66653945054278E-016,0.0));
#455=CARTESIAN_POINT('',(-4.2632564145606E-014,9.6881643984331E-015,37.5499582637439));
#456=DIRECTION('',(2.44921270764475E-016,-1.0,0.0));
#457=DIRECTION('',(-0.0,0.0,1.0));
#458=SURFACE_STYLE_FILL_AREA(#529);
#459=ORIENTED_EDGE('',*,*,#135,.T.);
#460=ORIENTED_EDGE('',*,*,#151,.T.);
#461=ORIENTED_EDGE('',*,*,#97,.F.);
#462=ORIENTED_EDGE('',*,*,#101,.F.);
#463=CARTESIAN_POINT('',(-21.75,4.72544970509214E-015,-2.8421709430404E-014));
#464=DIRECTION('',(0.0,0.0,-1.0));
#465=DIRECTION('',(1.0,1.22460635382238E-016,0.0));
#466=SURFACE_STYLE_FILL_AREA(#530);
#467=ORIENTED_EDGE('',*,*,#83,.T.);
#468=ORIENTED_EDGE('',*,*,#91,.T.);
#469=ORIENTED_EDGE('',*,*,#103,.T.);
#470=ORIENTED_EDGE('',*,*,#105,.F.);
#471=CARTESIAN_POINT('',(2.8421709430404E-014,8.07474808279635E-015,10.8));
#472=DIRECTION('',(0.0,-0.0,1.0));
#473=DIRECTION('',(-1.0,-1.66653945054278E-016,0.0));
#474=DIRECTION('',(0.0,0.0,-1.0));
#475=SURFACE_STYLE_FILL_AREA(#531);
#476=ORIENTED_EDGE('',*,*,#121,.T.);
#477=ORIENTED_EDGE('',*,*,#107,.F.);
#478=ORIENTED_EDGE('',*,*,#87,.T.);
#479=ORIENTED_EDGE('',*,*,#151,.F.);
#480=CARTESIAN_POINT('',(-4.2632564145606E-014,9.6881643984331E-015,37.5499582637439));
#481=DIRECTION('',(0.0,0.0,-1.0));
#482=DIRECTION('',(1.0,1.22460635382238E-016,0.0));
#483=CARTESIAN_POINT('',(-4.2632564145606E-014,9.6881643984331E-015,-2.8421709430404E-014));
#484=DIRECTION('',(0.0,0.0,-1.0));
#485=DIRECTION('',(0.0,-1.0,0.0));
#486=SURFACE_STYLE_FILL_AREA(#532);
#487=ORIENTED_EDGE('',*,*,#129,.F.);
#488=ORIENTED_EDGE('',*,*,#93,.T.);
#489=ORIENTED_EDGE('',*,*,#139,.F.);
#490=ORIENTED_EDGE('',*,*,#75,.T.);
#491=CARTESIAN_POINT('',(2.8421709430404E-014,8.07474808279635E-015,5.59999999999997));
#492=DIRECTION('',(0.0,-0.0,1.0));
#493=DIRECTION('',(-1.0,-1.66653945054278E-016,0.0));
#494=DIRECTION('',(-0.0,-0.0,1.0));
#495=CARTESIAN_POINT('',(2.8421709430404E-014,8.07474808279635E-015,10.3999999999999));
#496=DIRECTION('',(-0.0,0.0,-1.0));
#497=DIRECTION('',(-1.0,-1.66653945054278E-016,0.0));
#498=SURFACE_STYLE_FILL_AREA(#533);
#499=ORIENTED_EDGE('',*,*,#115,.T.);
#500=ORIENTED_EDGE('',*,*,#97,.T.);
#501=ORIENTED_EDGE('',*,*,#113,.T.);
#502=ORIENTED_EDGE('',*,*,#91,.F.);
#503=CARTESIAN_POINT('',(2.8421709430404E-014,8.07474808279635E-015,5.19999999999996));
#504=DIRECTION('',(0.0,-0.0,1.0));
#505=DIRECTION('',(-1.0,-1.66653945054278E-016,0.0));
#506=SURFACE_STYLE_FILL_AREA(#534);
#507=ORIENTED_EDGE('',*,*,#115,.F.);
#508=ORIENTED_EDGE('',*,*,#141,.F.);
#509=ORIENTED_EDGE('',*,*,#113,.F.);
#510=ORIENTED_EDGE('',*,*,#101,.T.);
#511=CARTESIAN_POINT('',(2.8421709430404E-014,8.07474808279635E-015,5.19999999999996));
#512=DIRECTION('',(0.0,-0.0,1.0));
#513=DIRECTION('',(-1.0,-1.66653945054278E-016,0.0));
#514=SURFACE_STYLE_FILL_AREA(#535);
#515=ORIENTED_EDGE('',*,*,#93,.F.);
#516=ORIENTED_EDGE('',*,*,#119,.F.);
#517=ORIENTED_EDGE('',*,*,#105,.T.);
#518=ORIENTED_EDGE('',*,*,#95,.T.);
#519=CARTESIAN_POINT('',(-22.15,5.36224500907978E-015,11.2));
#520=DIRECTION('',(0.0,0.0,1.0));
#521=DIRECTION('',(-1.0,-1.22460635382238E-016,0.0));
#522=CARTESIAN_POINT('',(-4.2632564145606E-014,9.6881643984331E-015,-2.8421709430404E-014));
#523=DIRECTION('',(0.0,0.0,-1.0));
#524=DIRECTION('',(0.0,-1.0,0.0));
#525=FILL_AREA_STYLE('',(#536));
#526=FILL_AREA_STYLE('',(#537));
#527=FILL_AREA_STYLE('',(#538));
#528=FILL_AREA_STYLE('',(#539));
#529=FILL_AREA_STYLE('',(#540));
#530=FILL_AREA_STYLE('',(#541));
#531=FILL_AREA_STYLE('',(#542));
#532=FILL_AREA_STYLE('',(#543));
#533=FILL_AREA_STYLE('',(#544));
#534=FILL_AREA_STYLE('',(#545));
#535=FILL_AREA_STYLE('',(#546));
#536=FILL_AREA_STYLE_COLOUR('',#547);
#537=FILL_AREA_STYLE_COLOUR('',#548);
#538=FILL_AREA_STYLE_COLOUR('',#549);
#539=FILL_AREA_STYLE_COLOUR('',#550);
#540=FILL_AREA_STYLE_COLOUR('',#551);
#541=FILL_AREA_STYLE_COLOUR('',#552);
#542=FILL_AREA_STYLE_COLOUR('',#553);
#543=FILL_AREA_STYLE_COLOUR('',#554);
#544=FILL_AREA_STYLE_COLOUR('',#555);
#545=FILL_AREA_STYLE_COLOUR('',#556);
#546=FILL_AREA_STYLE_COLOUR('',#557);
#547=COLOUR_RGB('',0.509803950786591,0.509803950786591,0.588235318660736);
#548=COLOUR_RGB('',0.509803950786591,0.509803950786591,0.588235318660736);
#549=COLOUR_RGB('',0.509803950786591,0.509803950786591,0.588235318660736);
#550=COLOUR_RGB('',0.509803950786591,0.509803950786591,0.588235318660736);
#551=COLOUR_RGB('',0.509803950786591,0.509803950786591,0.588235318660736);
#552=COLOUR_RGB('',0.509803950786591,0.509803950786591,0.588235318660736);
#553=COLOUR_RGB('',0.509803950786591,0.509803950786591,0.588235318660736);
#554=COLOUR_RGB('',0.509803950786591,0.509803950786591,0.588235318660736);
#555=COLOUR_RGB('',0.509803950786591,0.509803950786591,0.588235318660736);
#556=COLOUR_RGB('',0.509803950786591,0.509803950786591,0.588235318660736);
#557=COLOUR_RGB('',0.509803950786591,0.509803950786591,0.588235318660736);
ENDSEC;
END-ISO-10303-21;
