ISO-10303-21;
HEADER;
FILE_DESCRIPTION(('STEP AP214'),'1');
FILE_NAME(' ','  ',('TraceParts'),('TraceParts S.A.'),'XStep 1.0',' ',' ');
FILE_SCHEMA(('automotive_design'));
ENDSEC;
DATA;
#1=MECHANICAL_DESIGN_GEOMETRIC_PRESENTATION_REPRESENTATION(' ',(#10,#11,#12,#13,#14,#15,#16,#17,#18,#19,#20,#21,#22,#23,#24,#25,#26,#27,#28,#29,#30,#31,#32,#33,#34,#35,#36,#37,#38,#39,#40,#41,#42,#43,#44,#45,#46,#47,#48,#49,#50,#51,#52),#6);
#2=PRODUCT_DEFINITION_CONTEXT('',#53,'design');
#3=APPLICATION_PROTOCOL_DEFINITION('INTERNATIONAL STANDARD','automotive_design',1994,#53);
#4=PRODUCT_CATEGORY_RELATIONSHIP('NONE','NONE',#54,#55);
#5=SHAPE_DEFINITION_REPRESENTATION(#56,#57);
#6= (GEOMETRIC_REPRESENTATION_CONTEXT(3)GLOBAL_UNCERTAINTY_ASSIGNED_CONTEXT((#60))GLOBAL_UNIT_ASSIGNED_CONTEXT((#62,#63,#64))REPRESENTATION_CONTEXT('NONE','WORKSPACE'));
#10=STYLED_ITEM('',(#66),#67);
#11=STYLED_ITEM('',(#68),#69);
#12=STYLED_ITEM('',(#70),#71);
#13=STYLED_ITEM('',(#72),#73);
#14=STYLED_ITEM('',(#74),#75);
#15=STYLED_ITEM('',(#76),#77);
#16=STYLED_ITEM('',(#78),#79);
#17=STYLED_ITEM('',(#80),#81);
#18=STYLED_ITEM('',(#82),#83);
#19=STYLED_ITEM('',(#84),#85);
#20=STYLED_ITEM('',(#86),#87);
#21=STYLED_ITEM('',(#88),#89);
#22=STYLED_ITEM('',(#90),#91);
#23=STYLED_ITEM('',(#92),#93);
#24=STYLED_ITEM('',(#94),#95);
#25=STYLED_ITEM('',(#96),#97);
#26=STYLED_ITEM('',(#98),#99);
#27=STYLED_ITEM('',(#100),#101);
#28=STYLED_ITEM('',(#102),#103);
#29=STYLED_ITEM('',(#104),#105);
#30=STYLED_ITEM('',(#106),#107);
#31=STYLED_ITEM('',(#108),#109);
#32=STYLED_ITEM('',(#110),#111);
#33=STYLED_ITEM('',(#112),#113);
#34=STYLED_ITEM('',(#114),#115);
#35=STYLED_ITEM('',(#116),#117);
#36=STYLED_ITEM('',(#118),#119);
#37=STYLED_ITEM('',(#120),#121);
#38=STYLED_ITEM('',(#122),#123);
#39=STYLED_ITEM('',(#124),#125);
#40=STYLED_ITEM('',(#126),#127);
#41=STYLED_ITEM('',(#128),#129);
#42=STYLED_ITEM('',(#130),#131);
#43=STYLED_ITEM('',(#132),#133);
#44=STYLED_ITEM('',(#134),#135);
#45=STYLED_ITEM('',(#136),#137);
#46=STYLED_ITEM('',(#138),#139);
#47=STYLED_ITEM('',(#140),#141);
#48=STYLED_ITEM('',(#142),#143);
#49=STYLED_ITEM('',(#144),#145);
#50=STYLED_ITEM('',(#146),#147);
#51=STYLED_ITEM('',(#148),#149);
#52=STYLED_ITEM('',(#150),#151);
#53=APPLICATION_CONTEXT(' ');
#54=PRODUCT_CATEGORY('part','NONE');
#55=PRODUCT_RELATED_PRODUCT_CATEGORY('detail',' ',(#152));
#56=PRODUCT_DEFINITION_SHAPE('NONE','NONE',#153);
#57=ADVANCED_BREP_SHAPE_REPRESENTATION('1',(#129,#154),#6);
#60=UNCERTAINTY_MEASURE_WITH_UNIT(LENGTH_MEASURE(1.0E-006),#62,'','');
#62= (CONVERSION_BASED_UNIT('MILLIMETRE',#157)LENGTH_UNIT()NAMED_UNIT(#160));
#63= (NAMED_UNIT(#162)PLANE_ANGLE_UNIT()SI_UNIT($,.RADIAN.));
#64= (NAMED_UNIT(#162)SOLID_ANGLE_UNIT()SI_UNIT($,.STERADIAN.));
#66=PRESENTATION_STYLE_ASSIGNMENT((#168));
#67=EDGE_CURVE('',#91,#73,#169,.T.);
#68=PRESENTATION_STYLE_ASSIGNMENT((#170));
#69=EDGE_CURVE('',#125,#141,#171,.T.);
#70=PRESENTATION_STYLE_ASSIGNMENT((#172));
#71=VERTEX_POINT('',#173);
#72=PRESENTATION_STYLE_ASSIGNMENT((#174));
#73=VERTEX_POINT('',#175);
#74=PRESENTATION_STYLE_ASSIGNMENT((#176));
#75=ADVANCED_FACE('',(#177),#178,.F.);
#76=PRESENTATION_STYLE_ASSIGNMENT((#179));
#77=EDGE_CURVE('',#85,#149,#180,.T.);
#78=PRESENTATION_STYLE_ASSIGNMENT((#181));
#79=EDGE_CURVE('',#121,#85,#182,.T.);
#80=PRESENTATION_STYLE_ASSIGNMENT((#183));
#81=EDGE_CURVE('',#141,#93,#184,.T.);
#82=PRESENTATION_STYLE_ASSIGNMENT((#185));
#83=ADVANCED_FACE('',(#186),#187,.T.);
#84=PRESENTATION_STYLE_ASSIGNMENT((#188));
#85=VERTEX_POINT('',#189);
#86=PRESENTATION_STYLE_ASSIGNMENT((#190));
#87=EDGE_CURVE('',#121,#103,#191,.T.);
#88=PRESENTATION_STYLE_ASSIGNMENT((#192));
#89=ADVANCED_FACE('',(#193),#194,.F.);
#90=PRESENTATION_STYLE_ASSIGNMENT((#195));
#91=VERTEX_POINT('',#196);
#92=PRESENTATION_STYLE_ASSIGNMENT((#197));
#93=VERTEX_POINT('',#198);
#94=PRESENTATION_STYLE_ASSIGNMENT((#199));
#95=EDGE_CURVE('',#149,#85,#200,.T.);
#96=PRESENTATION_STYLE_ASSIGNMENT((#201));
#97=ADVANCED_FACE('',(#202,#203),#204,.T.);
#98=PRESENTATION_STYLE_ASSIGNMENT((#205));
#99=EDGE_CURVE('',#93,#71,#206,.T.);
#100=PRESENTATION_STYLE_ASSIGNMENT((#207));
#101=EDGE_CURVE('',#143,#137,#208,.T.);
#102=PRESENTATION_STYLE_ASSIGNMENT((#209));
#103=VERTEX_POINT('',#210);
#104=PRESENTATION_STYLE_ASSIGNMENT((#211));
#105=EDGE_CURVE('',#103,#73,#212,.T.);
#106=PRESENTATION_STYLE_ASSIGNMENT((#213));
#107=EDGE_CURVE('',#141,#125,#214,.T.);
#108=PRESENTATION_STYLE_ASSIGNMENT((#215));
#109=EDGE_CURVE('',#71,#125,#216,.T.);
#110=PRESENTATION_STYLE_ASSIGNMENT((#217));
#111=ADVANCED_FACE('',(#218),#219,.T.);
#112=PRESENTATION_STYLE_ASSIGNMENT((#220));
#113=ADVANCED_FACE('',(#221),#222,.F.);
#114=PRESENTATION_STYLE_ASSIGNMENT((#223));
#115=ADVANCED_FACE('',(#224),#225,.T.);
#116=PRESENTATION_STYLE_ASSIGNMENT((#226));
#117=EDGE_CURVE('',#73,#91,#227,.T.);
#118=PRESENTATION_STYLE_ASSIGNMENT((#228));
#119=ADVANCED_FACE('',(#229),#230,.F.);
#120=PRESENTATION_STYLE_ASSIGNMENT((#231));
#121=VERTEX_POINT('',#232);
#122=PRESENTATION_STYLE_ASSIGNMENT((#233));
#123=ADVANCED_FACE('',(#234),#235,.T.);
#124=PRESENTATION_STYLE_ASSIGNMENT((#236));
#125=VERTEX_POINT('',#237);
#126=PRESENTATION_STYLE_ASSIGNMENT((#238));
#127=EDGE_CURVE('',#137,#143,#239,.T.);
#128=PRESENTATION_STYLE_ASSIGNMENT((#240));
#129=MANIFOLD_SOLID_BREP('1',#241);
#130=PRESENTATION_STYLE_ASSIGNMENT((#242));
#131=EDGE_CURVE('',#71,#93,#243,.T.);
#132=PRESENTATION_STYLE_ASSIGNMENT((#244));
#133=EDGE_CURVE('',#91,#121,#245,.T.);
#134=PRESENTATION_STYLE_ASSIGNMENT((#246));
#135=EDGE_CURVE('',#93,#137,#247,.T.);
#136=PRESENTATION_STYLE_ASSIGNMENT((#248));
#137=VERTEX_POINT('',#249);
#138=PRESENTATION_STYLE_ASSIGNMENT((#250));
#139=EDGE_CURVE('',#103,#121,#251,.T.);
#140=PRESENTATION_STYLE_ASSIGNMENT((#252));
#141=VERTEX_POINT('',#253);
#142=PRESENTATION_STYLE_ASSIGNMENT((#254));
#143=VERTEX_POINT('',#255);
#144=PRESENTATION_STYLE_ASSIGNMENT((#256));
#145=ADVANCED_FACE('',(#257,#258),#259,.T.);
#146=PRESENTATION_STYLE_ASSIGNMENT((#260));
#147=EDGE_CURVE('',#143,#71,#261,.T.);
#148=PRESENTATION_STYLE_ASSIGNMENT((#262));
#149=VERTEX_POINT('',#263);
#150=PRESENTATION_STYLE_ASSIGNMENT((#264));
#151=EDGE_CURVE('',#149,#103,#265,.T.);
#152=PRODUCT('1','1','PART-1-DESC',(#266));
#153=PRODUCT_DEFINITION('NONE','NONE',#267,#2);
#154=AXIS2_PLACEMENT_3D('',#268,#269,#270);
#157=LENGTH_MEASURE_WITH_UNIT(LENGTH_MEASURE(1.0),#271);
#160=DIMENSIONAL_EXPONENTS(1.0,0.0,0.0,0.0,0.0,0.0,0.0);
#162=DIMENSIONAL_EXPONENTS(0.0,0.0,0.0,0.0,0.0,0.0,0.0);
#168=CURVE_STYLE('',#272,POSITIVE_LENGTH_MEASURE(1.0E-006),#273);
#169=CIRCLE('',#274,39.0);
#170=CURVE_STYLE('',#275,POSITIVE_LENGTH_MEASURE(1.0E-006),#276);
#171=CIRCLE('',#277,22.5);
#172=POINT_STYLE(' ',#278,POSITIVE_LENGTH_MEASURE(1.0E-006),#279);
#173=CARTESIAN_POINT('',(21.5,1.57273327815341E-014,16.0));
#174=POINT_STYLE(' ',#280,POSITIVE_LENGTH_MEASURE(1.0E-006),#281);
#175=CARTESIAN_POINT('',(39.0,2.08597309172005E-014,17.0));
#176=SURFACE_STYLE_USAGE(.BOTH.,#282);
#177=FACE_OUTER_BOUND('',#283,.T.);
#178=CYLINDRICAL_SURFACE('',#284,21.5);
#179=CURVE_STYLE('',#285,POSITIVE_LENGTH_MEASURE(1.0E-006),#286);
#180=CIRCLE('',#287,22.5658216510294);
#181=CURVE_STYLE('',#288,POSITIVE_LENGTH_MEASURE(1.0E-006),#289);
#182=CIRCLE('',#290,58.0000000000002);
#183=CURVE_STYLE('',#291,POSITIVE_LENGTH_MEASURE(1.0E-006),#292);
#184=LINE('',#293,#294);
#185=SURFACE_STYLE_USAGE(.BOTH.,#295);
#186=FACE_OUTER_BOUND('',#296,.T.);
#187=SPHERICAL_SURFACE('',#297,58.0000000000002);
#188=POINT_STYLE(' ',#298,POSITIVE_LENGTH_MEASURE(1.0E-006),#299);
#189=CARTESIAN_POINT('',(-22.5658216510288,5.6174748139447E-015,-3.5527136788005E-014));
#190=CURVE_STYLE('',#300,POSITIVE_LENGTH_MEASURE(1.0E-006),#301);
#191=CIRCLE('',#302,39.0);
#192=SURFACE_STYLE_USAGE(.BOTH.,#303);
#193=FACE_OUTER_BOUND('',#304,.T.);
#194=CONICAL_SURFACE('',#305,22.0,0.785398163397448);
#195=POINT_STYLE(' ',#306,POSITIVE_LENGTH_MEASURE(1.0E-006),#307);
#196=CARTESIAN_POINT('',(-39.0,4.64585029209369E-015,17.0));
#197=POINT_STYLE(' ',#308,POSITIVE_LENGTH_MEASURE(1.0E-006),#309);
#198=CARTESIAN_POINT('',(-21.5,6.72768109359173E-015,16.0));
#199=CURVE_STYLE('',#310,POSITIVE_LENGTH_MEASURE(1.0E-006),#311);
#200=CIRCLE('',#312,22.5658216510294);
#201=SURFACE_STYLE_USAGE(.BOTH.,#313);
#202=FACE_OUTER_BOUND('',#314,.T.);
#203=FACE_BOUND('',#315,.T.);
#204=PLANE('',#316);
#205=CURVE_STYLE('',#317,POSITIVE_LENGTH_MEASURE(1.0E-006),#318);
#206=CIRCLE('',#319,21.5);
#207=CURVE_STYLE('',#320,POSITIVE_LENGTH_MEASURE(1.0E-006),#321);
#208=CIRCLE('',#322,21.5);
#209=POINT_STYLE(' ',#323,POSITIVE_LENGTH_MEASURE(1.0E-006),#324);
#210=CARTESIAN_POINT('',(39.0,2.12043758737155E-014,10.4999999999999));
#211=CURVE_STYLE('',#325,POSITIVE_LENGTH_MEASURE(1.0E-006),#326);
#212=LINE('',#327,#328);
#213=CURVE_STYLE('',#329,POSITIVE_LENGTH_MEASURE(1.0E-006),#330);
#214=CIRCLE('',#331,22.5);
#215=CURVE_STYLE('',#332,POSITIVE_LENGTH_MEASURE(1.0E-006),#333);
#216=LINE('',#334,#335);
#217=SURFACE_STYLE_USAGE(.BOTH.,#336);
#218=FACE_OUTER_BOUND('',#337,.T.);
#219=CYLINDRICAL_SURFACE('',#338,39.0);
#220=SURFACE_STYLE_USAGE(.BOTH.,#339);
#221=FACE_OUTER_BOUND('',#340,.T.);
#222=CYLINDRICAL_SURFACE('',#341,21.5);
#223=SURFACE_STYLE_USAGE(.BOTH.,#342);
#224=FACE_OUTER_BOUND('',#343,.T.);
#225=SPHERICAL_SURFACE('',#344,58.0000000000002);
#226=CURVE_STYLE('',#345,POSITIVE_LENGTH_MEASURE(1.0E-006),#346);
#227=CIRCLE('',#347,39.0);
#228=SURFACE_STYLE_USAGE(.BOTH.,#348);
#229=FACE_OUTER_BOUND('',#349,.T.);
#230=CONICAL_SURFACE('',#350,22.0,0.785398163397448);
#231=POINT_STYLE(' ',#351,POSITIVE_LENGTH_MEASURE(1.0E-006),#352);
#232=CARTESIAN_POINT('',(-39.0,4.24785322710142E-015,10.5));
#233=SURFACE_STYLE_USAGE(.BOTH.,#353);
#234=FACE_OUTER_BOUND('',#354,.T.);
#235=CYLINDRICAL_SURFACE('',#355,39.0);
#236=POINT_STYLE(' ',#356,POSITIVE_LENGTH_MEASURE(1.0E-006),#357);
#237=CARTESIAN_POINT('',(22.5,1.60206126750007E-014,17.0));
#238=CURVE_STYLE('',#358,POSITIVE_LENGTH_MEASURE(1.0E-006),#359);
#239=CIRCLE('',#360,21.5);
#240=SURFACE_STYLE_USAGE(.BOTH.,#361);
#241=CLOSED_SHELL('',(#113,#123,#119,#115,#83,#89,#145,#111,#97,#75));
#242=CURVE_STYLE('',#362,POSITIVE_LENGTH_MEASURE(1.0E-006),#363);
#243=CIRCLE('',#364,21.5);
#244=CURVE_STYLE('',#365,POSITIVE_LENGTH_MEASURE(1.0E-006),#366);
#245=LINE('',#367,#368);
#246=CURVE_STYLE('',#369,POSITIVE_LENGTH_MEASURE(1.0E-006),#370);
#247=LINE('',#371,#372);
#248=POINT_STYLE(' ',#373,POSITIVE_LENGTH_MEASURE(1.0E-006),#374);
#249=CARTESIAN_POINT('',(-21.5,5.74799601053383E-015,-2.8421709430404E-014));
#250=CURVE_STYLE('',#375,POSITIVE_LENGTH_MEASURE(1.0E-006),#376);
#251=CIRCLE('',#377,39.0);
#252=POINT_STYLE(' ',#378,POSITIVE_LENGTH_MEASURE(1.0E-006),#379);
#253=CARTESIAN_POINT('',(-22.5,6.66645077590061E-015,17.0));
#254=POINT_STYLE(' ',#380,POSITIVE_LENGTH_MEASURE(1.0E-006),#381);
#255=CARTESIAN_POINT('',(21.5,1.5727332781534E-014,-2.8421709430404E-014));
#256=SURFACE_STYLE_USAGE(.BOTH.,#382);
#257=FACE_OUTER_BOUND('',#383,.T.);
#258=FACE_BOUND('',#384,.T.);
#259=PLANE('',#385);
#260=CURVE_STYLE('',#386,POSITIVE_LENGTH_MEASURE(1.0E-006),#387);
#261=LINE('',#388,#389);
#262=POINT_STYLE(' ',#390,POSITIVE_LENGTH_MEASURE(1.0E-006),#391);
#263=CARTESIAN_POINT('',(22.5658216510295,1.71792960285156E-014,-1.4210854715202E-014));
#264=CURVE_STYLE('',#392,POSITIVE_LENGTH_MEASURE(1.0E-006),#393);
#265=CIRCLE('',#394,58.0000000000002);
#266=PRODUCT_CONTEXT('',#53,'mechanical');
#267=PRODUCT_DEFINITION_FORMATION_WITH_SPECIFIED_SOURCE(' ','NONE',#152,.NOT_KNOWN.);
#268=CARTESIAN_POINT('',(0.0,0.0,0.0));
#269=DIRECTION('',(0.0,0.0,1.0));
#270=DIRECTION('',(1.0,0.0,0.0));
#271= (NAMED_UNIT(#160)LENGTH_UNIT()SI_UNIT(.MILLI.,.METRE.));
#272=DRAUGHTING_PRE_DEFINED_CURVE_FONT('continuous');
#273=COLOUR_RGB('',0.509803950786591,0.509803950786591,0.588235318660736);
#274=AXIS2_PLACEMENT_3D('',#396,#397,#398);
#275=DRAUGHTING_PRE_DEFINED_CURVE_FONT('continuous');
#276=COLOUR_RGB('',0.509803950786591,0.509803950786591,0.588235318660736);
#277=AXIS2_PLACEMENT_3D('',#399,#400,#401);
#278=PRE_DEFINED_MARKER('');
#279=COLOUR_RGB('',0.509803950786591,0.509803950786591,0.588235318660736);
#280=PRE_DEFINED_MARKER('');
#281=COLOUR_RGB('',0.509803950786591,0.509803950786591,0.588235318660736);
#282=SURFACE_SIDE_STYLE('',(#402));
#283=EDGE_LOOP('',(#403,#404,#405,#406));
#284=AXIS2_PLACEMENT_3D('',#407,#408,#409);
#285=DRAUGHTING_PRE_DEFINED_CURVE_FONT('continuous');
#286=COLOUR_RGB('',0.509803950786591,0.509803950786591,0.588235318660736);
#287=AXIS2_PLACEMENT_3D('',#410,#411,#412);
#288=DRAUGHTING_PRE_DEFINED_CURVE_FONT('continuous');
#289=COLOUR_RGB('',0.509803950786591,0.509803950786591,0.588235318660736);
#290=AXIS2_PLACEMENT_3D('',#413,#414,#415);
#291=DRAUGHTING_PRE_DEFINED_CURVE_FONT('continuous');
#292=COLOUR_RGB('',0.509803950786591,0.509803950786591,0.588235318660736);
#293=CARTESIAN_POINT('',(-22.0,2.96965741573454E-015,16.5));
#294=VECTOR('',#416,1.0);
#295=SURFACE_SIDE_STYLE('',(#417));
#296=EDGE_LOOP('',(#418,#419,#420,#421));
#297=AXIS2_PLACEMENT_3D('',#422,#423,#424);
#298=PRE_DEFINED_MARKER('');
#299=COLOUR_RGB('',0.509803950786591,0.509803950786591,0.588235318660736);
#300=DRAUGHTING_PRE_DEFINED_CURVE_FONT('continuous');
#301=COLOUR_RGB('',0.509803950786591,0.509803950786591,0.588235318660736);
#302=AXIS2_PLACEMENT_3D('',#425,#426,#427);
#303=SURFACE_SIDE_STYLE('',(#428));
#304=EDGE_LOOP('',(#429,#430,#431,#432));
#305=AXIS2_PLACEMENT_3D('',#433,#434,#435);
#306=PRE_DEFINED_MARKER('');
#307=COLOUR_RGB('',0.509803950786591,0.509803950786591,0.588235318660736);
#308=PRE_DEFINED_MARKER('');
#309=COLOUR_RGB('',0.509803950786591,0.509803950786591,0.588235318660736);
#310=DRAUGHTING_PRE_DEFINED_CURVE_FONT('continuous');
#311=COLOUR_RGB('',0.509803950786591,0.509803950786591,0.588235318660736);
#312=AXIS2_PLACEMENT_3D('',#436,#437,#438);
#313=SURFACE_SIDE_STYLE('',(#439));
#314=EDGE_LOOP('',(#440,#441));
#315=EDGE_LOOP('',(#442,#443));
#316=AXIS2_PLACEMENT_3D('',#444,#445,#446);
#317=DRAUGHTING_PRE_DEFINED_CURVE_FONT('continuous');
#318=COLOUR_RGB('',0.509803950786591,0.509803950786591,0.588235318660736);
#319=AXIS2_PLACEMENT_3D('',#447,#448,#449);
#320=DRAUGHTING_PRE_DEFINED_CURVE_FONT('continuous');
#321=COLOUR_RGB('',0.509803950786591,0.509803950786591,0.588235318660736);
#322=AXIS2_PLACEMENT_3D('',#450,#451,#452);
#323=PRE_DEFINED_MARKER('');
#324=COLOUR_RGB('',0.509803950786591,0.509803950786591,0.588235318660736);
#325=DRAUGHTING_PRE_DEFINED_CURVE_FONT('continuous');
#326=COLOUR_RGB('',0.509803950786591,0.509803950786591,0.588235318660736);
#327=CARTESIAN_POINT('',(39.0,2.08597309172005E-014,13.7499999999999));
#328=VECTOR('',#453,1.0);
#329=DRAUGHTING_PRE_DEFINED_CURVE_FONT('continuous');
#330=COLOUR_RGB('',0.509803950786591,0.509803950786591,0.588235318660736);
#331=AXIS2_PLACEMENT_3D('',#454,#455,#456);
#332=DRAUGHTING_PRE_DEFINED_CURVE_FONT('continuous');
#333=COLOUR_RGB('',0.509803950786591,0.509803950786591,0.588235318660736);
#334=CARTESIAN_POINT('',(22.0,1.58739727282674E-014,16.5));
#335=VECTOR('',#457,1.0);
#336=SURFACE_SIDE_STYLE('',(#458));
#337=EDGE_LOOP('',(#459,#460,#461,#462));
#338=AXIS2_PLACEMENT_3D('',#463,#464,#465);
#339=SURFACE_SIDE_STYLE('',(#466));
#340=EDGE_LOOP('',(#467,#468,#469,#470));
#341=AXIS2_PLACEMENT_3D('',#471,#472,#473);
#342=SURFACE_SIDE_STYLE('',(#474));
#343=EDGE_LOOP('',(#475,#476,#477,#478));
#344=AXIS2_PLACEMENT_3D('',#479,#480,#481);
#345=DRAUGHTING_PRE_DEFINED_CURVE_FONT('continuous');
#346=COLOUR_RGB('',0.509803950786591,0.509803950786591,0.588235318660736);
#347=AXIS2_PLACEMENT_3D('',#482,#483,#484);
#348=SURFACE_SIDE_STYLE('',(#485));
#349=EDGE_LOOP('',(#486,#487,#488,#489));
#350=AXIS2_PLACEMENT_3D('',#490,#491,#492);
#351=PRE_DEFINED_MARKER('');
#352=COLOUR_RGB('',0.509803950786591,0.509803950786591,0.588235318660736);
#353=SURFACE_SIDE_STYLE('',(#493));
#354=EDGE_LOOP('',(#494,#495,#496,#497));
#355=AXIS2_PLACEMENT_3D('',#498,#499,#500);
#356=PRE_DEFINED_MARKER('');
#357=COLOUR_RGB('',0.509803950786591,0.509803950786591,0.588235318660736);
#358=DRAUGHTING_PRE_DEFINED_CURVE_FONT('continuous');
#359=COLOUR_RGB('',0.509803950786591,0.509803950786591,0.588235318660736);
#360=AXIS2_PLACEMENT_3D('',#501,#502,#503);
#361=SURFACE_SIDE_STYLE('',(#504));
#362=DRAUGHTING_PRE_DEFINED_CURVE_FONT('continuous');
#363=COLOUR_RGB('',0.509803950786591,0.509803950786591,0.588235318660736);
#364=AXIS2_PLACEMENT_3D('',#505,#506,#507);
#365=DRAUGHTING_PRE_DEFINED_CURVE_FONT('continuous');
#366=COLOUR_RGB('',0.509803950786591,0.509803950786591,0.588235318660736);
#367=CARTESIAN_POINT('',(-39.0,-2.01610077319859E-015,13.7499999999999));
#368=VECTOR('',#508,1.0);
#369=DRAUGHTING_PRE_DEFINED_CURVE_FONT('continuous');
#370=COLOUR_RGB('',0.509803950786591,0.509803950786591,0.588235318660736);
#371=CARTESIAN_POINT('',(-21.5,3.11629736246787E-015,7.99999999999999));
#372=VECTOR('',#509,1.0);
#373=PRE_DEFINED_MARKER('');
#374=COLOUR_RGB('',0.509803950786591,0.509803950786591,0.588235318660736);
#375=DRAUGHTING_PRE_DEFINED_CURVE_FONT('continuous');
#376=COLOUR_RGB('',0.509803950786591,0.509803950786591,0.588235318660736);
#377=AXIS2_PLACEMENT_3D('',#510,#511,#512);
#378=PRE_DEFINED_MARKER('');
#379=COLOUR_RGB('',0.509803950786591,0.509803950786591,0.588235318660736);
#380=PRE_DEFINED_MARKER('');
#381=COLOUR_RGB('',0.509803950786591,0.509803950786591,0.588235318660736);
#382=SURFACE_SIDE_STYLE('',(#513));
#383=EDGE_LOOP('',(#514,#515));
#384=EDGE_LOOP('',(#516,#517));
#385=AXIS2_PLACEMENT_3D('',#518,#519,#520);
#386=DRAUGHTING_PRE_DEFINED_CURVE_FONT('continuous');
#387=COLOUR_RGB('',0.509803950786591,0.509803950786591,0.588235318660736);
#388=CARTESIAN_POINT('',(21.5,1.5727332781534E-014,7.99999999999999));
#389=VECTOR('',#521,1.0);
#390=PRE_DEFINED_MARKER('');
#391=COLOUR_RGB('',0.509803950786591,0.509803950786591,0.588235318660736);
#392=DRAUGHTING_PRE_DEFINED_CURVE_FONT('continuous');
#393=COLOUR_RGB('',0.509803950786591,0.509803950786591,0.588235318660736);
#394=AXIS2_PLACEMENT_3D('',#522,#523,#524);
#396=CARTESIAN_POINT('',(0.0,9.42181507200096E-015,17.0));
#397=DIRECTION('',(-0.0,0.0,-1.0));
#398=DIRECTION('',(-1.0,-1.70819258084417E-016,0.0));
#399=CARTESIAN_POINT('',(0.0,9.42181507200096E-015,17.0));
#400=DIRECTION('',(-0.0,0.0,-1.0));
#401=DIRECTION('',(-1.0,-1.70819258084417E-016,0.0));
#402=SURFACE_STYLE_FILL_AREA(#525);
#403=ORIENTED_EDGE('',*,*,#135,.T.);
#404=ORIENTED_EDGE('',*,*,#127,.T.);
#405=ORIENTED_EDGE('',*,*,#147,.T.);
#406=ORIENTED_EDGE('',*,*,#99,.F.);
#407=CARTESIAN_POINT('',(0.0,9.42181507200096E-015,7.99999999999999));
#408=DIRECTION('',(0.0,-0.0,1.0));
#409=DIRECTION('',(-1.0,-1.70819258084417E-016,0.0));
#410=CARTESIAN_POINT('',(1.49213974509621E-013,1.1652446313901E-014,-1.4210854715202E-014));
#411=DIRECTION('',(0.0,0.0,-1.0));
#412=DIRECTION('',(0.0,-1.0,0.0));
#413=CARTESIAN_POINT('',(1.49213974509621E-013,1.1652446313901E-014,53.4301758673314));
#414=DIRECTION('',(2.44921270764475E-016,-1.0,0.0));
#415=DIRECTION('',(-0.0,0.0,1.0));
#416=DIRECTION('',(0.707106781186548,2.0738020145594E-016,-0.707106781186547));
#417=SURFACE_STYLE_FILL_AREA(#526);
#418=ORIENTED_EDGE('',*,*,#151,.T.);
#419=ORIENTED_EDGE('',*,*,#87,.F.);
#420=ORIENTED_EDGE('',*,*,#79,.T.);
#421=ORIENTED_EDGE('',*,*,#95,.F.);
#422=CARTESIAN_POINT('',(1.49213974509621E-013,1.1652446313901E-014,53.4301758673314));
#423=DIRECTION('',(0.0,0.0,-1.0));
#424=DIRECTION('',(1.0,1.22460635382238E-016,0.0));
#425=CARTESIAN_POINT('',(0.0,9.42181507200096E-015,10.4999999999999));
#426=DIRECTION('',(0.0,0.0,1.0));
#427=DIRECTION('',(-1.0,-1.70819258084417E-016,0.0));
#428=SURFACE_STYLE_FILL_AREA(#527);
#429=ORIENTED_EDGE('',*,*,#81,.T.);
#430=ORIENTED_EDGE('',*,*,#99,.T.);
#431=ORIENTED_EDGE('',*,*,#109,.T.);
#432=ORIENTED_EDGE('',*,*,#107,.F.);
#433=CARTESIAN_POINT('',(0.0,9.42181507200096E-015,16.5));
#434=DIRECTION('',(0.0,-0.0,1.0));
#435=DIRECTION('',(-1.0,-1.70819258084417E-016,0.0));
#436=CARTESIAN_POINT('',(1.49213974509621E-013,1.1652446313901E-014,-1.4210854715202E-014));
#437=DIRECTION('',(0.0,0.0,-1.0));
#438=DIRECTION('',(0.0,-1.0,0.0));
#439=SURFACE_STYLE_FILL_AREA(#528);
#440=ORIENTED_EDGE('',*,*,#77,.T.);
#441=ORIENTED_EDGE('',*,*,#95,.T.);
#442=ORIENTED_EDGE('',*,*,#127,.F.);
#443=ORIENTED_EDGE('',*,*,#101,.F.);
#444=CARTESIAN_POINT('',(-30.25,4.67646545093925E-015,-1.4210854715202E-014));
#445=DIRECTION('',(0.0,0.0,-1.0));
#446=DIRECTION('',(1.0,1.22460635382238E-016,0.0));
#447=CARTESIAN_POINT('',(0.0,9.42181507200096E-015,16.0));
#448=DIRECTION('',(-0.0,0.0,-1.0));
#449=DIRECTION('',(-1.0,-1.70819258084417E-016,0.0));
#450=CARTESIAN_POINT('',(0.0,9.42181507200096E-015,-2.8421709430404E-014));
#451=DIRECTION('',(-0.0,0.0,-1.0));
#452=DIRECTION('',(-1.0,-1.70819258084417E-016,0.0));
#453=DIRECTION('',(-0.0,-0.0,1.0));
#454=CARTESIAN_POINT('',(0.0,9.42181507200096E-015,17.0));
#455=DIRECTION('',(-0.0,0.0,-1.0));
#456=DIRECTION('',(-1.0,-1.70819258084417E-016,0.0));
#457=DIRECTION('',(0.707106781186548,2.0738020145594E-016,0.707106781186547));
#458=SURFACE_STYLE_FILL_AREA(#529);
#459=ORIENTED_EDGE('',*,*,#133,.T.);
#460=ORIENTED_EDGE('',*,*,#87,.T.);
#461=ORIENTED_EDGE('',*,*,#105,.T.);
#462=ORIENTED_EDGE('',*,*,#117,.T.);
#463=CARTESIAN_POINT('',(0.0,9.42181507200096E-015,8.5));
#464=DIRECTION('',(0.0,-0.0,1.0));
#465=DIRECTION('',(-1.0,-1.70819258084417E-016,0.0));
#466=SURFACE_STYLE_FILL_AREA(#530);
#467=ORIENTED_EDGE('',*,*,#135,.F.);
#468=ORIENTED_EDGE('',*,*,#131,.F.);
#469=ORIENTED_EDGE('',*,*,#147,.F.);
#470=ORIENTED_EDGE('',*,*,#101,.T.);
#471=CARTESIAN_POINT('',(0.0,9.42181507200096E-015,7.99999999999999));
#472=DIRECTION('',(0.0,-0.0,1.0));
#473=DIRECTION('',(-1.0,-1.70819258084417E-016,0.0));
#474=SURFACE_STYLE_FILL_AREA(#531);
#475=ORIENTED_EDGE('',*,*,#151,.F.);
#476=ORIENTED_EDGE('',*,*,#77,.F.);
#477=ORIENTED_EDGE('',*,*,#79,.F.);
#478=ORIENTED_EDGE('',*,*,#139,.F.);
#479=CARTESIAN_POINT('',(1.49213974509621E-013,1.1652446313901E-014,53.4301758673314));
#480=DIRECTION('',(0.0,0.0,-1.0));
#481=DIRECTION('',(1.0,1.22460635382238E-016,0.0));
#482=CARTESIAN_POINT('',(0.0,9.42181507200096E-015,17.0));
#483=DIRECTION('',(-0.0,0.0,-1.0));
#484=DIRECTION('',(-1.0,-1.70819258084417E-016,0.0));
#485=SURFACE_STYLE_FILL_AREA(#532);
#486=ORIENTED_EDGE('',*,*,#81,.F.);
#487=ORIENTED_EDGE('',*,*,#69,.F.);
#488=ORIENTED_EDGE('',*,*,#109,.F.);
#489=ORIENTED_EDGE('',*,*,#131,.T.);
#490=CARTESIAN_POINT('',(0.0,9.42181507200096E-015,16.5));
#491=DIRECTION('',(0.0,-0.0,1.0));
#492=DIRECTION('',(-1.0,-1.70819258084417E-016,0.0));
#493=SURFACE_STYLE_FILL_AREA(#533);
#494=ORIENTED_EDGE('',*,*,#133,.F.);
#495=ORIENTED_EDGE('',*,*,#67,.T.);
#496=ORIENTED_EDGE('',*,*,#105,.F.);
#497=ORIENTED_EDGE('',*,*,#139,.T.);
#498=CARTESIAN_POINT('',(0.0,9.42181507200096E-015,8.5));
#499=DIRECTION('',(0.0,-0.0,1.0));
#500=DIRECTION('',(-1.0,-1.70819258084417E-016,0.0));
#501=CARTESIAN_POINT('',(0.0,9.42181507200096E-015,-2.8421709430404E-014));
#502=DIRECTION('',(-0.0,0.0,-1.0));
#503=DIRECTION('',(-1.0,-1.70819258084417E-016,0.0));
#504=SURFACE_STYLE_FILL_AREA(#534);
#505=CARTESIAN_POINT('',(0.0,9.42181507200096E-015,16.0));
#506=DIRECTION('',(-0.0,0.0,-1.0));
#507=DIRECTION('',(-1.0,-1.70819258084417E-016,0.0));
#508=DIRECTION('',(0.0,0.0,-1.0));
#509=DIRECTION('',(0.0,0.0,-1.0));
#510=CARTESIAN_POINT('',(0.0,9.42181507200096E-015,10.4999999999999));
#511=DIRECTION('',(0.0,0.0,1.0));
#512=DIRECTION('',(-1.0,-1.70819258084417E-016,0.0));
#513=SURFACE_STYLE_FILL_AREA(#535);
#514=ORIENTED_EDGE('',*,*,#67,.F.);
#515=ORIENTED_EDGE('',*,*,#117,.F.);
#516=ORIENTED_EDGE('',*,*,#107,.T.);
#517=ORIENTED_EDGE('',*,*,#69,.T.);
#518=CARTESIAN_POINT('',(-30.75,5.65615053399715E-015,17.0));
#519=DIRECTION('',(0.0,0.0,1.0));
#520=DIRECTION('',(-1.0,-1.22460635382238E-016,0.0));
#521=DIRECTION('',(0.0,0.0,1.0));
#522=CARTESIAN_POINT('',(1.49213974509621E-013,1.1652446313901E-014,53.4301758673314));
#523=DIRECTION('',(2.44921270764475E-016,-1.0,0.0));
#524=DIRECTION('',(-0.0,0.0,1.0));
#525=FILL_AREA_STYLE('',(#536));
#526=FILL_AREA_STYLE('',(#537));
#527=FILL_AREA_STYLE('',(#538));
#528=FILL_AREA_STYLE('',(#539));
#529=FILL_AREA_STYLE('',(#540));
#530=FILL_AREA_STYLE('',(#541));
#531=FILL_AREA_STYLE('',(#542));
#532=FILL_AREA_STYLE('',(#543));
#533=FILL_AREA_STYLE('',(#544));
#534=FILL_AREA_STYLE('',(#545));
#535=FILL_AREA_STYLE('',(#546));
#536=FILL_AREA_STYLE_COLOUR('',#547);
#537=FILL_AREA_STYLE_COLOUR('',#548);
#538=FILL_AREA_STYLE_COLOUR('',#549);
#539=FILL_AREA_STYLE_COLOUR('',#550);
#540=FILL_AREA_STYLE_COLOUR('',#551);
#541=FILL_AREA_STYLE_COLOUR('',#552);
#542=FILL_AREA_STYLE_COLOUR('',#553);
#543=FILL_AREA_STYLE_COLOUR('',#554);
#544=FILL_AREA_STYLE_COLOUR('',#555);
#545=FILL_AREA_STYLE_COLOUR('',#556);
#546=FILL_AREA_STYLE_COLOUR('',#557);
#547=COLOUR_RGB('',0.509803950786591,0.509803950786591,0.588235318660736);
#548=COLOUR_RGB('',0.509803950786591,0.509803950786591,0.588235318660736);
#549=COLOUR_RGB('',0.509803950786591,0.509803950786591,0.588235318660736);
#550=COLOUR_RGB('',0.509803950786591,0.509803950786591,0.588235318660736);
#551=COLOUR_RGB('',0.509803950786591,0.509803950786591,0.588235318660736);
#552=COLOUR_RGB('',0.509803950786591,0.509803950786591,0.588235318660736);
#553=COLOUR_RGB('',0.509803950786591,0.509803950786591,0.588235318660736);
#554=COLOUR_RGB('',0.509803950786591,0.509803950786591,0.588235318660736);
#555=COLOUR_RGB('',0.509803950786591,0.509803950786591,0.588235318660736);
#556=COLOUR_RGB('',0.509803950786591,0.509803950786591,0.588235318660736);
#557=COLOUR_RGB('',0.509803950786591,0.509803950786591,0.588235318660736);
ENDSEC;
END-ISO-10303-21;
