ISO-10303-21;
HEADER;
FILE_DESCRIPTION(('STEP AP214'),'1');
FILE_NAME(' ','  ',('TraceParts'),('TraceParts S.A.'),'XStep 1.0',' ',' ');
FILE_SCHEMA(('automotive_design'));
ENDSEC;
DATA;
#1=MECHANICAL_DESIGN_GEOMETRIC_PRESENTATION_REPRESENTATION(' ',(#10,#11,#12,#13,#14,#15,#16,#17,#18,#19,#20,#21,#22,#23,#24,#25,#26,#27,#28,#29,#30,#31,#32,#33,#34,#35,#36,#37,#38,#39,#40,#41,#42,#43,#44),#6);
#2=PRODUCT_DEFINITION_CONTEXT('',#45,'design');
#3=APPLICATION_PROTOCOL_DEFINITION('INTERNATIONAL STANDARD','automotive_design',1994,#45);
#4=PRODUCT_CATEGORY_RELATIONSHIP('NONE','NONE',#46,#47);
#5=SHAPE_DEFINITION_REPRESENTATION(#48,#49);
#6= (GEOMETRIC_REPRESENTATION_CONTEXT(3)GLOBAL_UNCERTAINTY_ASSIGNED_CONTEXT((#52))GLOBAL_UNIT_ASSIGNED_CONTEXT((#54,#55,#56))REPRESENTATION_CONTEXT('NONE','WORKSPACE'));
#10=STYLED_ITEM('',(#58),#59);
#11=STYLED_ITEM('',(#60),#61);
#12=STYLED_ITEM('',(#62),#63);
#13=STYLED_ITEM('',(#64),#65);
#14=STYLED_ITEM('',(#66),#67);
#15=STYLED_ITEM('',(#68),#69);
#16=STYLED_ITEM('',(#70),#71);
#17=STYLED_ITEM('',(#72),#73);
#18=STYLED_ITEM('',(#74),#75);
#19=STYLED_ITEM('',(#76),#77);
#20=STYLED_ITEM('',(#78),#79);
#21=STYLED_ITEM('',(#80),#81);
#22=STYLED_ITEM('',(#82),#83);
#23=STYLED_ITEM('',(#84),#85);
#24=STYLED_ITEM('',(#86),#87);
#25=STYLED_ITEM('',(#88),#89);
#26=STYLED_ITEM('',(#90),#91);
#27=STYLED_ITEM('',(#92),#93);
#28=STYLED_ITEM('',(#94),#95);
#29=STYLED_ITEM('',(#96),#97);
#30=STYLED_ITEM('',(#98),#99);
#31=STYLED_ITEM('',(#100),#101);
#32=STYLED_ITEM('',(#102),#103);
#33=STYLED_ITEM('',(#104),#105);
#34=STYLED_ITEM('',(#106),#107);
#35=STYLED_ITEM('',(#108),#109);
#36=STYLED_ITEM('',(#110),#111);
#37=STYLED_ITEM('',(#112),#113);
#38=STYLED_ITEM('',(#114),#115);
#39=STYLED_ITEM('',(#116),#117);
#40=STYLED_ITEM('',(#118),#119);
#41=STYLED_ITEM('',(#120),#121);
#42=STYLED_ITEM('',(#122),#123);
#43=STYLED_ITEM('',(#124),#125);
#44=STYLED_ITEM('',(#126),#127);
#45=APPLICATION_CONTEXT(' ');
#46=PRODUCT_CATEGORY('part','NONE');
#47=PRODUCT_RELATED_PRODUCT_CATEGORY('detail',' ',(#128));
#48=PRODUCT_DEFINITION_SHAPE('NONE','NONE',#129);
#49=ADVANCED_BREP_SHAPE_REPRESENTATION('1',(#113,#130),#6);
#52=UNCERTAINTY_MEASURE_WITH_UNIT(LENGTH_MEASURE(1.0E-006),#54,'','');
#54= (CONVERSION_BASED_UNIT('MILLIMETRE',#133)LENGTH_UNIT()NAMED_UNIT(#136));
#55= (NAMED_UNIT(#138)PLANE_ANGLE_UNIT()SI_UNIT($,.RADIAN.));
#56= (NAMED_UNIT(#138)SOLID_ANGLE_UNIT()SI_UNIT($,.STERADIAN.));
#58=PRESENTATION_STYLE_ASSIGNMENT((#144));
#59=ADVANCED_FACE('',(#145,#146),#147,.T.);
#60=PRESENTATION_STYLE_ASSIGNMENT((#148));
#61=EDGE_CURVE('',#81,#103,#149,.T.);
#62=PRESENTATION_STYLE_ASSIGNMENT((#150));
#63=ADVANCED_FACE('',(#151),#152,.F.);
#64=PRESENTATION_STYLE_ASSIGNMENT((#153));
#65=EDGE_CURVE('',#79,#111,#154,.T.);
#66=PRESENTATION_STYLE_ASSIGNMENT((#155));
#67=EDGE_CURVE('',#111,#117,#156,.T.);
#68=PRESENTATION_STYLE_ASSIGNMENT((#157));
#69=EDGE_CURVE('',#123,#93,#158,.T.);
#70=PRESENTATION_STYLE_ASSIGNMENT((#159));
#71=ADVANCED_FACE('',(#160),#161,.T.);
#72=PRESENTATION_STYLE_ASSIGNMENT((#162));
#73=ADVANCED_FACE('',(#163),#164,.F.);
#74=PRESENTATION_STYLE_ASSIGNMENT((#165));
#75=EDGE_CURVE('',#117,#111,#166,.T.);
#76=PRESENTATION_STYLE_ASSIGNMENT((#167));
#77=ADVANCED_FACE('',(#168,#169),#170,.T.);
#78=PRESENTATION_STYLE_ASSIGNMENT((#171));
#79=VERTEX_POINT('',#172);
#80=PRESENTATION_STYLE_ASSIGNMENT((#173));
#81=VERTEX_POINT('',#174);
#82=PRESENTATION_STYLE_ASSIGNMENT((#175));
#83=EDGE_CURVE('',#79,#97,#176,.T.);
#84=PRESENTATION_STYLE_ASSIGNMENT((#177));
#85=EDGE_CURVE('',#97,#79,#178,.T.);
#86=PRESENTATION_STYLE_ASSIGNMENT((#179));
#87=ADVANCED_FACE('',(#180),#181,.F.);
#88=PRESENTATION_STYLE_ASSIGNMENT((#182));
#89=EDGE_CURVE('',#127,#119,#183,.T.);
#90=PRESENTATION_STYLE_ASSIGNMENT((#184));
#91=ADVANCED_FACE('',(#185),#186,.T.);
#92=PRESENTATION_STYLE_ASSIGNMENT((#187));
#93=VERTEX_POINT('',#188);
#94=PRESENTATION_STYLE_ASSIGNMENT((#189));
#95=EDGE_CURVE('',#93,#123,#190,.T.);
#96=PRESENTATION_STYLE_ASSIGNMENT((#191));
#97=VERTEX_POINT('',#192);
#98=PRESENTATION_STYLE_ASSIGNMENT((#193));
#99=EDGE_CURVE('',#123,#119,#194,.T.);
#100=PRESENTATION_STYLE_ASSIGNMENT((#195));
#101=EDGE_CURVE('',#103,#123,#196,.T.);
#102=PRESENTATION_STYLE_ASSIGNMENT((#197));
#103=VERTEX_POINT('',#198);
#104=PRESENTATION_STYLE_ASSIGNMENT((#199));
#105=EDGE_CURVE('',#93,#81,#200,.T.);
#106=PRESENTATION_STYLE_ASSIGNMENT((#201));
#107=EDGE_CURVE('',#117,#97,#202,.T.);
#108=PRESENTATION_STYLE_ASSIGNMENT((#203));
#109=EDGE_CURVE('',#119,#127,#204,.T.);
#110=PRESENTATION_STYLE_ASSIGNMENT((#205));
#111=VERTEX_POINT('',#206);
#112=PRESENTATION_STYLE_ASSIGNMENT((#207));
#113=MANIFOLD_SOLID_BREP('1',#208);
#114=PRESENTATION_STYLE_ASSIGNMENT((#209));
#115=EDGE_CURVE('',#103,#81,#210,.T.);
#116=PRESENTATION_STYLE_ASSIGNMENT((#211));
#117=VERTEX_POINT('',#212);
#118=PRESENTATION_STYLE_ASSIGNMENT((#213));
#119=VERTEX_POINT('',#214);
#120=PRESENTATION_STYLE_ASSIGNMENT((#215));
#121=EDGE_CURVE('',#127,#93,#216,.T.);
#122=PRESENTATION_STYLE_ASSIGNMENT((#217));
#123=VERTEX_POINT('',#218);
#124=PRESENTATION_STYLE_ASSIGNMENT((#219));
#125=ADVANCED_FACE('',(#220),#221,.F.);
#126=PRESENTATION_STYLE_ASSIGNMENT((#222));
#127=VERTEX_POINT('',#223);
#128=PRODUCT('1','1','PART-1-DESC',(#224));
#129=PRODUCT_DEFINITION('NONE','NONE',#225,#2);
#130=AXIS2_PLACEMENT_3D('',#226,#227,#228);
#133=LENGTH_MEASURE_WITH_UNIT(LENGTH_MEASURE(1.0),#229);
#136=DIMENSIONAL_EXPONENTS(1.0,0.0,0.0,0.0,0.0,0.0,0.0);
#138=DIMENSIONAL_EXPONENTS(0.0,0.0,0.0,0.0,0.0,0.0,0.0);
#144=SURFACE_STYLE_USAGE(.BOTH.,#230);
#145=FACE_BOUND('',#231,.T.);
#146=FACE_OUTER_BOUND('',#232,.T.);
#147=PLANE('',#233);
#148=CURVE_STYLE('',#234,POSITIVE_LENGTH_MEASURE(1.0E-006),#235);
#149=CIRCLE('',#236,14.0);
#150=SURFACE_STYLE_USAGE(.BOTH.,#237);
#151=FACE_OUTER_BOUND('',#238,.T.);
#152=CYLINDRICAL_SURFACE('',#239,14.0);
#153=CURVE_STYLE('',#240,POSITIVE_LENGTH_MEASURE(1.0E-006),#241);
#154=LINE('',#242,#243);
#155=CURVE_STYLE('',#244,POSITIVE_LENGTH_MEASURE(1.0E-006),#245);
#156=CIRCLE('',#246,22.0);
#157=CURVE_STYLE('',#247,POSITIVE_LENGTH_MEASURE(1.0E-006),#248);
#158=CIRCLE('',#249,14.0);
#159=SURFACE_STYLE_USAGE(.BOTH.,#250);
#160=FACE_OUTER_BOUND('',#251,.T.);
#161=CYLINDRICAL_SURFACE('',#252,22.0);
#162=SURFACE_STYLE_USAGE(.BOTH.,#253);
#163=FACE_OUTER_BOUND('',#254,.T.);
#164=CONICAL_SURFACE('',#255,16.25,1.04719755119659);
#165=CURVE_STYLE('',#256,POSITIVE_LENGTH_MEASURE(1.0E-006),#257);
#166=CIRCLE('',#258,22.0);
#167=SURFACE_STYLE_USAGE(.BOTH.,#259);
#168=FACE_OUTER_BOUND('',#260,.T.);
#169=FACE_BOUND('',#261,.T.);
#170=PLANE('',#262);
#171=POINT_STYLE(' ',#263,POSITIVE_LENGTH_MEASURE(1.0E-006),#264);
#172=CARTESIAN_POINT('',(-22.0,9.34181981553064E-015,9.49999999999997));
#173=POINT_STYLE(' ',#265,POSITIVE_LENGTH_MEASURE(1.0E-006),#266);
#174=CARTESIAN_POINT('',(-14.0,9.73981688052291E-015,-2.8421709430404E-014));
#175=CURVE_STYLE('',#267,POSITIVE_LENGTH_MEASURE(1.0E-006),#268);
#176=CIRCLE('',#269,22.0);
#177=CURVE_STYLE('',#270,POSITIVE_LENGTH_MEASURE(1.0E-006),#271);
#178=CIRCLE('',#272,22.0);
#179=SURFACE_STYLE_USAGE(.BOTH.,#273);
#180=FACE_OUTER_BOUND('',#274,.T.);
#181=CONICAL_SURFACE('',#275,16.25,1.04719755119659);
#182=CURVE_STYLE('',#276,POSITIVE_LENGTH_MEASURE(1.0E-006),#277);
#183=CIRCLE('',#278,18.5);
#184=SURFACE_STYLE_USAGE(.BOTH.,#279);
#185=FACE_OUTER_BOUND('',#280,.T.);
#186=CYLINDRICAL_SURFACE('',#281,22.0);
#187=POINT_STYLE(' ',#282,POSITIVE_LENGTH_MEASURE(1.0E-006),#283);
#188=CARTESIAN_POINT('',(-14.0,1.01624238667816E-014,6.90192378864663));
#189=CURVE_STYLE('',#284,POSITIVE_LENGTH_MEASURE(1.0E-006),#285);
#190=CIRCLE('',#286,14.0);
#191=POINT_STYLE(' ',#287,POSITIVE_LENGTH_MEASURE(1.0E-006),#288);
#192=CARTESIAN_POINT('',(22.0,1.83374860830723E-014,9.49999999999997));
#193=CURVE_STYLE('',#289,POSITIVE_LENGTH_MEASURE(1.0E-006),#290);
#194=LINE('',#291,#292);
#195=CURVE_STYLE('',#293,POSITIVE_LENGTH_MEASURE(1.0E-006),#294);
#196=LINE('',#295,#296);
#197=POINT_STYLE(' ',#297,POSITIVE_LENGTH_MEASURE(1.0E-006),#298);
#198=CARTESIAN_POINT('',(14.0,1.6046019796115E-014,-2.8421709430404E-014));
#199=CURVE_STYLE('',#299,POSITIVE_LENGTH_MEASURE(1.0E-006),#300);
#200=LINE('',#301,#302);
#201=CURVE_STYLE('',#303,POSITIVE_LENGTH_MEASURE(1.0E-006),#304);
#202=LINE('',#305,#306);
#203=CURVE_STYLE('',#307,POSITIVE_LENGTH_MEASURE(1.0E-006),#308);
#204=CIRCLE('',#309,18.5);
#205=POINT_STYLE(' ',#310,POSITIVE_LENGTH_MEASURE(1.0E-006),#311);
#206=CARTESIAN_POINT('',(-22.0,8.76013179746501E-015,-2.8421709430404E-014));
#207=SURFACE_STYLE_USAGE(.BOTH.,#312);
#208=CLOSED_SHELL('',(#63,#71,#87,#73,#77,#91,#59,#125));
#209=CURVE_STYLE('',#313,POSITIVE_LENGTH_MEASURE(1.0E-006),#314);
#210=CIRCLE('',#315,14.0);
#211=POINT_STYLE(' ',#316,POSITIVE_LENGTH_MEASURE(1.0E-006),#317);
#212=CARTESIAN_POINT('',(22.0,1.83374860830723E-014,-2.8421709430404E-014));
#213=POINT_STYLE(' ',#318,POSITIVE_LENGTH_MEASURE(1.0E-006),#319);
#214=CARTESIAN_POINT('',(18.5,1.73349695825285E-014,9.49999999999997));
#215=CURVE_STYLE('',#320,POSITIVE_LENGTH_MEASURE(1.0E-006),#321);
#216=LINE('',#322,#323);
#217=POINT_STYLE(' ',#324,POSITIVE_LENGTH_MEASURE(1.0E-006),#325);
#218=CARTESIAN_POINT('',(14.0,1.6046019796115E-014,6.90192378864663));
#219=SURFACE_STYLE_USAGE(.BOTH.,#326);
#220=FACE_OUTER_BOUND('',#327,.T.);
#221=CYLINDRICAL_SURFACE('',#328,14.0);
#222=POINT_STYLE(' ',#329,POSITIVE_LENGTH_MEASURE(1.0E-006),#330);
#223=CARTESIAN_POINT('',(-18.5,9.77043203936847E-015,9.49999999999997));
#224=PRODUCT_CONTEXT('',#45,'mechanical');
#225=PRODUCT_DEFINITION_FORMATION_WITH_SPECIFIED_SOURCE(' ','NONE',#128,.NOT_KNOWN.);
#226=CARTESIAN_POINT('',(0.0,0.0,0.0));
#227=DIRECTION('',(0.0,0.0,1.0));
#228=DIRECTION('',(1.0,0.0,0.0));
#229= (NAMED_UNIT(#136)LENGTH_UNIT()SI_UNIT(.MILLI.,.METRE.));
#230=SURFACE_SIDE_STYLE('',(#332));
#231=EDGE_LOOP('',(#333,#334));
#232=EDGE_LOOP('',(#335,#336));
#233=AXIS2_PLACEMENT_3D('',#337,#338,#339);
#234=DRAUGHTING_PRE_DEFINED_CURVE_FONT('continuous');
#235=COLOUR_RGB('',0.509803950786591,0.509803950786591,0.588235318660736);
#236=AXIS2_PLACEMENT_3D('',#340,#341,#342);
#237=SURFACE_SIDE_STYLE('',(#343));
#238=EDGE_LOOP('',(#344,#345,#346,#347));
#239=AXIS2_PLACEMENT_3D('',#348,#349,#350);
#240=DRAUGHTING_PRE_DEFINED_CURVE_FONT('continuous');
#241=COLOUR_RGB('',0.509803950786591,0.509803950786591,0.588235318660736);
#242=CARTESIAN_POINT('',(-22.0,5.73442150480744E-015,4.74999999999997));
#243=VECTOR('',#351,1.0);
#244=DRAUGHTING_PRE_DEFINED_CURVE_FONT('continuous');
#245=COLOUR_RGB('',0.509803950786591,0.509803950786591,0.588235318660736);
#246=AXIS2_PLACEMENT_3D('',#352,#353,#354);
#247=DRAUGHTING_PRE_DEFINED_CURVE_FONT('continuous');
#248=COLOUR_RGB('',0.509803950786591,0.509803950786591,0.588235318660736);
#249=AXIS2_PLACEMENT_3D('',#355,#356,#357);
#250=SURFACE_SIDE_STYLE('',(#358));
#251=EDGE_LOOP('',(#359,#360,#361,#362));
#252=AXIS2_PLACEMENT_3D('',#363,#364,#365);
#253=SURFACE_SIDE_STYLE('',(#366));
#254=EDGE_LOOP('',(#367,#368,#369,#370));
#255=AXIS2_PLACEMENT_3D('',#371,#372,#373);
#256=DRAUGHTING_PRE_DEFINED_CURVE_FONT('continuous');
#257=COLOUR_RGB('',0.509803950786591,0.509803950786591,0.588235318660736);
#258=AXIS2_PLACEMENT_3D('',#374,#375,#376);
#259=SURFACE_SIDE_STYLE('',(#377));
#260=EDGE_LOOP('',(#378,#379));
#261=EDGE_LOOP('',(#380,#381));
#262=AXIS2_PLACEMENT_3D('',#382,#383,#384);
#263=PRE_DEFINED_MARKER('');
#264=COLOUR_RGB('',0.509803950786591,0.509803950786591,0.588235318660736);
#265=PRE_DEFINED_MARKER('');
#266=COLOUR_RGB('',0.509803950786591,0.509803950786591,0.588235318660736);
#267=DRAUGHTING_PRE_DEFINED_CURVE_FONT('continuous');
#268=COLOUR_RGB('',0.509803950786591,0.509803950786591,0.588235318660736);
#269=AXIS2_PLACEMENT_3D('',#385,#386,#387);
#270=DRAUGHTING_PRE_DEFINED_CURVE_FONT('continuous');
#271=COLOUR_RGB('',0.509803950786591,0.509803950786591,0.588235318660736);
#272=AXIS2_PLACEMENT_3D('',#388,#389,#390);
#273=SURFACE_SIDE_STYLE('',(#391));
#274=EDGE_LOOP('',(#392,#393,#394,#395));
#275=AXIS2_PLACEMENT_3D('',#396,#397,#398);
#276=DRAUGHTING_PRE_DEFINED_CURVE_FONT('continuous');
#277=COLOUR_RGB('',0.509803950786591,0.509803950786591,0.588235318660736);
#278=AXIS2_PLACEMENT_3D('',#399,#400,#401);
#279=SURFACE_SIDE_STYLE('',(#402));
#280=EDGE_LOOP('',(#403,#404,#405,#406));
#281=AXIS2_PLACEMENT_3D('',#407,#408,#409);
#282=PRE_DEFINED_MARKER('');
#283=COLOUR_RGB('',0.509803950786591,0.509803950786591,0.588235318660736);
#284=DRAUGHTING_PRE_DEFINED_CURVE_FONT('continuous');
#285=COLOUR_RGB('',0.509803950786591,0.509803950786591,0.588235318660736);
#286=AXIS2_PLACEMENT_3D('',#410,#411,#412);
#287=PRE_DEFINED_MARKER('');
#288=COLOUR_RGB('',0.509803950786591,0.509803950786591,0.588235318660736);
#289=DRAUGHTING_PRE_DEFINED_CURVE_FONT('continuous');
#290=COLOUR_RGB('',0.509803950786591,0.509803950786591,0.588235318660736);
#291=CARTESIAN_POINT('',(16.25,1.66904946893218E-014,8.2009618943233));
#292=VECTOR('',#413,1.0);
#293=DRAUGHTING_PRE_DEFINED_CURVE_FONT('continuous');
#294=COLOUR_RGB('',0.509803950786591,0.509803950786591,0.588235318660736);
#295=CARTESIAN_POINT('',(14.0,1.6046019796115E-014,3.4509618943233));
#296=VECTOR('',#414,1.0);
#297=PRE_DEFINED_MARKER('');
#298=COLOUR_RGB('',0.509803950786591,0.509803950786591,0.588235318660736);
#299=DRAUGHTING_PRE_DEFINED_CURVE_FONT('continuous');
#300=COLOUR_RGB('',0.509803950786591,0.509803950786591,0.588235318660736);
#301=CARTESIAN_POINT('',(-14.0,8.02588779176469E-015,3.4509618943233));
#302=VECTOR('',#415,1.0);
#303=DRAUGHTING_PRE_DEFINED_CURVE_FONT('continuous');
#304=COLOUR_RGB('',0.509803950786591,0.509803950786591,0.588235318660736);
#305=CARTESIAN_POINT('',(22.0,1.83374860830723E-014,4.74999999999997));
#306=VECTOR('',#416,1.0);
#307=DRAUGHTING_PRE_DEFINED_CURVE_FONT('continuous');
#308=COLOUR_RGB('',0.509803950786591,0.509803950786591,0.588235318660736);
#309=AXIS2_PLACEMENT_3D('',#417,#418,#419);
#310=PRE_DEFINED_MARKER('');
#311=COLOUR_RGB('',0.509803950786591,0.509803950786591,0.588235318660736);
#312=SURFACE_SIDE_STYLE('',(#420));
#313=DRAUGHTING_PRE_DEFINED_CURVE_FONT('continuous');
#314=COLOUR_RGB('',0.509803950786591,0.509803950786591,0.588235318660736);
#315=AXIS2_PLACEMENT_3D('',#421,#422,#423);
#316=PRE_DEFINED_MARKER('');
#317=COLOUR_RGB('',0.509803950786591,0.509803950786591,0.588235318660736);
#318=PRE_DEFINED_MARKER('');
#319=COLOUR_RGB('',0.509803950786591,0.509803950786591,0.588235318660736);
#320=DRAUGHTING_PRE_DEFINED_CURVE_FONT('continuous');
#321=COLOUR_RGB('',0.509803950786591,0.509803950786591,0.588235318660736);
#322=CARTESIAN_POINT('',(-16.25,7.38141289855796E-015,8.2009618943233));
#323=VECTOR('',#424,1.0);
#324=PRE_DEFINED_MARKER('');
#325=COLOUR_RGB('',0.509803950786591,0.509803950786591,0.588235318660736);
#326=SURFACE_SIDE_STYLE('',(#425));
#327=EDGE_LOOP('',(#426,#427,#428,#429));
#328=AXIS2_PLACEMENT_3D('',#430,#431,#432);
#329=PRE_DEFINED_MARKER('');
#330=COLOUR_RGB('',0.509803950786591,0.509803950786591,0.588235318660736);
#332=SURFACE_STYLE_FILL_AREA(#433);
#333=ORIENTED_EDGE('',*,*,#61,.F.);
#334=ORIENTED_EDGE('',*,*,#115,.F.);
#335=ORIENTED_EDGE('',*,*,#67,.T.);
#336=ORIENTED_EDGE('',*,*,#75,.T.);
#337=CARTESIAN_POINT('',(-18.0,9.24997433899396E-015,-2.8421709430404E-014));
#338=DIRECTION('',(0.0,0.0,-1.0));
#339=DIRECTION('',(1.0,1.22460635382238E-016,0.0));
#340=CARTESIAN_POINT('',(0.0,1.20359537939399E-014,-2.8421709430404E-014));
#341=DIRECTION('',(-0.0,0.0,-1.0));
#342=DIRECTION('',(-1.0,-1.63972650487418E-016,0.0));
#343=SURFACE_STYLE_FILL_AREA(#434);
#344=ORIENTED_EDGE('',*,*,#105,.F.);
#345=ORIENTED_EDGE('',*,*,#69,.F.);
#346=ORIENTED_EDGE('',*,*,#101,.F.);
#347=ORIENTED_EDGE('',*,*,#115,.T.);
#348=CARTESIAN_POINT('',(0.0,1.20359537939399E-014,3.4509618943233));
#349=DIRECTION('',(0.0,-0.0,1.0));
#350=DIRECTION('',(-1.0,-1.63972650487418E-016,0.0));
#351=DIRECTION('',(0.0,0.0,-1.0));
#352=CARTESIAN_POINT('',(0.0,1.20359537939399E-014,-2.8421709430404E-014));
#353=DIRECTION('',(-0.0,0.0,-1.0));
#354=DIRECTION('',(-1.0,-1.63972650487418E-016,0.0));
#355=CARTESIAN_POINT('',(0.0,1.20359537939399E-014,6.90192378864663));
#356=DIRECTION('',(-0.0,0.0,-1.0));
#357=DIRECTION('',(-1.0,-1.63972650487418E-016,0.0));
#358=SURFACE_STYLE_FILL_AREA(#435);
#359=ORIENTED_EDGE('',*,*,#65,.F.);
#360=ORIENTED_EDGE('',*,*,#83,.T.);
#361=ORIENTED_EDGE('',*,*,#107,.F.);
#362=ORIENTED_EDGE('',*,*,#67,.F.);
#363=CARTESIAN_POINT('',(0.0,1.20359537939399E-014,4.74999999999997));
#364=DIRECTION('',(0.0,-0.0,1.0));
#365=DIRECTION('',(-1.0,-1.63972650487418E-016,0.0));
#366=SURFACE_STYLE_FILL_AREA(#436);
#367=ORIENTED_EDGE('',*,*,#121,.T.);
#368=ORIENTED_EDGE('',*,*,#95,.T.);
#369=ORIENTED_EDGE('',*,*,#99,.T.);
#370=ORIENTED_EDGE('',*,*,#89,.F.);
#371=CARTESIAN_POINT('',(0.0,1.20359537939399E-014,8.2009618943233));
#372=DIRECTION('',(0.0,-0.0,1.0));
#373=DIRECTION('',(-1.0,-1.63972650487418E-016,0.0));
#374=CARTESIAN_POINT('',(0.0,1.20359537939399E-014,-2.8421709430404E-014));
#375=DIRECTION('',(-0.0,0.0,-1.0));
#376=DIRECTION('',(-1.0,-1.63972650487418E-016,0.0));
#377=SURFACE_STYLE_FILL_AREA(#437);
#378=ORIENTED_EDGE('',*,*,#83,.F.);
#379=ORIENTED_EDGE('',*,*,#85,.F.);
#380=ORIENTED_EDGE('',*,*,#89,.T.);
#381=ORIENTED_EDGE('',*,*,#109,.T.);
#382=CARTESIAN_POINT('',(-20.25,9.55612592744956E-015,9.49999999999997));
#383=DIRECTION('',(0.0,0.0,1.0));
#384=DIRECTION('',(-1.0,-1.22460635382238E-016,0.0));
#385=CARTESIAN_POINT('',(0.0,1.20359537939399E-014,9.49999999999997));
#386=DIRECTION('',(-0.0,0.0,-1.0));
#387=DIRECTION('',(-1.0,-1.63972650487418E-016,0.0));
#388=CARTESIAN_POINT('',(0.0,1.20359537939399E-014,9.49999999999997));
#389=DIRECTION('',(-0.0,0.0,-1.0));
#390=DIRECTION('',(-1.0,-1.63972650487418E-016,0.0));
#391=SURFACE_STYLE_FILL_AREA(#438);
#392=ORIENTED_EDGE('',*,*,#121,.F.);
#393=ORIENTED_EDGE('',*,*,#109,.F.);
#394=ORIENTED_EDGE('',*,*,#99,.F.);
#395=ORIENTED_EDGE('',*,*,#69,.T.);
#396=CARTESIAN_POINT('',(0.0,1.20359537939399E-014,8.2009618943233));
#397=DIRECTION('',(0.0,-0.0,1.0));
#398=DIRECTION('',(-1.0,-1.63972650487418E-016,0.0));
#399=CARTESIAN_POINT('',(0.0,1.20359537939399E-014,9.49999999999997));
#400=DIRECTION('',(-0.0,0.0,-1.0));
#401=DIRECTION('',(-1.0,-1.63972650487418E-016,0.0));
#402=SURFACE_STYLE_FILL_AREA(#439);
#403=ORIENTED_EDGE('',*,*,#65,.T.);
#404=ORIENTED_EDGE('',*,*,#75,.F.);
#405=ORIENTED_EDGE('',*,*,#107,.T.);
#406=ORIENTED_EDGE('',*,*,#85,.T.);
#407=CARTESIAN_POINT('',(0.0,1.20359537939399E-014,4.74999999999997));
#408=DIRECTION('',(0.0,-0.0,1.0));
#409=DIRECTION('',(-1.0,-1.63972650487418E-016,0.0));
#410=CARTESIAN_POINT('',(0.0,1.20359537939399E-014,6.90192378864663));
#411=DIRECTION('',(-0.0,0.0,-1.0));
#412=DIRECTION('',(-1.0,-1.63972650487418E-016,0.0));
#413=DIRECTION('',(0.866025403784436,2.48058502052572E-016,0.500000000000004));
#414=DIRECTION('',(0.0,0.0,1.0));
#415=DIRECTION('',(0.0,0.0,-1.0));
#416=DIRECTION('',(-0.0,-0.0,1.0));
#417=CARTESIAN_POINT('',(0.0,1.20359537939399E-014,9.49999999999997));
#418=DIRECTION('',(-0.0,0.0,-1.0));
#419=DIRECTION('',(-1.0,-1.63972650487418E-016,0.0));
#420=SURFACE_STYLE_FILL_AREA(#440);
#421=CARTESIAN_POINT('',(0.0,1.20359537939399E-014,-2.8421709430404E-014));
#422=DIRECTION('',(-0.0,0.0,-1.0));
#423=DIRECTION('',(-1.0,-1.63972650487418E-016,0.0));
#424=DIRECTION('',(0.866025403784436,2.48058502052572E-016,-0.500000000000004));
#425=SURFACE_STYLE_FILL_AREA(#441);
#426=ORIENTED_EDGE('',*,*,#105,.T.);
#427=ORIENTED_EDGE('',*,*,#61,.T.);
#428=ORIENTED_EDGE('',*,*,#101,.T.);
#429=ORIENTED_EDGE('',*,*,#95,.F.);
#430=CARTESIAN_POINT('',(0.0,1.20359537939399E-014,3.4509618943233));
#431=DIRECTION('',(0.0,-0.0,1.0));
#432=DIRECTION('',(-1.0,-1.63972650487418E-016,0.0));
#433=FILL_AREA_STYLE('',(#442));
#434=FILL_AREA_STYLE('',(#443));
#435=FILL_AREA_STYLE('',(#444));
#436=FILL_AREA_STYLE('',(#445));
#437=FILL_AREA_STYLE('',(#446));
#438=FILL_AREA_STYLE('',(#447));
#439=FILL_AREA_STYLE('',(#448));
#440=FILL_AREA_STYLE('',(#449));
#441=FILL_AREA_STYLE('',(#450));
#442=FILL_AREA_STYLE_COLOUR('',#451);
#443=FILL_AREA_STYLE_COLOUR('',#452);
#444=FILL_AREA_STYLE_COLOUR('',#453);
#445=FILL_AREA_STYLE_COLOUR('',#454);
#446=FILL_AREA_STYLE_COLOUR('',#455);
#447=FILL_AREA_STYLE_COLOUR('',#456);
#448=FILL_AREA_STYLE_COLOUR('',#457);
#449=FILL_AREA_STYLE_COLOUR('',#458);
#450=FILL_AREA_STYLE_COLOUR('',#459);
#451=COLOUR_RGB('',0.509803950786591,0.509803950786591,0.588235318660736);
#452=COLOUR_RGB('',0.509803950786591,0.509803950786591,0.588235318660736);
#453=COLOUR_RGB('',0.509803950786591,0.509803950786591,0.588235318660736);
#454=COLOUR_RGB('',0.509803950786591,0.509803950786591,0.588235318660736);
#455=COLOUR_RGB('',0.509803950786591,0.509803950786591,0.588235318660736);
#456=COLOUR_RGB('',0.509803950786591,0.509803950786591,0.588235318660736);
#457=COLOUR_RGB('',0.509803950786591,0.509803950786591,0.588235318660736);
#458=COLOUR_RGB('',0.509803950786591,0.509803950786591,0.588235318660736);
#459=COLOUR_RGB('',0.509803950786591,0.509803950786591,0.588235318660736);
ENDSEC;
END-ISO-10303-21;
