ISO-10303-21;
HEADER;
FILE_DESCRIPTION(('STEP AP214'),'1');
FILE_NAME(' ','  ',('TraceParts'),('TraceParts S.A.'),'XStep 1.0',' ',' ');
FILE_SCHEMA(('automotive_design'));
ENDSEC;
DATA;
#1=MECHANICAL_DESIGN_GEOMETRIC_PRESENTATION_REPRESENTATION(' ',(#10,#11,#12,#13,#14,#15,#16,#17,#18,#19,#20,#21,#22,#23,#24,#25,#26,#27,#28,#29,#30,#31,#32,#33,#34,#35,#36,#37,#38,#39,#40,#41,#42,#43,#44),#6);
#2=PRODUCT_DEFINITION_CONTEXT('',#45,'design');
#3=APPLICATION_PROTOCOL_DEFINITION('INTERNATIONAL STANDARD','automotive_design',1994,#45);
#4=PRODUCT_CATEGORY_RELATIONSHIP('NONE','NONE',#46,#47);
#5=SHAPE_DEFINITION_REPRESENTATION(#48,#49);
#6= (GEOMETRIC_REPRESENTATION_CONTEXT(3)GLOBAL_UNCERTAINTY_ASSIGNED_CONTEXT((#52))GLOBAL_UNIT_ASSIGNED_CONTEXT((#54,#55,#56))REPRESENTATION_CONTEXT('NONE','WORKSPACE'));
#10=STYLED_ITEM('',(#58),#59);
#11=STYLED_ITEM('',(#60),#61);
#12=STYLED_ITEM('',(#62),#63);
#13=STYLED_ITEM('',(#64),#65);
#14=STYLED_ITEM('',(#66),#67);
#15=STYLED_ITEM('',(#68),#69);
#16=STYLED_ITEM('',(#70),#71);
#17=STYLED_ITEM('',(#72),#73);
#18=STYLED_ITEM('',(#74),#75);
#19=STYLED_ITEM('',(#76),#77);
#20=STYLED_ITEM('',(#78),#79);
#21=STYLED_ITEM('',(#80),#81);
#22=STYLED_ITEM('',(#82),#83);
#23=STYLED_ITEM('',(#84),#85);
#24=STYLED_ITEM('',(#86),#87);
#25=STYLED_ITEM('',(#88),#89);
#26=STYLED_ITEM('',(#90),#91);
#27=STYLED_ITEM('',(#92),#93);
#28=STYLED_ITEM('',(#94),#95);
#29=STYLED_ITEM('',(#96),#97);
#30=STYLED_ITEM('',(#98),#99);
#31=STYLED_ITEM('',(#100),#101);
#32=STYLED_ITEM('',(#102),#103);
#33=STYLED_ITEM('',(#104),#105);
#34=STYLED_ITEM('',(#106),#107);
#35=STYLED_ITEM('',(#108),#109);
#36=STYLED_ITEM('',(#110),#111);
#37=STYLED_ITEM('',(#112),#113);
#38=STYLED_ITEM('',(#114),#115);
#39=STYLED_ITEM('',(#116),#117);
#40=STYLED_ITEM('',(#118),#119);
#41=STYLED_ITEM('',(#120),#121);
#42=STYLED_ITEM('',(#122),#123);
#43=STYLED_ITEM('',(#124),#125);
#44=STYLED_ITEM('',(#126),#127);
#45=APPLICATION_CONTEXT(' ');
#46=PRODUCT_CATEGORY('part','NONE');
#47=PRODUCT_RELATED_PRODUCT_CATEGORY('detail',' ',(#128));
#48=PRODUCT_DEFINITION_SHAPE('NONE','NONE',#129);
#49=ADVANCED_BREP_SHAPE_REPRESENTATION('1',(#69,#130),#6);
#52=UNCERTAINTY_MEASURE_WITH_UNIT(LENGTH_MEASURE(1.0E-006),#54,'','');
#54= (CONVERSION_BASED_UNIT('MILLIMETRE',#133)LENGTH_UNIT()NAMED_UNIT(#136));
#55= (NAMED_UNIT(#138)PLANE_ANGLE_UNIT()SI_UNIT($,.RADIAN.));
#56= (NAMED_UNIT(#138)SOLID_ANGLE_UNIT()SI_UNIT($,.STERADIAN.));
#58=PRESENTATION_STYLE_ASSIGNMENT((#144));
#59=EDGE_CURVE('',#97,#111,#145,.T.);
#60=PRESENTATION_STYLE_ASSIGNMENT((#146));
#61=ADVANCED_FACE('',(#147),#148,.T.);
#62=PRESENTATION_STYLE_ASSIGNMENT((#149));
#63=ADVANCED_FACE('',(#150,#151),#152,.T.);
#64=PRESENTATION_STYLE_ASSIGNMENT((#153));
#65=VERTEX_POINT('',#154);
#66=PRESENTATION_STYLE_ASSIGNMENT((#155));
#67=EDGE_CURVE('',#123,#101,#156,.T.);
#68=PRESENTATION_STYLE_ASSIGNMENT((#157));
#69=MANIFOLD_SOLID_BREP('1',#158);
#70=PRESENTATION_STYLE_ASSIGNMENT((#159));
#71=EDGE_CURVE('',#105,#111,#160,.T.);
#72=PRESENTATION_STYLE_ASSIGNMENT((#161));
#73=ADVANCED_FACE('',(#162),#163,.F.);
#74=PRESENTATION_STYLE_ASSIGNMENT((#164));
#75=ADVANCED_FACE('',(#165),#166,.F.);
#76=PRESENTATION_STYLE_ASSIGNMENT((#167));
#77=ADVANCED_FACE('',(#168,#169),#170,.T.);
#78=PRESENTATION_STYLE_ASSIGNMENT((#171));
#79=EDGE_CURVE('',#97,#117,#172,.T.);
#80=PRESENTATION_STYLE_ASSIGNMENT((#173));
#81=EDGE_CURVE('',#65,#123,#174,.T.);
#82=PRESENTATION_STYLE_ASSIGNMENT((#175));
#83=EDGE_CURVE('',#117,#97,#176,.T.);
#84=PRESENTATION_STYLE_ASSIGNMENT((#177));
#85=EDGE_CURVE('',#111,#105,#178,.T.);
#86=PRESENTATION_STYLE_ASSIGNMENT((#179));
#87=EDGE_CURVE('',#113,#109,#180,.T.);
#88=PRESENTATION_STYLE_ASSIGNMENT((#181));
#89=EDGE_CURVE('',#105,#117,#182,.T.);
#90=PRESENTATION_STYLE_ASSIGNMENT((#183));
#91=EDGE_CURVE('',#65,#115,#184,.T.);
#92=PRESENTATION_STYLE_ASSIGNMENT((#185));
#93=EDGE_CURVE('',#101,#115,#186,.T.);
#94=PRESENTATION_STYLE_ASSIGNMENT((#187));
#95=ADVANCED_FACE('',(#188),#189,.F.);
#96=PRESENTATION_STYLE_ASSIGNMENT((#190));
#97=VERTEX_POINT('',#191);
#98=PRESENTATION_STYLE_ASSIGNMENT((#192));
#99=EDGE_CURVE('',#115,#109,#193,.T.);
#100=PRESENTATION_STYLE_ASSIGNMENT((#194));
#101=VERTEX_POINT('',#195);
#102=PRESENTATION_STYLE_ASSIGNMENT((#196));
#103=EDGE_CURVE('',#101,#123,#197,.T.);
#104=PRESENTATION_STYLE_ASSIGNMENT((#198));
#105=VERTEX_POINT('',#199);
#106=PRESENTATION_STYLE_ASSIGNMENT((#200));
#107=EDGE_CURVE('',#109,#113,#201,.T.);
#108=PRESENTATION_STYLE_ASSIGNMENT((#202));
#109=VERTEX_POINT('',#203);
#110=PRESENTATION_STYLE_ASSIGNMENT((#204));
#111=VERTEX_POINT('',#205);
#112=PRESENTATION_STYLE_ASSIGNMENT((#206));
#113=VERTEX_POINT('',#207);
#114=PRESENTATION_STYLE_ASSIGNMENT((#208));
#115=VERTEX_POINT('',#209);
#116=PRESENTATION_STYLE_ASSIGNMENT((#210));
#117=VERTEX_POINT('',#211);
#118=PRESENTATION_STYLE_ASSIGNMENT((#212));
#119=ADVANCED_FACE('',(#213),#214,.T.);
#120=PRESENTATION_STYLE_ASSIGNMENT((#215));
#121=ADVANCED_FACE('',(#216),#217,.F.);
#122=PRESENTATION_STYLE_ASSIGNMENT((#218));
#123=VERTEX_POINT('',#219);
#124=PRESENTATION_STYLE_ASSIGNMENT((#220));
#125=EDGE_CURVE('',#113,#65,#221,.T.);
#126=PRESENTATION_STYLE_ASSIGNMENT((#222));
#127=EDGE_CURVE('',#115,#65,#223,.T.);
#128=PRODUCT('1','1','PART-1-DESC',(#224));
#129=PRODUCT_DEFINITION('NONE','NONE',#225,#2);
#130=AXIS2_PLACEMENT_3D('',#226,#227,#228);
#133=LENGTH_MEASURE_WITH_UNIT(LENGTH_MEASURE(1.0),#229);
#136=DIMENSIONAL_EXPONENTS(1.0,0.0,0.0,0.0,0.0,0.0,0.0);
#138=DIMENSIONAL_EXPONENTS(0.0,0.0,0.0,0.0,0.0,0.0,0.0);
#144=CURVE_STYLE('',#230,POSITIVE_LENGTH_MEASURE(1.0E-006),#231);
#145=LINE('',#232,#233);
#146=SURFACE_STYLE_USAGE(.BOTH.,#234);
#147=FACE_OUTER_BOUND('',#235,.T.);
#148=CYLINDRICAL_SURFACE('',#236,46.0);
#149=SURFACE_STYLE_USAGE(.BOTH.,#237);
#150=FACE_BOUND('',#238,.T.);
#151=FACE_OUTER_BOUND('',#239,.T.);
#152=PLANE('',#240);
#153=POINT_STYLE(' ',#241,POSITIVE_LENGTH_MEASURE(1.0E-006),#242);
#154=CARTESIAN_POINT('',(-28.0,9.55578588491299E-015,14.4944465005347));
#155=CURVE_STYLE('',#243,POSITIVE_LENGTH_MEASURE(1.0E-006),#244);
#156=CIRCLE('',#245,28.0);
#157=SURFACE_STYLE_USAGE(.BOTH.,#246);
#158=CLOSED_SHELL('',(#121,#119,#73,#75,#77,#61,#63,#95));
#159=CURVE_STYLE('',#247,POSITIVE_LENGTH_MEASURE(1.0E-006),#248);
#160=CIRCLE('',#249,46.0);
#161=SURFACE_STYLE_USAGE(.BOTH.,#250);
#162=FACE_OUTER_BOUND('',#251,.T.);
#163=CONICAL_SURFACE('',#252,34.5,1.04719755119659);
#164=SURFACE_STYLE_USAGE(.BOTH.,#253);
#165=FACE_OUTER_BOUND('',#254,.T.);
#166=CONICAL_SURFACE('',#255,34.5,1.04719755119659);
#167=SURFACE_STYLE_USAGE(.BOTH.,#256);
#168=FACE_OUTER_BOUND('',#257,.T.);
#169=FACE_BOUND('',#258,.T.);
#170=PLANE('',#259);
#171=CURVE_STYLE('',#260,POSITIVE_LENGTH_MEASURE(1.0E-006),#261);
#172=CIRCLE('',#262,46.0);
#173=CURVE_STYLE('',#263,POSITIVE_LENGTH_MEASURE(1.0E-006),#264);
#174=LINE('',#265,#266);
#175=CURVE_STYLE('',#267,POSITIVE_LENGTH_MEASURE(1.0E-006),#268);
#176=CIRCLE('',#269,46.0);
#177=CURVE_STYLE('',#270,POSITIVE_LENGTH_MEASURE(1.0E-006),#271);
#178=CIRCLE('',#272,46.0);
#179=CURVE_STYLE('',#273,POSITIVE_LENGTH_MEASURE(1.0E-006),#274);
#180=CIRCLE('',#275,41.0);
#181=CURVE_STYLE('',#276,POSITIVE_LENGTH_MEASURE(1.0E-006),#277);
#182=LINE('',#278,#279);
#183=CURVE_STYLE('',#280,POSITIVE_LENGTH_MEASURE(1.0E-006),#281);
#184=CIRCLE('',#282,28.0);
#185=CURVE_STYLE('',#283,POSITIVE_LENGTH_MEASURE(1.0E-006),#284);
#186=LINE('',#285,#286);
#187=SURFACE_STYLE_USAGE(.BOTH.,#287);
#188=FACE_OUTER_BOUND('',#288,.T.);
#189=CYLINDRICAL_SURFACE('',#289,28.0);
#190=POINT_STYLE(' ',#290,POSITIVE_LENGTH_MEASURE(1.0E-006),#291);
#191=CARTESIAN_POINT('',(-46.0,7.81106187325266E-015,22.0));
#192=CURVE_STYLE('',#292,POSITIVE_LENGTH_MEASURE(1.0E-006),#293);
#193=LINE('',#294,#295);
#194=POINT_STYLE(' ',#296,POSITIVE_LENGTH_MEASURE(1.0E-006),#297);
#195=CARTESIAN_POINT('',(28.0,2.16480220469818E-014,-2.8421709430404E-014));
#196=CURVE_STYLE('',#298,POSITIVE_LENGTH_MEASURE(1.0E-006),#299);
#197=CIRCLE('',#300,28.0);
#198=POINT_STYLE(' ',#301,POSITIVE_LENGTH_MEASURE(1.0E-006),#302);
#199=CARTESIAN_POINT('',(46.0,2.69218747980758E-014,-2.8421709430404E-014));
#200=CURVE_STYLE('',#303,POSITIVE_LENGTH_MEASURE(1.0E-006),#304);
#201=CIRCLE('',#305,41.0);
#202=POINT_STYLE(' ',#306,POSITIVE_LENGTH_MEASURE(1.0E-006),#307);
#203=CARTESIAN_POINT('',(41.0,2.54569157005497E-014,22.0));
#204=POINT_STYLE(' ',#308,POSITIVE_LENGTH_MEASURE(1.0E-006),#309);
#205=CARTESIAN_POINT('',(-46.0,6.46399488404805E-015,-2.8421709430404E-014));
#206=POINT_STYLE(' ',#310,POSITIVE_LENGTH_MEASURE(1.0E-006),#311);
#207=CARTESIAN_POINT('',(-41.0,8.42336505016385E-015,22.0));
#208=POINT_STYLE(' ',#312,POSITIVE_LENGTH_MEASURE(1.0E-006),#313);
#209=CARTESIAN_POINT('',(28.0,2.16480220469818E-014,14.4944465005347));
#210=POINT_STYLE(' ',#314,POSITIVE_LENGTH_MEASURE(1.0E-006),#315);
#211=CARTESIAN_POINT('',(46.0,2.69218747980758E-014,22.0));
#212=SURFACE_STYLE_USAGE(.BOTH.,#316);
#213=FACE_OUTER_BOUND('',#317,.T.);
#214=CYLINDRICAL_SURFACE('',#318,46.0);
#215=SURFACE_STYLE_USAGE(.BOTH.,#319);
#216=FACE_OUTER_BOUND('',#320,.T.);
#217=CYLINDRICAL_SURFACE('',#321,28.0);
#218=POINT_STYLE(' ',#322,POSITIVE_LENGTH_MEASURE(1.0E-006),#323);
#219=CARTESIAN_POINT('',(-28.0,8.66828632092833E-015,-2.8421709430404E-014));
#220=CURVE_STYLE('',#324,POSITIVE_LENGTH_MEASURE(1.0E-006),#325);
#221=LINE('',#326,#327);
#222=CURVE_STYLE('',#328,POSITIVE_LENGTH_MEASURE(1.0E-006),#329);
#223=CIRCLE('',#330,28.0);
#224=PRODUCT_CONTEXT('',#45,'mechanical');
#225=PRODUCT_DEFINITION_FORMATION_WITH_SPECIFIED_SOURCE(' ','NONE',#128,.NOT_KNOWN.);
#226=CARTESIAN_POINT('',(0.0,0.0,0.0));
#227=DIRECTION('',(0.0,0.0,1.0));
#228=DIRECTION('',(1.0,0.0,0.0));
#229= (NAMED_UNIT(#136)LENGTH_UNIT()SI_UNIT(.MILLI.,.METRE.));
#230=DRAUGHTING_PRE_DEFINED_CURVE_FONT('continuous');
#231=COLOUR_RGB('',0.509803950786591,0.509803950786591,0.588235318660736);
#232=CARTESIAN_POINT('',(-46.0,-3.33725964046271E-017,11.0));
#233=VECTOR('',#332,1.0);
#234=SURFACE_SIDE_STYLE('',(#333));
#235=EDGE_LOOP('',(#334,#335,#336,#337));
#236=AXIS2_PLACEMENT_3D('',#338,#339,#340);
#237=SURFACE_SIDE_STYLE('',(#341));
#238=EDGE_LOOP('',(#342,#343));
#239=EDGE_LOOP('',(#344,#345));
#240=AXIS2_PLACEMENT_3D('',#346,#347,#348);
#241=PRE_DEFINED_MARKER('');
#242=COLOUR_RGB('',0.509803950786591,0.509803950786591,0.588235318660736);
#243=DRAUGHTING_PRE_DEFINED_CURVE_FONT('continuous');
#244=COLOUR_RGB('',0.509803950786591,0.509803950786591,0.588235318660736);
#245=AXIS2_PLACEMENT_3D('',#349,#350,#351);
#246=SURFACE_SIDE_STYLE('',(#352));
#247=DRAUGHTING_PRE_DEFINED_CURVE_FONT('continuous');
#248=COLOUR_RGB('',0.509803950786591,0.509803950786591,0.588235318660736);
#249=AXIS2_PLACEMENT_3D('',#353,#354,#355);
#250=SURFACE_SIDE_STYLE('',(#356));
#251=EDGE_LOOP('',(#357,#358,#359,#360));
#252=AXIS2_PLACEMENT_3D('',#361,#362,#363);
#253=SURFACE_SIDE_STYLE('',(#364));
#254=EDGE_LOOP('',(#365,#366,#367,#368));
#255=AXIS2_PLACEMENT_3D('',#369,#370,#371);
#256=SURFACE_SIDE_STYLE('',(#372));
#257=EDGE_LOOP('',(#373,#374));
#258=EDGE_LOOP('',(#375,#376));
#259=AXIS2_PLACEMENT_3D('',#377,#378,#379);
#260=DRAUGHTING_PRE_DEFINED_CURVE_FONT('continuous');
#261=COLOUR_RGB('',0.509803950786591,0.509803950786591,0.588235318660736);
#262=AXIS2_PLACEMENT_3D('',#380,#381,#382);
#263=DRAUGHTING_PRE_DEFINED_CURVE_FONT('continuous');
#264=COLOUR_RGB('',0.509803950786591,0.509803950786591,0.588235318660736);
#265=CARTESIAN_POINT('',(-28.0,5.24048015468937E-015,7.24722325026734));
#266=VECTOR('',#383,1.0);
#267=DRAUGHTING_PRE_DEFINED_CURVE_FONT('continuous');
#268=COLOUR_RGB('',0.509803950786591,0.509803950786591,0.588235318660736);
#269=AXIS2_PLACEMENT_3D('',#384,#385,#386);
#270=DRAUGHTING_PRE_DEFINED_CURVE_FONT('continuous');
#271=COLOUR_RGB('',0.509803950786591,0.509803950786591,0.588235318660736);
#272=AXIS2_PLACEMENT_3D('',#387,#388,#389);
#273=DRAUGHTING_PRE_DEFINED_CURVE_FONT('continuous');
#274=COLOUR_RGB('',0.509803950786591,0.509803950786591,0.588235318660736);
#275=AXIS2_PLACEMENT_3D('',#390,#391,#392);
#276=DRAUGHTING_PRE_DEFINED_CURVE_FONT('continuous');
#277=COLOUR_RGB('',0.509803950786591,0.509803950786591,0.588235318660736);
#278=CARTESIAN_POINT('',(46.0,2.69218747980758E-014,11.0));
#279=VECTOR('',#393,1.0);
#280=DRAUGHTING_PRE_DEFINED_CURVE_FONT('continuous');
#281=COLOUR_RGB('',0.509803950786591,0.509803950786591,0.588235318660736);
#282=AXIS2_PLACEMENT_3D('',#394,#395,#396);
#283=DRAUGHTING_PRE_DEFINED_CURVE_FONT('continuous');
#284=COLOUR_RGB('',0.509803950786591,0.509803950786591,0.588235318660736);
#285=CARTESIAN_POINT('',(28.0,2.16480220469818E-014,7.24722325026734));
#286=VECTOR('',#397,1.0);
#287=SURFACE_SIDE_STYLE('',(#398));
#288=EDGE_LOOP('',(#399,#400,#401,#402));
#289=AXIS2_PLACEMENT_3D('',#403,#404,#405);
#290=PRE_DEFINED_MARKER('');
#291=COLOUR_RGB('',0.509803950786591,0.509803950786591,0.588235318660736);
#292=DRAUGHTING_PRE_DEFINED_CURVE_FONT('continuous');
#293=COLOUR_RGB('',0.509803950786591,0.509803950786591,0.588235318660736);
#294=CARTESIAN_POINT('',(34.5,2.35524688737658E-014,18.2472232502673));
#295=VECTOR('',#406,1.0);
#296=PRE_DEFINED_MARKER('');
#297=COLOUR_RGB('',0.509803950786591,0.509803950786591,0.588235318660736);
#298=DRAUGHTING_PRE_DEFINED_CURVE_FONT('continuous');
#299=COLOUR_RGB('',0.509803950786591,0.509803950786591,0.588235318660736);
#300=AXIS2_PLACEMENT_3D('',#407,#408,#409);
#301=PRE_DEFINED_MARKER('');
#302=COLOUR_RGB('',0.509803950786591,0.509803950786591,0.588235318660736);
#303=DRAUGHTING_PRE_DEFINED_CURVE_FONT('continuous');
#304=COLOUR_RGB('',0.509803950786591,0.509803950786591,0.588235318660736);
#305=AXIS2_PLACEMENT_3D('',#410,#411,#412);
#306=PRE_DEFINED_MARKER('');
#307=COLOUR_RGB('',0.509803950786591,0.509803950786591,0.588235318660736);
#308=PRE_DEFINED_MARKER('');
#309=COLOUR_RGB('',0.509803950786591,0.509803950786591,0.588235318660736);
#310=PRE_DEFINED_MARKER('');
#311=COLOUR_RGB('',0.509803950786591,0.509803950786591,0.588235318660736);
#312=PRE_DEFINED_MARKER('');
#313=COLOUR_RGB('',0.509803950786591,0.509803950786591,0.588235318660736);
#314=PRE_DEFINED_MARKER('');
#315=COLOUR_RGB('',0.509803950786591,0.509803950786591,0.588235318660736);
#316=SURFACE_SIDE_STYLE('',(#413));
#317=EDGE_LOOP('',(#414,#415,#416,#417));
#318=AXIS2_PLACEMENT_3D('',#418,#419,#420);
#319=SURFACE_SIDE_STYLE('',(#421));
#320=EDGE_LOOP('',(#422,#423,#424,#425));
#321=AXIS2_PLACEMENT_3D('',#426,#427,#428);
#322=PRE_DEFINED_MARKER('');
#323=COLOUR_RGB('',0.509803950786591,0.509803950786591,0.588235318660736);
#324=DRAUGHTING_PRE_DEFINED_CURVE_FONT('continuous');
#325=COLOUR_RGB('',0.509803950786591,0.509803950786591,0.588235318660736);
#326=CARTESIAN_POINT('',(-34.5,3.33603332790542E-015,18.2472232502673));
#327=VECTOR('',#429,1.0);
#328=DRAUGHTING_PRE_DEFINED_CURVE_FONT('continuous');
#329=COLOUR_RGB('',0.509803950786591,0.509803950786591,0.588235318660736);
#330=AXIS2_PLACEMENT_3D('',#430,#431,#432);
#332=DIRECTION('',(0.0,0.0,-1.0));
#333=SURFACE_STYLE_FILL_AREA(#433);
#334=ORIENTED_EDGE('',*,*,#59,.T.);
#335=ORIENTED_EDGE('',*,*,#71,.F.);
#336=ORIENTED_EDGE('',*,*,#89,.T.);
#337=ORIENTED_EDGE('',*,*,#83,.T.);
#338=CARTESIAN_POINT('',(0.0,1.34442511008356E-014,11.0));
#339=DIRECTION('',(0.0,-0.0,1.0));
#340=DIRECTION('',(-1.0,-1.70531184122985E-016,0.0));
#341=SURFACE_STYLE_FILL_AREA(#434);
#342=ORIENTED_EDGE('',*,*,#67,.F.);
#343=ORIENTED_EDGE('',*,*,#103,.F.);
#344=ORIENTED_EDGE('',*,*,#85,.T.);
#345=ORIENTED_EDGE('',*,*,#71,.T.);
#346=CARTESIAN_POINT('',(-37.0,7.56614060248819E-015,-2.8421709430404E-014));
#347=DIRECTION('',(0.0,0.0,-1.0));
#348=DIRECTION('',(1.0,1.22460635382238E-016,0.0));
#349=CARTESIAN_POINT('',(0.0,1.34442511008356E-014,-2.8421709430404E-014));
#350=DIRECTION('',(-0.0,0.0,-1.0));
#351=DIRECTION('',(-1.0,-1.70531184122985E-016,0.0));
#352=SURFACE_STYLE_FILL_AREA(#435);
#353=CARTESIAN_POINT('',(0.0,1.34442511008356E-014,-2.8421709430404E-014));
#354=DIRECTION('',(-0.0,0.0,-1.0));
#355=DIRECTION('',(-1.0,-1.70531184122985E-016,0.0));
#356=SURFACE_STYLE_FILL_AREA(#436);
#357=ORIENTED_EDGE('',*,*,#125,.F.);
#358=ORIENTED_EDGE('',*,*,#107,.F.);
#359=ORIENTED_EDGE('',*,*,#99,.F.);
#360=ORIENTED_EDGE('',*,*,#127,.T.);
#361=CARTESIAN_POINT('',(0.0,1.34442511008356E-014,18.2472232502673));
#362=DIRECTION('',(0.0,-0.0,1.0));
#363=DIRECTION('',(-1.0,-1.70531184122985E-016,0.0));
#364=SURFACE_STYLE_FILL_AREA(#437);
#365=ORIENTED_EDGE('',*,*,#125,.T.);
#366=ORIENTED_EDGE('',*,*,#91,.T.);
#367=ORIENTED_EDGE('',*,*,#99,.T.);
#368=ORIENTED_EDGE('',*,*,#87,.F.);
#369=CARTESIAN_POINT('',(0.0,1.34442511008356E-014,18.2472232502673));
#370=DIRECTION('',(0.0,-0.0,1.0));
#371=DIRECTION('',(-1.0,-1.70531184122985E-016,0.0));
#372=SURFACE_STYLE_FILL_AREA(#438);
#373=ORIENTED_EDGE('',*,*,#79,.F.);
#374=ORIENTED_EDGE('',*,*,#83,.F.);
#375=ORIENTED_EDGE('',*,*,#87,.T.);
#376=ORIENTED_EDGE('',*,*,#107,.T.);
#377=CARTESIAN_POINT('',(-43.5,8.11721346170826E-015,22.0));
#378=DIRECTION('',(0.0,0.0,1.0));
#379=DIRECTION('',(-1.0,-1.22460635382238E-016,0.0));
#380=CARTESIAN_POINT('',(0.0,1.34442511008356E-014,22.0));
#381=DIRECTION('',(-0.0,0.0,-1.0));
#382=DIRECTION('',(-1.0,-1.70531184122985E-016,0.0));
#383=DIRECTION('',(0.0,0.0,-1.0));
#384=CARTESIAN_POINT('',(0.0,1.34442511008356E-014,22.0));
#385=DIRECTION('',(-0.0,0.0,-1.0));
#386=DIRECTION('',(-1.0,-1.70531184122985E-016,0.0));
#387=CARTESIAN_POINT('',(0.0,1.34442511008356E-014,-2.8421709430404E-014));
#388=DIRECTION('',(-0.0,0.0,-1.0));
#389=DIRECTION('',(-1.0,-1.70531184122985E-016,0.0));
#390=CARTESIAN_POINT('',(0.0,1.34442511008356E-014,22.0));
#391=DIRECTION('',(-0.0,0.0,-1.0));
#392=DIRECTION('',(-1.0,-1.70531184122985E-016,0.0));
#393=DIRECTION('',(-0.0,-0.0,1.0));
#394=CARTESIAN_POINT('',(0.0,1.34442511008356E-014,14.4944465005347));
#395=DIRECTION('',(-0.0,0.0,-1.0));
#396=DIRECTION('',(-1.0,-1.70531184122985E-016,0.0));
#397=DIRECTION('',(0.0,0.0,1.0));
#398=SURFACE_STYLE_FILL_AREA(#439);
#399=ORIENTED_EDGE('',*,*,#81,.T.);
#400=ORIENTED_EDGE('',*,*,#67,.T.);
#401=ORIENTED_EDGE('',*,*,#93,.T.);
#402=ORIENTED_EDGE('',*,*,#91,.F.);
#403=CARTESIAN_POINT('',(0.0,1.34442511008356E-014,7.24722325026734));
#404=DIRECTION('',(0.0,-0.0,1.0));
#405=DIRECTION('',(-1.0,-1.70531184122985E-016,0.0));
#406=DIRECTION('',(0.866025403784435,2.53738358792546E-016,0.500000000000007));
#407=CARTESIAN_POINT('',(0.0,1.34442511008356E-014,-2.8421709430404E-014));
#408=DIRECTION('',(-0.0,0.0,-1.0));
#409=DIRECTION('',(-1.0,-1.70531184122985E-016,0.0));
#410=CARTESIAN_POINT('',(0.0,1.34442511008356E-014,22.0));
#411=DIRECTION('',(-0.0,0.0,-1.0));
#412=DIRECTION('',(-1.0,-1.70531184122985E-016,0.0));
#413=SURFACE_STYLE_FILL_AREA(#440);
#414=ORIENTED_EDGE('',*,*,#59,.F.);
#415=ORIENTED_EDGE('',*,*,#79,.T.);
#416=ORIENTED_EDGE('',*,*,#89,.F.);
#417=ORIENTED_EDGE('',*,*,#85,.F.);
#418=CARTESIAN_POINT('',(0.0,1.34442511008356E-014,11.0));
#419=DIRECTION('',(0.0,-0.0,1.0));
#420=DIRECTION('',(-1.0,-1.70531184122985E-016,0.0));
#421=SURFACE_STYLE_FILL_AREA(#441);
#422=ORIENTED_EDGE('',*,*,#81,.F.);
#423=ORIENTED_EDGE('',*,*,#127,.F.);
#424=ORIENTED_EDGE('',*,*,#93,.F.);
#425=ORIENTED_EDGE('',*,*,#103,.T.);
#426=CARTESIAN_POINT('',(0.0,1.34442511008356E-014,7.24722325026734));
#427=DIRECTION('',(0.0,-0.0,1.0));
#428=DIRECTION('',(-1.0,-1.70531184122985E-016,0.0));
#429=DIRECTION('',(0.866025403784435,2.53738358792546E-016,-0.500000000000007));
#430=CARTESIAN_POINT('',(0.0,1.34442511008356E-014,14.4944465005347));
#431=DIRECTION('',(-0.0,0.0,-1.0));
#432=DIRECTION('',(-1.0,-1.70531184122985E-016,0.0));
#433=FILL_AREA_STYLE('',(#442));
#434=FILL_AREA_STYLE('',(#443));
#435=FILL_AREA_STYLE('',(#444));
#436=FILL_AREA_STYLE('',(#445));
#437=FILL_AREA_STYLE('',(#446));
#438=FILL_AREA_STYLE('',(#447));
#439=FILL_AREA_STYLE('',(#448));
#440=FILL_AREA_STYLE('',(#449));
#441=FILL_AREA_STYLE('',(#450));
#442=FILL_AREA_STYLE_COLOUR('',#451);
#443=FILL_AREA_STYLE_COLOUR('',#452);
#444=FILL_AREA_STYLE_COLOUR('',#453);
#445=FILL_AREA_STYLE_COLOUR('',#454);
#446=FILL_AREA_STYLE_COLOUR('',#455);
#447=FILL_AREA_STYLE_COLOUR('',#456);
#448=FILL_AREA_STYLE_COLOUR('',#457);
#449=FILL_AREA_STYLE_COLOUR('',#458);
#450=FILL_AREA_STYLE_COLOUR('',#459);
#451=COLOUR_RGB('',0.509803950786591,0.509803950786591,0.588235318660736);
#452=COLOUR_RGB('',0.509803950786591,0.509803950786591,0.588235318660736);
#453=COLOUR_RGB('',0.509803950786591,0.509803950786591,0.588235318660736);
#454=COLOUR_RGB('',0.509803950786591,0.509803950786591,0.588235318660736);
#455=COLOUR_RGB('',0.509803950786591,0.509803950786591,0.588235318660736);
#456=COLOUR_RGB('',0.509803950786591,0.509803950786591,0.588235318660736);
#457=COLOUR_RGB('',0.509803950786591,0.509803950786591,0.588235318660736);
#458=COLOUR_RGB('',0.509803950786591,0.509803950786591,0.588235318660736);
#459=COLOUR_RGB('',0.509803950786591,0.509803950786591,0.588235318660736);
ENDSEC;
END-ISO-10303-21;
