ISO-10303-21;
HEADER;
FILE_DESCRIPTION(('STEP AP214'),'1');
FILE_NAME(' ','  ',('TraceParts'),('TraceParts S.A.'),'XStep 1.0',' ',' ');
FILE_SCHEMA(('automotive_design'));
ENDSEC;
DATA;
#1=PRODUCT_DEFINITION_CONTEXT('',#9,'design');
#2=APPLICATION_PROTOCOL_DEFINITION('INTERNATIONAL STANDARD','automotive_design',1994,#9);
#3=PRODUCT_CATEGORY_RELATIONSHIP('NONE','NONE',#10,#11);
#4=SHAPE_DEFINITION_REPRESENTATION(#12,#13);
#5= (GEOMETRIC_REPRESENTATION_CONTEXT(3)GLOBAL_UNCERTAINTY_ASSIGNED_CONTEXT((#16))GLOBAL_UNIT_ASSIGNED_CONTEXT((#18,#19,#20))REPRESENTATION_CONTEXT('NONE','WORKSPACE'));
#9=APPLICATION_CONTEXT(' ');
#10=PRODUCT_CATEGORY('part','NONE');
#11=PRODUCT_RELATED_PRODUCT_CATEGORY('detail',' ',(#22));
#12=PRODUCT_DEFINITION_SHAPE('NONE','NONE',#23);
#13=ADVANCED_BREP_SHAPE_REPRESENTATION('1',(#24,#25),#5);
#16=UNCERTAINTY_MEASURE_WITH_UNIT(LENGTH_MEASURE(1.0E-006),#18,'','');
#18= (CONVERSION_BASED_UNIT('MILLIMETRE',#28)LENGTH_UNIT()NAMED_UNIT(#31));
#19= (NAMED_UNIT(#33)PLANE_ANGLE_UNIT()SI_UNIT($,.RADIAN.));
#20= (NAMED_UNIT(#33)SOLID_ANGLE_UNIT()SI_UNIT($,.STERADIAN.));
#22=PRODUCT('1','1','PART-1-DESC',(#39));
#23=PRODUCT_DEFINITION('NONE','NONE',#40,#1);
#24=MANIFOLD_SOLID_BREP('1',#41);
#25=AXIS2_PLACEMENT_3D('',#42,#43,#44);
#28=LENGTH_MEASURE_WITH_UNIT(LENGTH_MEASURE(1.0),#45);
#31=DIMENSIONAL_EXPONENTS(1.0,0.0,0.0,0.0,0.0,0.0,0.0);
#33=DIMENSIONAL_EXPONENTS(0.0,0.0,0.0,0.0,0.0,0.0,0.0);
#39=PRODUCT_CONTEXT('',#9,'mechanical');
#40=PRODUCT_DEFINITION_FORMATION_WITH_SPECIFIED_SOURCE(' ','NONE',#22,.NOT_KNOWN.);
#41=CLOSED_SHELL('',(#46,#47,#48,#49,#50,#51,#52,#53));
#42=CARTESIAN_POINT('',(0.0,0.0,0.0));
#43=DIRECTION('',(0.0,0.0,1.0));
#44=DIRECTION('',(1.0,0.0,0.0));
#45= (NAMED_UNIT(#31)LENGTH_UNIT()SI_UNIT(.MILLI.,.METRE.));
#46=ADVANCED_FACE('',(#55),#56,.T.);
#47=ADVANCED_FACE('',(#57),#58,.F.);
#48=ADVANCED_FACE('',(#59),#60,.F.);
#49=ADVANCED_FACE('',(#61),#62,.F.);
#50=ADVANCED_FACE('',(#63),#64,.F.);
#51=ADVANCED_FACE('',(#65,#66),#67,.T.);
#52=ADVANCED_FACE('',(#68),#69,.T.);
#53=ADVANCED_FACE('',(#70,#71),#72,.T.);
#55=FACE_OUTER_BOUND('',#73,.T.);
#56=CYLINDRICAL_SURFACE('',#74,48.0);
#57=FACE_OUTER_BOUND('',#75,.T.);
#58=CONICAL_SURFACE('',#76,36.25,1.0471975511966);
#59=FACE_OUTER_BOUND('',#77,.T.);
#60=CYLINDRICAL_SURFACE('',#78,30.0);
#61=FACE_OUTER_BOUND('',#79,.T.);
#62=CYLINDRICAL_SURFACE('',#80,30.0);
#63=FACE_OUTER_BOUND('',#81,.T.);
#64=CONICAL_SURFACE('',#82,36.25,1.0471975511966);
#65=FACE_OUTER_BOUND('',#83,.T.);
#66=FACE_BOUND('',#84,.T.);
#67=PLANE('',#85);
#68=FACE_OUTER_BOUND('',#86,.T.);
#69=CYLINDRICAL_SURFACE('',#87,48.0);
#70=FACE_BOUND('',#88,.T.);
#71=FACE_OUTER_BOUND('',#89,.T.);
#72=PLANE('',#90);
#73=EDGE_LOOP('',(#91,#92,#93,#94));
#74=AXIS2_PLACEMENT_3D('',#95,#96,#97);
#75=EDGE_LOOP('',(#98,#99,#100,#101));
#76=AXIS2_PLACEMENT_3D('',#102,#103,#104);
#77=EDGE_LOOP('',(#105,#106,#107,#108));
#78=AXIS2_PLACEMENT_3D('',#109,#110,#111);
#79=EDGE_LOOP('',(#112,#113,#114,#115));
#80=AXIS2_PLACEMENT_3D('',#116,#117,#118);
#81=EDGE_LOOP('',(#119,#120,#121,#122));
#82=AXIS2_PLACEMENT_3D('',#123,#124,#125);
#83=EDGE_LOOP('',(#126,#127));
#84=EDGE_LOOP('',(#128,#129));
#85=AXIS2_PLACEMENT_3D('',#130,#131,#132);
#86=EDGE_LOOP('',(#133,#134,#135,#136));
#87=AXIS2_PLACEMENT_3D('',#137,#138,#139);
#88=EDGE_LOOP('',(#140,#141));
#89=EDGE_LOOP('',(#142,#143));
#90=AXIS2_PLACEMENT_3D('',#144,#145,#146);
#91=ORIENTED_EDGE('',*,*,#147,.F.);
#92=ORIENTED_EDGE('',*,*,#148,.T.);
#93=ORIENTED_EDGE('',*,*,#149,.F.);
#94=ORIENTED_EDGE('',*,*,#150,.F.);
#95=CARTESIAN_POINT('',(0.0,0.0,12.0));
#96=DIRECTION('',(-0.0,-0.0,1.0));
#97=DIRECTION('',(0.0,1.0,0.0));
#98=ORIENTED_EDGE('',*,*,#151,.F.);
#99=ORIENTED_EDGE('',*,*,#152,.F.);
#100=ORIENTED_EDGE('',*,*,#153,.F.);
#101=ORIENTED_EDGE('',*,*,#154,.T.);
#102=CARTESIAN_POINT('',(0.0,0.0,20.3915608175648));
#103=DIRECTION('',(-0.0,-0.0,1.0));
#104=DIRECTION('',(0.0,1.0,0.0));
#105=ORIENTED_EDGE('',*,*,#155,.F.);
#106=ORIENTED_EDGE('',*,*,#154,.F.);
#107=ORIENTED_EDGE('',*,*,#156,.F.);
#108=ORIENTED_EDGE('',*,*,#157,.T.);
#109=CARTESIAN_POINT('',(0.0,0.0,8.39156081756484));
#110=DIRECTION('',(-0.0,-0.0,1.0));
#111=DIRECTION('',(0.0,1.0,0.0));
#112=ORIENTED_EDGE('',*,*,#155,.T.);
#113=ORIENTED_EDGE('',*,*,#158,.T.);
#114=ORIENTED_EDGE('',*,*,#156,.T.);
#115=ORIENTED_EDGE('',*,*,#159,.F.);
#116=CARTESIAN_POINT('',(0.0,0.0,8.39156081756484));
#117=DIRECTION('',(-0.0,-0.0,1.0));
#118=DIRECTION('',(0.0,1.0,0.0));
#119=ORIENTED_EDGE('',*,*,#151,.T.);
#120=ORIENTED_EDGE('',*,*,#159,.T.);
#121=ORIENTED_EDGE('',*,*,#153,.T.);
#122=ORIENTED_EDGE('',*,*,#160,.F.);
#123=CARTESIAN_POINT('',(0.0,0.0,20.3915608175648));
#124=DIRECTION('',(-0.0,-0.0,1.0));
#125=DIRECTION('',(0.0,1.0,0.0));
#126=ORIENTED_EDGE('',*,*,#148,.F.);
#127=ORIENTED_EDGE('',*,*,#161,.F.);
#128=ORIENTED_EDGE('',*,*,#160,.T.);
#129=ORIENTED_EDGE('',*,*,#152,.T.);
#130=CARTESIAN_POINT('',(0.0,45.25,24.0));
#131=DIRECTION('',(0.0,0.0,1.0));
#132=DIRECTION('',(1.0,0.0,0.0));
#133=ORIENTED_EDGE('',*,*,#147,.T.);
#134=ORIENTED_EDGE('',*,*,#162,.F.);
#135=ORIENTED_EDGE('',*,*,#149,.T.);
#136=ORIENTED_EDGE('',*,*,#161,.T.);
#137=CARTESIAN_POINT('',(0.0,0.0,12.0));
#138=DIRECTION('',(-0.0,-0.0,1.0));
#139=DIRECTION('',(0.0,1.0,0.0));
#140=ORIENTED_EDGE('',*,*,#158,.F.);
#141=ORIENTED_EDGE('',*,*,#157,.F.);
#142=ORIENTED_EDGE('',*,*,#150,.T.);
#143=ORIENTED_EDGE('',*,*,#162,.T.);
#144=CARTESIAN_POINT('',(0.0,39.0,0.0));
#145=DIRECTION('',(-0.0,0.0,-1.0));
#146=DIRECTION('',(-1.0,0.0,0.0));
#147=EDGE_CURVE('',#163,#164,#165,.T.);
#148=EDGE_CURVE('',#163,#166,#167,.T.);
#149=EDGE_CURVE('',#168,#166,#169,.T.);
#150=EDGE_CURVE('',#164,#168,#170,.T.);
#151=EDGE_CURVE('',#171,#172,#173,.T.);
#152=EDGE_CURVE('',#174,#171,#175,.T.);
#153=EDGE_CURVE('',#176,#174,#177,.T.);
#154=EDGE_CURVE('',#176,#172,#178,.T.);
#155=EDGE_CURVE('',#172,#179,#180,.T.);
#156=EDGE_CURVE('',#181,#176,#182,.T.);
#157=EDGE_CURVE('',#181,#179,#183,.T.);
#158=EDGE_CURVE('',#179,#181,#184,.T.);
#159=EDGE_CURVE('',#172,#176,#185,.T.);
#160=EDGE_CURVE('',#171,#174,#186,.T.);
#161=EDGE_CURVE('',#166,#163,#187,.T.);
#162=EDGE_CURVE('',#168,#164,#188,.T.);
#163=VERTEX_POINT('',#189);
#164=VERTEX_POINT('',#190);
#165=LINE('',#191,#192);
#166=VERTEX_POINT('',#193);
#167=CIRCLE('',#194,48.0);
#168=VERTEX_POINT('',#195);
#169=LINE('',#196,#197);
#170=CIRCLE('',#198,48.0);
#171=VERTEX_POINT('',#199);
#172=VERTEX_POINT('',#200);
#173=LINE('',#201,#202);
#174=VERTEX_POINT('',#203);
#175=CIRCLE('',#204,42.5);
#176=VERTEX_POINT('',#205);
#177=LINE('',#206,#207);
#178=CIRCLE('',#208,30.0);
#179=VERTEX_POINT('',#209);
#180=LINE('',#210,#211);
#181=VERTEX_POINT('',#212);
#182=LINE('',#213,#214);
#183=CIRCLE('',#215,30.0);
#184=CIRCLE('',#216,30.0);
#185=CIRCLE('',#217,30.0);
#186=CIRCLE('',#218,42.5);
#187=CIRCLE('',#219,48.0);
#188=CIRCLE('',#220,48.0);
#189=CARTESIAN_POINT('',(0.0,48.0,24.0));
#190=CARTESIAN_POINT('',(0.0,48.0,0.0));
#191=CARTESIAN_POINT('',(-5.87811049834741E-015,48.0,12.0));
#192=VECTOR('',#221,1.0);
#193=CARTESIAN_POINT('',(5.87811049834741E-015,-48.0,24.0));
#194=AXIS2_PLACEMENT_3D('',#222,#223,#224);
#195=CARTESIAN_POINT('',(5.87811049834741E-015,-48.0,0.0));
#196=CARTESIAN_POINT('',(5.87811049834741E-015,-48.0,12.0));
#197=VECTOR('',#225,1.0);
#198=AXIS2_PLACEMENT_3D('',#226,#227,#228);
#199=CARTESIAN_POINT('',(0.0,42.5,24.0));
#200=CARTESIAN_POINT('',(0.0,30.0,16.7831216351297));
#201=CARTESIAN_POINT('',(-4.43919803260612E-015,36.25,20.3915608175648));
#202=VECTOR('',#229,1.0);
#203=CARTESIAN_POINT('',(5.2045770037451E-015,-42.5,24.0));
#204=AXIS2_PLACEMENT_3D('',#230,#231,#232);
#205=CARTESIAN_POINT('',(3.67381906146713E-015,-30.0,16.7831216351297));
#206=CARTESIAN_POINT('',(4.43919803260612E-015,-36.25,20.3915608175648));
#207=VECTOR('',#233,1.0);
#208=AXIS2_PLACEMENT_3D('',#234,#235,#236);
#209=CARTESIAN_POINT('',(0.0,30.0,0.0));
#210=CARTESIAN_POINT('',(-3.67381906146713E-015,30.0,8.39156081756484));
#211=VECTOR('',#237,1.0);
#212=CARTESIAN_POINT('',(3.67381906146713E-015,-30.0,0.0));
#213=CARTESIAN_POINT('',(3.67381906146713E-015,-30.0,8.39156081756484));
#214=VECTOR('',#238,1.0);
#215=AXIS2_PLACEMENT_3D('',#239,#240,#241);
#216=AXIS2_PLACEMENT_3D('',#242,#243,#244);
#217=AXIS2_PLACEMENT_3D('',#245,#246,#247);
#218=AXIS2_PLACEMENT_3D('',#248,#249,#250);
#219=AXIS2_PLACEMENT_3D('',#251,#252,#253);
#220=AXIS2_PLACEMENT_3D('',#254,#255,#256);
#221=DIRECTION('',(-0.0,0.0,-1.0));
#222=CARTESIAN_POINT('',(0.0,0.0,24.0));
#223=DIRECTION('',(0.0,0.0,-1.0));
#224=DIRECTION('',(0.0,1.0,0.0));
#225=DIRECTION('',(-0.0,0.0,1.0));
#226=CARTESIAN_POINT('',(0.0,0.0,0.0));
#227=DIRECTION('',(0.0,0.0,-1.0));
#228=DIRECTION('',(0.0,1.0,0.0));
#229=DIRECTION('',(1.06054021204601E-016,-0.866025403784438,-0.5));
#230=CARTESIAN_POINT('',(0.0,0.0,24.0));
#231=DIRECTION('',(0.0,0.0,-1.0));
#232=DIRECTION('',(0.0,1.0,0.0));
#233=DIRECTION('',(1.06054021204601E-016,-0.866025403784438,0.5));
#234=CARTESIAN_POINT('',(0.0,0.0,16.7831216351297));
#235=DIRECTION('',(0.0,0.0,-1.0));
#236=DIRECTION('',(0.0,1.0,0.0));
#237=DIRECTION('',(-0.0,-0.0,-1.0));
#238=DIRECTION('',(0.0,0.0,1.0));
#239=CARTESIAN_POINT('',(0.0,0.0,0.0));
#240=DIRECTION('',(0.0,0.0,-1.0));
#241=DIRECTION('',(0.0,1.0,0.0));
#242=CARTESIAN_POINT('',(0.0,0.0,0.0));
#243=DIRECTION('',(0.0,0.0,-1.0));
#244=DIRECTION('',(0.0,1.0,0.0));
#245=CARTESIAN_POINT('',(0.0,0.0,16.7831216351297));
#246=DIRECTION('',(0.0,0.0,-1.0));
#247=DIRECTION('',(0.0,1.0,0.0));
#248=CARTESIAN_POINT('',(0.0,0.0,24.0));
#249=DIRECTION('',(0.0,0.0,-1.0));
#250=DIRECTION('',(0.0,1.0,0.0));
#251=CARTESIAN_POINT('',(0.0,0.0,24.0));
#252=DIRECTION('',(0.0,0.0,-1.0));
#253=DIRECTION('',(0.0,1.0,0.0));
#254=CARTESIAN_POINT('',(0.0,0.0,0.0));
#255=DIRECTION('',(0.0,0.0,-1.0));
#256=DIRECTION('',(0.0,1.0,0.0));
ENDSEC;
END-ISO-10303-21;
