ISO-10303-21;
HEADER;
FILE_DESCRIPTION(('STEP AP214'),'1');
FILE_NAME(' ','  ',('TraceParts'),('TraceParts S.A.'),'XStep 1.0',' ',' ');
FILE_SCHEMA(('automotive_design'));
ENDSEC;
DATA;
#1=MECHANICAL_DESIGN_GEOMETRIC_PRESENTATION_REPRESENTATION(' ',(#10,#11,#12,#13,#14,#15,#16,#17,#18,#19,#20,#21,#22,#23,#24,#25,#26,#27,#28,#29,#30,#31,#32,#33,#34,#35,#36,#37,#38,#39,#40,#41,#42,#43,#44),#6);
#2=PRODUCT_DEFINITION_CONTEXT('',#45,'design');
#3=APPLICATION_PROTOCOL_DEFINITION('INTERNATIONAL STANDARD','automotive_design',1994,#45);
#4=PRODUCT_CATEGORY_RELATIONSHIP('NONE','NONE',#46,#47);
#5=SHAPE_DEFINITION_REPRESENTATION(#48,#49);
#6= (GEOMETRIC_REPRESENTATION_CONTEXT(3)GLOBAL_UNCERTAINTY_ASSIGNED_CONTEXT((#52))GLOBAL_UNIT_ASSIGNED_CONTEXT((#54,#55,#56))REPRESENTATION_CONTEXT('NONE','WORKSPACE'));
#10=STYLED_ITEM('',(#58),#59);
#11=STYLED_ITEM('',(#60),#61);
#12=STYLED_ITEM('',(#62),#63);
#13=STYLED_ITEM('',(#64),#65);
#14=STYLED_ITEM('',(#66),#67);
#15=STYLED_ITEM('',(#68),#69);
#16=STYLED_ITEM('',(#70),#71);
#17=STYLED_ITEM('',(#72),#73);
#18=STYLED_ITEM('',(#74),#75);
#19=STYLED_ITEM('',(#76),#77);
#20=STYLED_ITEM('',(#78),#79);
#21=STYLED_ITEM('',(#80),#81);
#22=STYLED_ITEM('',(#82),#83);
#23=STYLED_ITEM('',(#84),#85);
#24=STYLED_ITEM('',(#86),#87);
#25=STYLED_ITEM('',(#88),#89);
#26=STYLED_ITEM('',(#90),#91);
#27=STYLED_ITEM('',(#92),#93);
#28=STYLED_ITEM('',(#94),#95);
#29=STYLED_ITEM('',(#96),#97);
#30=STYLED_ITEM('',(#98),#99);
#31=STYLED_ITEM('',(#100),#101);
#32=STYLED_ITEM('',(#102),#103);
#33=STYLED_ITEM('',(#104),#105);
#34=STYLED_ITEM('',(#106),#107);
#35=STYLED_ITEM('',(#108),#109);
#36=STYLED_ITEM('',(#110),#111);
#37=STYLED_ITEM('',(#112),#113);
#38=STYLED_ITEM('',(#114),#115);
#39=STYLED_ITEM('',(#116),#117);
#40=STYLED_ITEM('',(#118),#119);
#41=STYLED_ITEM('',(#120),#121);
#42=STYLED_ITEM('',(#122),#123);
#43=STYLED_ITEM('',(#124),#125);
#44=STYLED_ITEM('',(#126),#127);
#45=APPLICATION_CONTEXT(' ');
#46=PRODUCT_CATEGORY('part','NONE');
#47=PRODUCT_RELATED_PRODUCT_CATEGORY('detail',' ',(#128));
#48=PRODUCT_DEFINITION_SHAPE('NONE','NONE',#129);
#49=ADVANCED_BREP_SHAPE_REPRESENTATION('1',(#69,#130),#6);
#52=UNCERTAINTY_MEASURE_WITH_UNIT(LENGTH_MEASURE(1.0E-006),#54,'','');
#54= (CONVERSION_BASED_UNIT('MILLIMETRE',#133)LENGTH_UNIT()NAMED_UNIT(#136));
#55= (NAMED_UNIT(#138)PLANE_ANGLE_UNIT()SI_UNIT($,.RADIAN.));
#56= (NAMED_UNIT(#138)SOLID_ANGLE_UNIT()SI_UNIT($,.STERADIAN.));
#58=PRESENTATION_STYLE_ASSIGNMENT((#144));
#59=ADVANCED_FACE('',(#145),#146,.F.);
#60=PRESENTATION_STYLE_ASSIGNMENT((#147));
#61=EDGE_CURVE('',#83,#119,#148,.T.);
#62=PRESENTATION_STYLE_ASSIGNMENT((#149));
#63=VERTEX_POINT('',#150);
#64=PRESENTATION_STYLE_ASSIGNMENT((#151));
#65=EDGE_CURVE('',#99,#107,#152,.T.);
#66=PRESENTATION_STYLE_ASSIGNMENT((#153));
#67=ADVANCED_FACE('',(#154),#155,.T.);
#68=PRESENTATION_STYLE_ASSIGNMENT((#156));
#69=MANIFOLD_SOLID_BREP('1',#157);
#70=PRESENTATION_STYLE_ASSIGNMENT((#158));
#71=EDGE_CURVE('',#85,#83,#159,.T.);
#72=PRESENTATION_STYLE_ASSIGNMENT((#160));
#73=VERTEX_POINT('',#161);
#74=PRESENTATION_STYLE_ASSIGNMENT((#162));
#75=ADVANCED_FACE('',(#163,#164),#165,.T.);
#76=PRESENTATION_STYLE_ASSIGNMENT((#166));
#77=EDGE_CURVE('',#111,#73,#167,.T.);
#78=PRESENTATION_STYLE_ASSIGNMENT((#168));
#79=EDGE_CURVE('',#107,#99,#169,.T.);
#80=PRESENTATION_STYLE_ASSIGNMENT((#170));
#81=EDGE_CURVE('',#125,#117,#171,.T.);
#82=PRESENTATION_STYLE_ASSIGNMENT((#172));
#83=VERTEX_POINT('',#173);
#84=PRESENTATION_STYLE_ASSIGNMENT((#174));
#85=VERTEX_POINT('',#175);
#86=PRESENTATION_STYLE_ASSIGNMENT((#176));
#87=EDGE_CURVE('',#119,#83,#177,.T.);
#88=PRESENTATION_STYLE_ASSIGNMENT((#178));
#89=EDGE_CURVE('',#85,#63,#179,.T.);
#90=PRESENTATION_STYLE_ASSIGNMENT((#180));
#91=ADVANCED_FACE('',(#181),#182,.T.);
#92=PRESENTATION_STYLE_ASSIGNMENT((#183));
#93=EDGE_CURVE('',#99,#111,#184,.T.);
#94=PRESENTATION_STYLE_ASSIGNMENT((#185));
#95=EDGE_CURVE('',#63,#85,#186,.T.);
#96=PRESENTATION_STYLE_ASSIGNMENT((#187));
#97=ADVANCED_FACE('',(#188),#189,.F.);
#98=PRESENTATION_STYLE_ASSIGNMENT((#190));
#99=VERTEX_POINT('',#191);
#100=PRESENTATION_STYLE_ASSIGNMENT((#192));
#101=EDGE_CURVE('',#63,#117,#193,.T.);
#102=PRESENTATION_STYLE_ASSIGNMENT((#194));
#103=ADVANCED_FACE('',(#195),#196,.F.);
#104=PRESENTATION_STYLE_ASSIGNMENT((#197));
#105=EDGE_CURVE('',#117,#125,#198,.T.);
#106=PRESENTATION_STYLE_ASSIGNMENT((#199));
#107=VERTEX_POINT('',#200);
#108=PRESENTATION_STYLE_ASSIGNMENT((#201));
#109=EDGE_CURVE('',#73,#107,#202,.T.);
#110=PRESENTATION_STYLE_ASSIGNMENT((#203));
#111=VERTEX_POINT('',#204);
#112=PRESENTATION_STYLE_ASSIGNMENT((#205));
#113=ADVANCED_FACE('',(#206,#207),#208,.T.);
#114=PRESENTATION_STYLE_ASSIGNMENT((#209));
#115=EDGE_CURVE('',#73,#111,#210,.T.);
#116=PRESENTATION_STYLE_ASSIGNMENT((#211));
#117=VERTEX_POINT('',#212);
#118=PRESENTATION_STYLE_ASSIGNMENT((#213));
#119=VERTEX_POINT('',#214);
#120=PRESENTATION_STYLE_ASSIGNMENT((#215));
#121=EDGE_CURVE('',#125,#85,#216,.T.);
#122=PRESENTATION_STYLE_ASSIGNMENT((#217));
#123=ADVANCED_FACE('',(#218),#219,.F.);
#124=PRESENTATION_STYLE_ASSIGNMENT((#220));
#125=VERTEX_POINT('',#221);
#126=PRESENTATION_STYLE_ASSIGNMENT((#222));
#127=EDGE_CURVE('',#119,#63,#223,.T.);
#128=PRODUCT('1','1','PART-1-DESC',(#224));
#129=PRODUCT_DEFINITION('NONE','NONE',#225,#2);
#130=AXIS2_PLACEMENT_3D('',#226,#227,#228);
#133=LENGTH_MEASURE_WITH_UNIT(LENGTH_MEASURE(1.0),#229);
#136=DIMENSIONAL_EXPONENTS(1.0,0.0,0.0,0.0,0.0,0.0,0.0);
#138=DIMENSIONAL_EXPONENTS(0.0,0.0,0.0,0.0,0.0,0.0,0.0);
#144=SURFACE_STYLE_USAGE(.BOTH.,#230);
#145=FACE_OUTER_BOUND('',#231,.T.);
#146=CYLINDRICAL_SURFACE('',#232,7.10000000000008);
#147=CURVE_STYLE('',#233,POSITIVE_LENGTH_MEASURE(1.0E-006),#234);
#148=CIRCLE('',#235,7.10000000000008);
#149=POINT_STYLE(' ',#236,POSITIVE_LENGTH_MEASURE(1.0E-006),#237);
#150=CARTESIAN_POINT('',(7.10000000000014,1.42442210092237E-014,4.32568421935008));
#151=CURVE_STYLE('',#238,POSITIVE_LENGTH_MEASURE(1.0E-006),#239);
#152=CIRCLE('',#240,18.0);
#153=SURFACE_STYLE_USAGE(.BOTH.,#241);
#154=FACE_OUTER_BOUND('',#242,.T.);
#155=CYLINDRICAL_SURFACE('',#243,18.0);
#156=SURFACE_STYLE_USAGE(.BOTH.,#244);
#157=CLOSED_SHELL('',(#123,#91,#103,#97,#113,#67,#75,#59));
#158=CURVE_STYLE('',#245,POSITIVE_LENGTH_MEASURE(1.0E-006),#246);
#159=LINE('',#247,#248);
#160=POINT_STYLE(' ',#249,POSITIVE_LENGTH_MEASURE(1.0E-006),#250);
#161=CARTESIAN_POINT('',(-17.9999999999999,9.93393242528226E-015,5.99999999999997));
#162=SURFACE_STYLE_USAGE(.BOTH.,#251);
#163=FACE_BOUND('',#252,.T.);
#164=FACE_OUTER_BOUND('',#253,.T.);
#165=PLANE('',#254);
#166=CURVE_STYLE('',#255,POSITIVE_LENGTH_MEASURE(1.0E-006),#256);
#167=CIRCLE('',#257,18.0);
#168=CURVE_STYLE('',#258,POSITIVE_LENGTH_MEASURE(1.0E-006),#259);
#169=CIRCLE('',#260,18.0);
#170=CURVE_STYLE('',#261,POSITIVE_LENGTH_MEASURE(1.0E-006),#262);
#171=CIRCLE('',#263,10.0);
#172=POINT_STYLE(' ',#264,POSITIVE_LENGTH_MEASURE(1.0E-006),#265);
#173=CARTESIAN_POINT('',(-7.10000000000002,1.09013714448019E-014,-2.8421709430404E-014));
#174=POINT_STYLE(' ',#266,POSITIVE_LENGTH_MEASURE(1.0E-006),#267);
#175=CARTESIAN_POINT('',(-7.10000000000002,1.11662344637842E-014,4.32568421935008));
#176=CURVE_STYLE('',#268,POSITIVE_LENGTH_MEASURE(1.0E-006),#269);
#177=CIRCLE('',#270,7.10000000000008);
#178=CURVE_STYLE('',#271,POSITIVE_LENGTH_MEASURE(1.0E-006),#272);
#179=CIRCLE('',#273,7.10000000000008);
#180=SURFACE_STYLE_USAGE(.BOTH.,#274);
#181=FACE_OUTER_BOUND('',#275,.T.);
#182=CYLINDRICAL_SURFACE('',#276,18.0);
#183=CURVE_STYLE('',#277,POSITIVE_LENGTH_MEASURE(1.0E-006),#278);
#184=LINE('',#279,#280);
#185=CURVE_STYLE('',#281,POSITIVE_LENGTH_MEASURE(1.0E-006),#282);
#186=CIRCLE('',#283,7.10000000000008);
#187=SURFACE_STYLE_USAGE(.BOTH.,#284);
#188=FACE_OUTER_BOUND('',#285,.T.);
#189=CONICAL_SURFACE('',#286,8.55000000000004,1.04719755119659);
#190=POINT_STYLE(' ',#287,POSITIVE_LENGTH_MEASURE(1.0E-006),#288);
#191=CARTESIAN_POINT('',(18.0000000000001,1.74773715589373E-014,-2.8421709430404E-014));
#192=CURVE_STYLE('',#289,POSITIVE_LENGTH_MEASURE(1.0E-006),#290);
#193=LINE('',#291,#292);
#194=SURFACE_STYLE_USAGE(.BOTH.,#293);
#195=FACE_OUTER_BOUND('',#294,.T.);
#196=CONICAL_SURFACE('',#295,8.55000000000004,1.04719755119659);
#197=CURVE_STYLE('',#296,POSITIVE_LENGTH_MEASURE(1.0E-006),#297);
#198=CIRCLE('',#298,10.0);
#199=POINT_STYLE(' ',#299,POSITIVE_LENGTH_MEASURE(1.0E-006),#300);
#200=CARTESIAN_POINT('',(-17.9999999999999,9.56655051913555E-015,-2.8421709430404E-014));
#201=CURVE_STYLE('',#301,POSITIVE_LENGTH_MEASURE(1.0E-006),#302);
#202=LINE('',#303,#304);
#203=POINT_STYLE(' ',#305,POSITIVE_LENGTH_MEASURE(1.0E-006),#306);
#204=CARTESIAN_POINT('',(18.0000000000001,1.74773715589373E-014,5.99999999999997));
#205=SURFACE_STYLE_USAGE(.BOTH.,#307);
#206=FACE_OUTER_BOUND('',#308,.T.);
#207=FACE_BOUND('',#309,.T.);
#208=PLANE('',#310);
#209=CURVE_STYLE('',#311,POSITIVE_LENGTH_MEASURE(1.0E-006),#312);
#210=CIRCLE('',#313,18.0);
#211=POINT_STYLE(' ',#314,POSITIVE_LENGTH_MEASURE(1.0E-006),#315);
#212=CARTESIAN_POINT('',(10.0000000000001,1.51044170270374E-014,5.99999999999997));
#213=POINT_STYLE(' ',#316,POSITIVE_LENGTH_MEASURE(1.0E-006),#317);
#214=CARTESIAN_POINT('',(7.10000000000014,1.42442210092237E-014,-2.8421709430404E-014));
#215=CURVE_STYLE('',#318,POSITIVE_LENGTH_MEASURE(1.0E-006),#319);
#216=LINE('',#320,#321);
#217=SURFACE_STYLE_USAGE(.BOTH.,#322);
#218=FACE_OUTER_BOUND('',#323,.T.);
#219=CYLINDRICAL_SURFACE('',#324,7.10000000000008);
#220=POINT_STYLE(' ',#325,POSITIVE_LENGTH_MEASURE(1.0E-006),#326);
#221=CARTESIAN_POINT('',(-9.99999999999994,1.09136175083402E-014,5.99999999999997));
#222=CURVE_STYLE('',#327,POSITIVE_LENGTH_MEASURE(1.0E-006),#328);
#223=LINE('',#329,#330);
#224=PRODUCT_CONTEXT('',#45,'mechanical');
#225=PRODUCT_DEFINITION_FORMATION_WITH_SPECIFIED_SOURCE(' ','NONE',#128,.NOT_KNOWN.);
#226=CARTESIAN_POINT('',(0.0,0.0,0.0));
#227=DIRECTION('',(0.0,0.0,1.0));
#228=DIRECTION('',(1.0,0.0,0.0));
#229= (NAMED_UNIT(#136)LENGTH_UNIT()SI_UNIT(.MILLI.,.METRE.));
#230=SURFACE_SIDE_STYLE('',(#332));
#231=EDGE_LOOP('',(#333,#334,#335,#336));
#232=AXIS2_PLACEMENT_3D('',#337,#338,#339);
#233=DRAUGHTING_PRE_DEFINED_CURVE_FONT('continuous');
#234=COLOUR_RGB('',0.509803950786591,0.509803950786591,0.588235318660736);
#235=AXIS2_PLACEMENT_3D('',#340,#341,#342);
#236=PRE_DEFINED_MARKER('');
#237=COLOUR_RGB('',0.509803950786591,0.509803950786591,0.588235318660736);
#238=DRAUGHTING_PRE_DEFINED_CURVE_FONT('continuous');
#239=COLOUR_RGB('',0.509803950786591,0.509803950786591,0.588235318660736);
#240=AXIS2_PLACEMENT_3D('',#343,#344,#345);
#241=SURFACE_SIDE_STYLE('',(#346));
#242=EDGE_LOOP('',(#347,#348,#349,#350));
#243=AXIS2_PLACEMENT_3D('',#351,#352,#353);
#244=SURFACE_SIDE_STYLE('',(#354));
#245=DRAUGHTING_PRE_DEFINED_CURVE_FONT('continuous');
#246=COLOUR_RGB('',0.509803950786591,0.509803950786591,0.588235318660736);
#247=CARTESIAN_POINT('',(-7.10000000000002,1.00322267151014E-014,2.16284210967503));
#248=VECTOR('',#355,1.0);
#249=PRE_DEFINED_MARKER('');
#250=COLOUR_RGB('',0.509803950786591,0.509803950786591,0.588235318660736);
#251=SURFACE_SIDE_STYLE('',(#356));
#252=EDGE_LOOP('',(#357,#358));
#253=EDGE_LOOP('',(#359,#360));
#254=AXIS2_PLACEMENT_3D('',#361,#362,#363);
#255=DRAUGHTING_PRE_DEFINED_CURVE_FONT('continuous');
#256=COLOUR_RGB('',0.509803950786591,0.509803950786591,0.588235318660736);
#257=AXIS2_PLACEMENT_3D('',#364,#365,#366);
#258=DRAUGHTING_PRE_DEFINED_CURVE_FONT('continuous');
#259=COLOUR_RGB('',0.509803950786591,0.509803950786591,0.588235318660736);
#260=AXIS2_PLACEMENT_3D('',#367,#368,#369);
#261=DRAUGHTING_PRE_DEFINED_CURVE_FONT('continuous');
#262=COLOUR_RGB('',0.509803950786591,0.509803950786591,0.588235318660736);
#263=AXIS2_PLACEMENT_3D('',#370,#371,#372);
#264=PRE_DEFINED_MARKER('');
#265=COLOUR_RGB('',0.509803950786591,0.509803950786591,0.588235318660736);
#266=PRE_DEFINED_MARKER('');
#267=COLOUR_RGB('',0.509803950786591,0.509803950786591,0.588235318660736);
#268=DRAUGHTING_PRE_DEFINED_CURVE_FONT('continuous');
#269=COLOUR_RGB('',0.509803950786591,0.509803950786591,0.588235318660736);
#270=AXIS2_PLACEMENT_3D('',#373,#374,#375);
#271=DRAUGHTING_PRE_DEFINED_CURVE_FONT('continuous');
#272=COLOUR_RGB('',0.509803950786591,0.509803950786591,0.588235318660736);
#273=AXIS2_PLACEMENT_3D('',#376,#377,#378);
#274=SURFACE_SIDE_STYLE('',(#379));
#275=EDGE_LOOP('',(#380,#381,#382,#383));
#276=AXIS2_PLACEMENT_3D('',#384,#385,#386);
#277=DRAUGHTING_PRE_DEFINED_CURVE_FONT('continuous');
#278=COLOUR_RGB('',0.509803950786591,0.509803950786591,0.588235318660736);
#279=CARTESIAN_POINT('',(18.0000000000001,1.74773715589373E-014,2.99999999999997));
#280=VECTOR('',#387,1.0);
#281=DRAUGHTING_PRE_DEFINED_CURVE_FONT('continuous');
#282=COLOUR_RGB('',0.509803950786591,0.509803950786591,0.588235318660736);
#283=AXIS2_PLACEMENT_3D('',#388,#389,#390);
#284=SURFACE_SIDE_STYLE('',(#391));
#285=EDGE_LOOP('',(#392,#393,#394,#395));
#286=AXIS2_PLACEMENT_3D('',#396,#397,#398);
#287=PRE_DEFINED_MARKER('');
#288=COLOUR_RGB('',0.509803950786591,0.509803950786591,0.588235318660736);
#289=DRAUGHTING_PRE_DEFINED_CURVE_FONT('continuous');
#290=COLOUR_RGB('',0.509803950786591,0.509803950786591,0.588235318660736);
#291=CARTESIAN_POINT('',(8.5500000000001,1.46743190181305E-014,5.16284210967503));
#292=VECTOR('',#399,1.0);
#293=SURFACE_SIDE_STYLE('',(#400));
#294=EDGE_LOOP('',(#401,#402,#403,#404));
#295=AXIS2_PLACEMENT_3D('',#405,#406,#407);
#296=DRAUGHTING_PRE_DEFINED_CURVE_FONT('continuous');
#297=COLOUR_RGB('',0.509803950786591,0.509803950786591,0.588235318660736);
#298=AXIS2_PLACEMENT_3D('',#408,#409,#410);
#299=PRE_DEFINED_MARKER('');
#300=COLOUR_RGB('',0.509803950786591,0.509803950786591,0.588235318660736);
#301=DRAUGHTING_PRE_DEFINED_CURVE_FONT('continuous');
#302=COLOUR_RGB('',0.509803950786591,0.509803950786591,0.588235318660736);
#303=CARTESIAN_POINT('',(-17.9999999999999,6.79907616538783E-015,2.99999999999997));
#304=VECTOR('',#411,1.0);
#305=PRE_DEFINED_MARKER('');
#306=COLOUR_RGB('',0.509803950786591,0.509803950786591,0.588235318660736);
#307=SURFACE_SIDE_STYLE('',(#412));
#308=EDGE_LOOP('',(#413,#414));
#309=EDGE_LOOP('',(#415,#416));
#310=AXIS2_PLACEMENT_3D('',#417,#418,#419);
#311=DRAUGHTING_PRE_DEFINED_CURVE_FONT('continuous');
#312=COLOUR_RGB('',0.509803950786591,0.509803950786591,0.588235318660736);
#313=AXIS2_PLACEMENT_3D('',#420,#421,#422);
#314=PRE_DEFINED_MARKER('');
#315=COLOUR_RGB('',0.509803950786591,0.509803950786591,0.588235318660736);
#316=PRE_DEFINED_MARKER('');
#317=COLOUR_RGB('',0.509803950786591,0.509803950786591,0.588235318660736);
#318=DRAUGHTING_PRE_DEFINED_CURVE_FONT('continuous');
#319=COLOUR_RGB('',0.509803950786591,0.509803950786591,0.588235318660736);
#320=CARTESIAN_POINT('',(-8.54999999999998,9.60212870619454E-015,5.16284210967503));
#321=VECTOR('',#423,1.0);
#322=SURFACE_SIDE_STYLE('',(#424));
#323=EDGE_LOOP('',(#425,#426,#427,#428));
#324=AXIS2_PLACEMENT_3D('',#429,#430,#431);
#325=PRE_DEFINED_MARKER('');
#326=COLOUR_RGB('',0.509803950786591,0.509803950786591,0.588235318660736);
#327=DRAUGHTING_PRE_DEFINED_CURVE_FONT('continuous');
#328=COLOUR_RGB('',0.509803950786591,0.509803950786591,0.588235318660736);
#329=CARTESIAN_POINT('',(7.10000000000014,1.42442210092237E-014,2.16284210967503));
#330=VECTOR('',#432,1.0);
#332=SURFACE_STYLE_FILL_AREA(#433);
#333=ORIENTED_EDGE('',*,*,#71,.T.);
#334=ORIENTED_EDGE('',*,*,#61,.T.);
#335=ORIENTED_EDGE('',*,*,#127,.T.);
#336=ORIENTED_EDGE('',*,*,#89,.F.);
#337=CARTESIAN_POINT('',(5.6843418860808E-014,1.21382238621625E-014,2.16284210967503));
#338=DIRECTION('',(0.0,-0.0,1.0));
#339=DIRECTION('',(-1.0,-1.74158681105246E-016,0.0));
#340=CARTESIAN_POINT('',(5.6843418860808E-014,1.21382238621625E-014,-2.8421709430404E-014));
#341=DIRECTION('',(-0.0,0.0,-1.0));
#342=DIRECTION('',(-1.0,-1.74158681105246E-016,0.0));
#343=CARTESIAN_POINT('',(5.6843418860808E-014,1.21382238621625E-014,-2.8421709430404E-014));
#344=DIRECTION('',(-0.0,0.0,-1.0));
#345=DIRECTION('',(-1.0,-1.74158681105246E-016,0.0));
#346=SURFACE_STYLE_FILL_AREA(#434);
#347=ORIENTED_EDGE('',*,*,#109,.T.);
#348=ORIENTED_EDGE('',*,*,#65,.F.);
#349=ORIENTED_EDGE('',*,*,#93,.T.);
#350=ORIENTED_EDGE('',*,*,#77,.T.);
#351=CARTESIAN_POINT('',(5.6843418860808E-014,1.21382238621625E-014,2.99999999999997));
#352=DIRECTION('',(0.0,-0.0,1.0));
#353=DIRECTION('',(-1.0,-1.74158681105246E-016,0.0));
#354=SURFACE_STYLE_FILL_AREA(#435);
#355=DIRECTION('',(0.0,0.0,-1.0));
#356=SURFACE_STYLE_FILL_AREA(#436);
#357=ORIENTED_EDGE('',*,*,#61,.F.);
#358=ORIENTED_EDGE('',*,*,#87,.F.);
#359=ORIENTED_EDGE('',*,*,#79,.T.);
#360=ORIENTED_EDGE('',*,*,#65,.T.);
#361=CARTESIAN_POINT('',(-12.55,1.02339609819687E-014,-2.8421709430404E-014));
#362=DIRECTION('',(0.0,0.0,-1.0));
#363=DIRECTION('',(1.0,1.22460635382238E-016,0.0));
#364=CARTESIAN_POINT('',(5.6843418860808E-014,1.21382238621625E-014,5.99999999999997));
#365=DIRECTION('',(-0.0,0.0,-1.0));
#366=DIRECTION('',(-1.0,-1.74158681105246E-016,0.0));
#367=CARTESIAN_POINT('',(5.6843418860808E-014,1.21382238621625E-014,-2.8421709430404E-014));
#368=DIRECTION('',(-0.0,0.0,-1.0));
#369=DIRECTION('',(-1.0,-1.74158681105246E-016,0.0));
#370=CARTESIAN_POINT('',(5.6843418860808E-014,1.21382238621625E-014,5.99999999999997));
#371=DIRECTION('',(-0.0,0.0,-1.0));
#372=DIRECTION('',(-1.0,-1.74158681105246E-016,0.0));
#373=CARTESIAN_POINT('',(5.6843418860808E-014,1.21382238621625E-014,-2.8421709430404E-014));
#374=DIRECTION('',(-0.0,0.0,-1.0));
#375=DIRECTION('',(-1.0,-1.74158681105246E-016,0.0));
#376=CARTESIAN_POINT('',(5.6843418860808E-014,1.21382238621625E-014,4.32568421935008));
#377=DIRECTION('',(-0.0,0.0,-1.0));
#378=DIRECTION('',(-1.0,-1.74158681105246E-016,0.0));
#379=SURFACE_STYLE_FILL_AREA(#437);
#380=ORIENTED_EDGE('',*,*,#109,.F.);
#381=ORIENTED_EDGE('',*,*,#115,.T.);
#382=ORIENTED_EDGE('',*,*,#93,.F.);
#383=ORIENTED_EDGE('',*,*,#79,.F.);
#384=CARTESIAN_POINT('',(5.6843418860808E-014,1.21382238621625E-014,2.99999999999997));
#385=DIRECTION('',(0.0,-0.0,1.0));
#386=DIRECTION('',(-1.0,-1.74158681105246E-016,0.0));
#387=DIRECTION('',(-0.0,-0.0,1.0));
#388=CARTESIAN_POINT('',(5.6843418860808E-014,1.21382238621625E-014,4.32568421935008));
#389=DIRECTION('',(-0.0,0.0,-1.0));
#390=DIRECTION('',(-1.0,-1.74158681105246E-016,0.0));
#391=SURFACE_STYLE_FILL_AREA(#438);
#392=ORIENTED_EDGE('',*,*,#121,.T.);
#393=ORIENTED_EDGE('',*,*,#89,.T.);
#394=ORIENTED_EDGE('',*,*,#101,.T.);
#395=ORIENTED_EDGE('',*,*,#81,.F.);
#396=CARTESIAN_POINT('',(5.6843418860808E-014,1.21382238621625E-014,5.16284210967503));
#397=DIRECTION('',(0.0,-0.0,1.0));
#398=DIRECTION('',(-1.0,-1.74158681105246E-016,0.0));
#399=DIRECTION('',(0.866025403784436,2.56879863331337E-016,0.500000000000005));
#400=SURFACE_STYLE_FILL_AREA(#439);
#401=ORIENTED_EDGE('',*,*,#121,.F.);
#402=ORIENTED_EDGE('',*,*,#105,.F.);
#403=ORIENTED_EDGE('',*,*,#101,.F.);
#404=ORIENTED_EDGE('',*,*,#95,.T.);
#405=CARTESIAN_POINT('',(5.6843418860808E-014,1.21382238621625E-014,5.16284210967503));
#406=DIRECTION('',(0.0,-0.0,1.0));
#407=DIRECTION('',(-1.0,-1.74158681105246E-016,0.0));
#408=CARTESIAN_POINT('',(5.6843418860808E-014,1.21382238621625E-014,5.99999999999997));
#409=DIRECTION('',(-0.0,0.0,-1.0));
#410=DIRECTION('',(-1.0,-1.74158681105246E-016,0.0));
#411=DIRECTION('',(0.0,0.0,-1.0));
#412=SURFACE_STYLE_FILL_AREA(#440);
#413=ORIENTED_EDGE('',*,*,#115,.F.);
#414=ORIENTED_EDGE('',*,*,#77,.F.);
#415=ORIENTED_EDGE('',*,*,#81,.T.);
#416=ORIENTED_EDGE('',*,*,#105,.T.);
#417=CARTESIAN_POINT('',(-13.9999999999999,1.04237749668112E-014,5.99999999999997));
#418=DIRECTION('',(0.0,0.0,1.0));
#419=DIRECTION('',(-1.0,-1.22460635382238E-016,0.0));
#420=CARTESIAN_POINT('',(5.6843418860808E-014,1.21382238621625E-014,5.99999999999997));
#421=DIRECTION('',(-0.0,0.0,-1.0));
#422=DIRECTION('',(-1.0,-1.74158681105246E-016,0.0));
#423=DIRECTION('',(0.866025403784436,2.56879863331337E-016,-0.500000000000005));
#424=SURFACE_STYLE_FILL_AREA(#441);
#425=ORIENTED_EDGE('',*,*,#71,.F.);
#426=ORIENTED_EDGE('',*,*,#95,.F.);
#427=ORIENTED_EDGE('',*,*,#127,.F.);
#428=ORIENTED_EDGE('',*,*,#87,.T.);
#429=CARTESIAN_POINT('',(5.6843418860808E-014,1.21382238621625E-014,2.16284210967503));
#430=DIRECTION('',(0.0,-0.0,1.0));
#431=DIRECTION('',(-1.0,-1.74158681105246E-016,0.0));
#432=DIRECTION('',(0.0,0.0,1.0));
#433=FILL_AREA_STYLE('',(#442));
#434=FILL_AREA_STYLE('',(#443));
#435=FILL_AREA_STYLE('',(#444));
#436=FILL_AREA_STYLE('',(#445));
#437=FILL_AREA_STYLE('',(#446));
#438=FILL_AREA_STYLE('',(#447));
#439=FILL_AREA_STYLE('',(#448));
#440=FILL_AREA_STYLE('',(#449));
#441=FILL_AREA_STYLE('',(#450));
#442=FILL_AREA_STYLE_COLOUR('',#451);
#443=FILL_AREA_STYLE_COLOUR('',#452);
#444=FILL_AREA_STYLE_COLOUR('',#453);
#445=FILL_AREA_STYLE_COLOUR('',#454);
#446=FILL_AREA_STYLE_COLOUR('',#455);
#447=FILL_AREA_STYLE_COLOUR('',#456);
#448=FILL_AREA_STYLE_COLOUR('',#457);
#449=FILL_AREA_STYLE_COLOUR('',#458);
#450=FILL_AREA_STYLE_COLOUR('',#459);
#451=COLOUR_RGB('',0.509803950786591,0.509803950786591,0.588235318660736);
#452=COLOUR_RGB('',0.509803950786591,0.509803950786591,0.588235318660736);
#453=COLOUR_RGB('',0.509803950786591,0.509803950786591,0.588235318660736);
#454=COLOUR_RGB('',0.509803950786591,0.509803950786591,0.588235318660736);
#455=COLOUR_RGB('',0.509803950786591,0.509803950786591,0.588235318660736);
#456=COLOUR_RGB('',0.509803950786591,0.509803950786591,0.588235318660736);
#457=COLOUR_RGB('',0.509803950786591,0.509803950786591,0.588235318660736);
#458=COLOUR_RGB('',0.509803950786591,0.509803950786591,0.588235318660736);
#459=COLOUR_RGB('',0.509803950786591,0.509803950786591,0.588235318660736);
ENDSEC;
END-ISO-10303-21;
