ISO-10303-21;
HEADER;
FILE_DESCRIPTION(('STEP AP214'),'1');
FILE_NAME(' ','  ',('TraceParts'),('TraceParts S.A.'),'XStep 1.0',' ',' ');
FILE_SCHEMA(('automotive_design'));
ENDSEC;
DATA;
#1=MECHANICAL_DESIGN_GEOMETRIC_PRESENTATION_REPRESENTATION(' ',(#10,#11,#12,#13,#14,#15,#16,#17,#18,#19,#20,#21,#22,#23,#24,#25,#26,#27,#28,#29,#30,#31,#32,#33,#34,#35,#36,#37,#38,#39,#40,#41,#42,#43,#44),#6);
#2=PRODUCT_DEFINITION_CONTEXT('',#45,'design');
#3=APPLICATION_PROTOCOL_DEFINITION('INTERNATIONAL STANDARD','automotive_design',1994,#45);
#4=PRODUCT_CATEGORY_RELATIONSHIP('NONE','NONE',#46,#47);
#5=SHAPE_DEFINITION_REPRESENTATION(#48,#49);
#6= (GEOMETRIC_REPRESENTATION_CONTEXT(3)GLOBAL_UNCERTAINTY_ASSIGNED_CONTEXT((#52))GLOBAL_UNIT_ASSIGNED_CONTEXT((#54,#55,#56))REPRESENTATION_CONTEXT('NONE','WORKSPACE'));
#10=STYLED_ITEM('',(#58),#59);
#11=STYLED_ITEM('',(#60),#61);
#12=STYLED_ITEM('',(#62),#63);
#13=STYLED_ITEM('',(#64),#65);
#14=STYLED_ITEM('',(#66),#67);
#15=STYLED_ITEM('',(#68),#69);
#16=STYLED_ITEM('',(#70),#71);
#17=STYLED_ITEM('',(#72),#73);
#18=STYLED_ITEM('',(#74),#75);
#19=STYLED_ITEM('',(#76),#77);
#20=STYLED_ITEM('',(#78),#79);
#21=STYLED_ITEM('',(#80),#81);
#22=STYLED_ITEM('',(#82),#83);
#23=STYLED_ITEM('',(#84),#85);
#24=STYLED_ITEM('',(#86),#87);
#25=STYLED_ITEM('',(#88),#89);
#26=STYLED_ITEM('',(#90),#91);
#27=STYLED_ITEM('',(#92),#93);
#28=STYLED_ITEM('',(#94),#95);
#29=STYLED_ITEM('',(#96),#97);
#30=STYLED_ITEM('',(#98),#99);
#31=STYLED_ITEM('',(#100),#101);
#32=STYLED_ITEM('',(#102),#103);
#33=STYLED_ITEM('',(#104),#105);
#34=STYLED_ITEM('',(#106),#107);
#35=STYLED_ITEM('',(#108),#109);
#36=STYLED_ITEM('',(#110),#111);
#37=STYLED_ITEM('',(#112),#113);
#38=STYLED_ITEM('',(#114),#115);
#39=STYLED_ITEM('',(#116),#117);
#40=STYLED_ITEM('',(#118),#119);
#41=STYLED_ITEM('',(#120),#121);
#42=STYLED_ITEM('',(#122),#123);
#43=STYLED_ITEM('',(#124),#125);
#44=STYLED_ITEM('',(#126),#127);
#45=APPLICATION_CONTEXT(' ');
#46=PRODUCT_CATEGORY('part','NONE');
#47=PRODUCT_RELATED_PRODUCT_CATEGORY('detail',' ',(#128));
#48=PRODUCT_DEFINITION_SHAPE('NONE','NONE',#129);
#49=ADVANCED_BREP_SHAPE_REPRESENTATION('1',(#59,#130),#6);
#52=UNCERTAINTY_MEASURE_WITH_UNIT(LENGTH_MEASURE(1.0E-006),#54,'','');
#54= (CONVERSION_BASED_UNIT('MILLIMETRE',#133)LENGTH_UNIT()NAMED_UNIT(#136));
#55= (NAMED_UNIT(#138)PLANE_ANGLE_UNIT()SI_UNIT($,.RADIAN.));
#56= (NAMED_UNIT(#138)SOLID_ANGLE_UNIT()SI_UNIT($,.STERADIAN.));
#58=PRESENTATION_STYLE_ASSIGNMENT((#144));
#59=MANIFOLD_SOLID_BREP('1',#145);
#60=PRESENTATION_STYLE_ASSIGNMENT((#146));
#61=EDGE_CURVE('',#107,#71,#147,.T.);
#62=PRESENTATION_STYLE_ASSIGNMENT((#148));
#63=EDGE_CURVE('',#75,#119,#149,.T.);
#64=PRESENTATION_STYLE_ASSIGNMENT((#150));
#65=ADVANCED_FACE('',(#151),#152,.F.);
#66=PRESENTATION_STYLE_ASSIGNMENT((#153));
#67=VERTEX_POINT('',#154);
#68=PRESENTATION_STYLE_ASSIGNMENT((#155));
#69=VERTEX_POINT('',#156);
#70=PRESENTATION_STYLE_ASSIGNMENT((#157));
#71=VERTEX_POINT('',#158);
#72=PRESENTATION_STYLE_ASSIGNMENT((#159));
#73=EDGE_CURVE('',#93,#69,#160,.T.);
#74=PRESENTATION_STYLE_ASSIGNMENT((#161));
#75=VERTEX_POINT('',#162);
#76=PRESENTATION_STYLE_ASSIGNMENT((#163));
#77=ADVANCED_FACE('',(#164),#165,.T.);
#78=PRESENTATION_STYLE_ASSIGNMENT((#166));
#79=EDGE_CURVE('',#93,#75,#167,.T.);
#80=PRESENTATION_STYLE_ASSIGNMENT((#168));
#81=VERTEX_POINT('',#169);
#82=PRESENTATION_STYLE_ASSIGNMENT((#170));
#83=EDGE_CURVE('',#119,#75,#171,.T.);
#84=PRESENTATION_STYLE_ASSIGNMENT((#172));
#85=VERTEX_POINT('',#173);
#86=PRESENTATION_STYLE_ASSIGNMENT((#174));
#87=ADVANCED_FACE('',(#175),#176,.F.);
#88=PRESENTATION_STYLE_ASSIGNMENT((#177));
#89=EDGE_CURVE('',#69,#93,#178,.T.);
#90=PRESENTATION_STYLE_ASSIGNMENT((#179));
#91=EDGE_CURVE('',#81,#85,#180,.T.);
#92=PRESENTATION_STYLE_ASSIGNMENT((#181));
#93=VERTEX_POINT('',#182);
#94=PRESENTATION_STYLE_ASSIGNMENT((#183));
#95=ADVANCED_FACE('',(#184),#185,.T.);
#96=PRESENTATION_STYLE_ASSIGNMENT((#186));
#97=EDGE_CURVE('',#71,#107,#187,.T.);
#98=PRESENTATION_STYLE_ASSIGNMENT((#188));
#99=ADVANCED_FACE('',(#189,#190),#191,.T.);
#100=PRESENTATION_STYLE_ASSIGNMENT((#192));
#101=EDGE_CURVE('',#67,#121,#193,.T.);
#102=PRESENTATION_STYLE_ASSIGNMENT((#194));
#103=EDGE_CURVE('',#119,#69,#195,.T.);
#104=PRESENTATION_STYLE_ASSIGNMENT((#196));
#105=EDGE_CURVE('',#85,#81,#197,.T.);
#106=PRESENTATION_STYLE_ASSIGNMENT((#198));
#107=VERTEX_POINT('',#199);
#108=PRESENTATION_STYLE_ASSIGNMENT((#200));
#109=ADVANCED_FACE('',(#201,#202),#203,.T.);
#110=PRESENTATION_STYLE_ASSIGNMENT((#204));
#111=EDGE_CURVE('',#85,#107,#205,.T.);
#112=PRESENTATION_STYLE_ASSIGNMENT((#206));
#113=EDGE_CURVE('',#81,#121,#207,.T.);
#114=PRESENTATION_STYLE_ASSIGNMENT((#208));
#115=ADVANCED_FACE('',(#209),#210,.F.);
#116=PRESENTATION_STYLE_ASSIGNMENT((#211));
#117=EDGE_CURVE('',#121,#67,#212,.T.);
#118=PRESENTATION_STYLE_ASSIGNMENT((#213));
#119=VERTEX_POINT('',#214);
#120=PRESENTATION_STYLE_ASSIGNMENT((#215));
#121=VERTEX_POINT('',#216);
#122=PRESENTATION_STYLE_ASSIGNMENT((#217));
#123=EDGE_CURVE('',#71,#81,#218,.T.);
#124=PRESENTATION_STYLE_ASSIGNMENT((#219));
#125=EDGE_CURVE('',#67,#85,#220,.T.);
#126=PRESENTATION_STYLE_ASSIGNMENT((#221));
#127=ADVANCED_FACE('',(#222),#223,.F.);
#128=PRODUCT('1','1','PART-1-DESC',(#224));
#129=PRODUCT_DEFINITION('NONE','NONE',#225,#2);
#130=AXIS2_PLACEMENT_3D('',#226,#227,#228);
#133=LENGTH_MEASURE_WITH_UNIT(LENGTH_MEASURE(1.0),#229);
#136=DIMENSIONAL_EXPONENTS(1.0,0.0,0.0,0.0,0.0,0.0,0.0);
#138=DIMENSIONAL_EXPONENTS(0.0,0.0,0.0,0.0,0.0,0.0,0.0);
#144=SURFACE_STYLE_USAGE(.BOTH.,#230);
#145=CLOSED_SHELL('',(#87,#77,#65,#127,#99,#95,#109,#115));
#146=CURVE_STYLE('',#231,POSITIVE_LENGTH_MEASURE(1.0E-006),#232);
#147=CIRCLE('',#233,17.5);
#148=CURVE_STYLE('',#234,POSITIVE_LENGTH_MEASURE(1.0E-006),#235);
#149=CIRCLE('',#236,34.0000000000001);
#150=SURFACE_STYLE_USAGE(.BOTH.,#237);
#151=FACE_OUTER_BOUND('',#238,.T.);
#152=CONICAL_SURFACE('',#239,21.0,1.0471975511966);
#153=POINT_STYLE(' ',#240,POSITIVE_LENGTH_MEASURE(1.0E-006),#241);
#154=CARTESIAN_POINT('',(-24.5000000000001,9.67676509097955E-015,12.0));
#155=POINT_STYLE(' ',#242,POSITIVE_LENGTH_MEASURE(1.0E-006),#243);
#156=CARTESIAN_POINT('',(34.0000000000001,2.24307504665072E-014,12.0));
#157=POINT_STYLE(' ',#244,POSITIVE_LENGTH_MEASURE(1.0E-006),#245);
#158=CARTESIAN_POINT('',(17.5,1.76973373240679E-014,-2.8421709430404E-014));
#159=CURVE_STYLE('',#246,POSITIVE_LENGTH_MEASURE(1.0E-006),#247);
#160=CIRCLE('',#248,34.0000000000001);
#161=POINT_STYLE(' ',#249,POSITIVE_LENGTH_MEASURE(1.0E-006),#250);
#162=CARTESIAN_POINT('',(-34.0000000000001,7.77862524255487E-015,-2.8421709430404E-014));
#163=SURFACE_STYLE_USAGE(.BOTH.,#251);
#164=FACE_OUTER_BOUND('',#252,.T.);
#165=CYLINDRICAL_SURFACE('',#253,34.0000000000001);
#166=CURVE_STYLE('',#254,POSITIVE_LENGTH_MEASURE(1.0E-006),#255);
#167=LINE('',#256,#257);
#168=POINT_STYLE(' ',#258,POSITIVE_LENGTH_MEASURE(1.0E-006),#259);
#169=CARTESIAN_POINT('',(17.5,1.76973373240679E-014,7.95854811567261));
#170=CURVE_STYLE('',#260,POSITIVE_LENGTH_MEASURE(1.0E-006),#261);
#171=CIRCLE('',#262,34.0000000000001);
#172=POINT_STYLE(' ',#263,POSITIVE_LENGTH_MEASURE(1.0E-006),#264);
#173=CARTESIAN_POINT('',(-17.5,1.02865301558445E-014,7.95854811567261));
#174=SURFACE_STYLE_USAGE(.BOTH.,#265);
#175=FACE_OUTER_BOUND('',#266,.T.);
#176=CYLINDRICAL_SURFACE('',#267,17.5);
#177=CURVE_STYLE('',#268,POSITIVE_LENGTH_MEASURE(1.0E-006),#269);
#178=CIRCLE('',#270,34.0000000000001);
#179=CURVE_STYLE('',#271,POSITIVE_LENGTH_MEASURE(1.0E-006),#272);
#180=CIRCLE('',#273,17.5);
#181=POINT_STYLE(' ',#274,POSITIVE_LENGTH_MEASURE(1.0E-006),#275);
#182=CARTESIAN_POINT('',(-34.0000000000001,8.51338905484829E-015,12.0));
#183=SURFACE_STYLE_USAGE(.BOTH.,#276);
#184=FACE_OUTER_BOUND('',#277,.T.);
#185=CYLINDRICAL_SURFACE('',#278,34.0000000000001);
#186=CURVE_STYLE('',#279,POSITIVE_LENGTH_MEASURE(1.0E-006),#280);
#187=CIRCLE('',#281,17.5);
#188=SURFACE_STYLE_USAGE(.BOTH.,#282);
#189=FACE_OUTER_BOUND('',#283,.T.);
#190=FACE_BOUND('',#284,.T.);
#191=PLANE('',#285);
#192=CURVE_STYLE('',#286,POSITIVE_LENGTH_MEASURE(1.0E-006),#287);
#193=CIRCLE('',#288,24.5000000000001);
#194=CURVE_STYLE('',#289,POSITIVE_LENGTH_MEASURE(1.0E-006),#290);
#195=LINE('',#291,#292);
#196=CURVE_STYLE('',#293,POSITIVE_LENGTH_MEASURE(1.0E-006),#294);
#197=CIRCLE('',#295,17.5);
#198=POINT_STYLE(' ',#296,POSITIVE_LENGTH_MEASURE(1.0E-006),#297);
#199=CARTESIAN_POINT('',(-17.5,9.79922572636179E-015,-2.8421709430404E-014));
#200=SURFACE_STYLE_USAGE(.BOTH.,#298);
#201=FACE_BOUND('',#299,.T.);
#202=FACE_OUTER_BOUND('',#300,.T.);
#203=PLANE('',#301);
#204=CURVE_STYLE('',#302,POSITIVE_LENGTH_MEASURE(1.0E-006),#303);
#205=LINE('',#304,#305);
#206=CURVE_STYLE('',#306,POSITIVE_LENGTH_MEASURE(1.0E-006),#307);
#207=LINE('',#308,#309);
#208=SURFACE_STYLE_USAGE(.BOTH.,#310);
#209=FACE_OUTER_BOUND('',#311,.T.);
#210=CYLINDRICAL_SURFACE('',#312,17.5);
#211=CURVE_STYLE('',#313,POSITIVE_LENGTH_MEASURE(1.0E-006),#314);
#212=CIRCLE('',#315,24.5000000000001);
#213=POINT_STYLE(' ',#316,POSITIVE_LENGTH_MEASURE(1.0E-006),#317);
#214=CARTESIAN_POINT('',(34.0000000000001,2.24307504665072E-014,-2.8421709430404E-014));
#215=POINT_STYLE(' ',#318,POSITIVE_LENGTH_MEASURE(1.0E-006),#319);
#216=CARTESIAN_POINT('',(24.5000000000001,1.97054519905573E-014,12.0));
#217=CURVE_STYLE('',#320,POSITIVE_LENGTH_MEASURE(1.0E-006),#321);
#218=LINE('',#322,#323);
#219=CURVE_STYLE('',#324,POSITIVE_LENGTH_MEASURE(1.0E-006),#325);
#220=LINE('',#326,#327);
#221=SURFACE_STYLE_USAGE(.BOTH.,#328);
#222=FACE_OUTER_BOUND('',#329,.T.);
#223=CONICAL_SURFACE('',#330,21.0,1.0471975511966);
#224=PRODUCT_CONTEXT('',#45,'mechanical');
#225=PRODUCT_DEFINITION_FORMATION_WITH_SPECIFIED_SOURCE(' ','NONE',#128,.NOT_KNOWN.);
#226=CARTESIAN_POINT('',(0.0,0.0,0.0));
#227=DIRECTION('',(0.0,0.0,1.0));
#228=DIRECTION('',(1.0,0.0,0.0));
#229= (NAMED_UNIT(#136)LENGTH_UNIT()SI_UNIT(.MILLI.,.METRE.));
#230=SURFACE_SIDE_STYLE('',(#332));
#231=DRAUGHTING_PRE_DEFINED_CURVE_FONT('continuous');
#232=COLOUR_RGB('',0.509803950786591,0.509803950786591,0.588235318660736);
#233=AXIS2_PLACEMENT_3D('',#333,#334,#335);
#234=DRAUGHTING_PRE_DEFINED_CURVE_FONT('continuous');
#235=COLOUR_RGB('',0.509803950786591,0.509803950786591,0.588235318660736);
#236=AXIS2_PLACEMENT_3D('',#336,#337,#338);
#237=SURFACE_SIDE_STYLE('',(#339));
#238=EDGE_LOOP('',(#340,#341,#342,#343));
#239=AXIS2_PLACEMENT_3D('',#344,#345,#346);
#240=PRE_DEFINED_MARKER('');
#241=COLOUR_RGB('',0.509803950786591,0.509803950786591,0.588235318660736);
#242=PRE_DEFINED_MARKER('');
#243=COLOUR_RGB('',0.509803950786591,0.509803950786591,0.588235318660736);
#244=PRE_DEFINED_MARKER('');
#245=COLOUR_RGB('',0.509803950786591,0.509803950786591,0.588235318660736);
#246=DRAUGHTING_PRE_DEFINED_CURVE_FONT('continuous');
#247=COLOUR_RGB('',0.509803950786591,0.509803950786591,0.588235318660736);
#248=AXIS2_PLACEMENT_3D('',#347,#348,#349);
#249=PRE_DEFINED_MARKER('');
#250=COLOUR_RGB('',0.509803950786591,0.509803950786591,0.588235318660736);
#251=SURFACE_SIDE_STYLE('',(#350));
#252=EDGE_LOOP('',(#351,#352,#353,#354));
#253=AXIS2_PLACEMENT_3D('',#355,#356,#357);
#254=DRAUGHTING_PRE_DEFINED_CURVE_FONT('continuous');
#255=COLOUR_RGB('',0.509803950786591,0.509803950786591,0.588235318660736);
#256=CARTESIAN_POINT('',(-34.0000000000001,2.92335084918159E-015,5.99999999999997));
#257=VECTOR('',#358,1.0);
#258=PRE_DEFINED_MARKER('');
#259=COLOUR_RGB('',0.509803950786591,0.509803950786591,0.588235318660736);
#260=DRAUGHTING_PRE_DEFINED_CURVE_FONT('continuous');
#261=COLOUR_RGB('',0.509803950786591,0.509803950786591,0.588235318660736);
#262=AXIS2_PLACEMENT_3D('',#359,#360,#361);
#263=PRE_DEFINED_MARKER('');
#264=COLOUR_RGB('',0.509803950786591,0.509803950786591,0.588235318660736);
#265=SURFACE_SIDE_STYLE('',(#362));
#266=EDGE_LOOP('',(#363,#364,#365,#366));
#267=AXIS2_PLACEMENT_3D('',#367,#368,#369);
#268=DRAUGHTING_PRE_DEFINED_CURVE_FONT('continuous');
#269=COLOUR_RGB('',0.509803950786591,0.509803950786591,0.588235318660736);
#270=AXIS2_PLACEMENT_3D('',#370,#371,#372);
#271=DRAUGHTING_PRE_DEFINED_CURVE_FONT('continuous');
#272=COLOUR_RGB('',0.509803950786591,0.509803950786591,0.588235318660736);
#273=AXIS2_PLACEMENT_3D('',#373,#374,#375);
#274=PRE_DEFINED_MARKER('');
#275=COLOUR_RGB('',0.509803950786591,0.509803950786591,0.588235318660736);
#276=SURFACE_SIDE_STYLE('',(#376));
#277=EDGE_LOOP('',(#377,#378,#379,#380));
#278=AXIS2_PLACEMENT_3D('',#381,#382,#383);
#279=DRAUGHTING_PRE_DEFINED_CURVE_FONT('continuous');
#280=COLOUR_RGB('',0.509803950786591,0.509803950786591,0.588235318660736);
#281=AXIS2_PLACEMENT_3D('',#384,#385,#386);
#282=SURFACE_SIDE_STYLE('',(#387));
#283=EDGE_LOOP('',(#388,#389));
#284=EDGE_LOOP('',(#390,#391));
#285=AXIS2_PLACEMENT_3D('',#392,#393,#394);
#286=DRAUGHTING_PRE_DEFINED_CURVE_FONT('continuous');
#287=COLOUR_RGB('',0.509803950786591,0.509803950786591,0.588235318660736);
#288=AXIS2_PLACEMENT_3D('',#395,#396,#397);
#289=DRAUGHTING_PRE_DEFINED_CURVE_FONT('continuous');
#290=COLOUR_RGB('',0.509803950786591,0.509803950786591,0.588235318660736);
#291=CARTESIAN_POINT('',(34.0000000000001,2.24307504665072E-014,5.99999999999997));
#292=VECTOR('',#398,1.0);
#293=DRAUGHTING_PRE_DEFINED_CURVE_FONT('continuous');
#294=COLOUR_RGB('',0.509803950786591,0.509803950786591,0.588235318660736);
#295=AXIS2_PLACEMENT_3D('',#399,#400,#401);
#296=PRE_DEFINED_MARKER('');
#297=COLOUR_RGB('',0.509803950786591,0.509803950786591,0.588235318660736);
#298=SURFACE_SIDE_STYLE('',(#402));
#299=EDGE_LOOP('',(#403,#404));
#300=EDGE_LOOP('',(#405,#406));
#301=AXIS2_PLACEMENT_3D('',#407,#408,#409);
#302=DRAUGHTING_PRE_DEFINED_CURVE_FONT('continuous');
#303=COLOUR_RGB('',0.509803950786591,0.509803950786591,0.588235318660736);
#304=CARTESIAN_POINT('',(-17.5,7.6567639916209E-015,3.97927405783629));
#305=VECTOR('',#410,1.0);
#306=DRAUGHTING_PRE_DEFINED_CURVE_FONT('continuous');
#307=COLOUR_RGB('',0.509803950786591,0.509803950786591,0.588235318660736);
#308=CARTESIAN_POINT('',(21.0,1.87013946573126E-014,9.97927405783629));
#309=VECTOR('',#411,1.0);
#310=SURFACE_SIDE_STYLE('',(#412));
#311=EDGE_LOOP('',(#413,#414,#415,#416));
#312=AXIS2_PLACEMENT_3D('',#417,#418,#419);
#313=DRAUGHTING_PRE_DEFINED_CURVE_FONT('continuous');
#314=COLOUR_RGB('',0.509803950786591,0.509803950786591,0.588235318660736);
#315=AXIS2_PLACEMENT_3D('',#420,#421,#422);
#316=PRE_DEFINED_MARKER('');
#317=COLOUR_RGB('',0.509803950786591,0.509803950786591,0.588235318660736);
#318=PRE_DEFINED_MARKER('');
#319=COLOUR_RGB('',0.509803950786591,0.509803950786591,0.588235318660736);
#320=DRAUGHTING_PRE_DEFINED_CURVE_FONT('continuous');
#321=COLOUR_RGB('',0.509803950786591,0.509803950786591,0.588235318660736);
#322=CARTESIAN_POINT('',(17.5,1.76973373240679E-014,3.97927405783629));
#323=VECTOR('',#423,1.0);
#324=DRAUGHTING_PRE_DEFINED_CURVE_FONT('continuous');
#325=COLOUR_RGB('',0.509803950786591,0.509803950786591,0.588235318660736);
#326=CARTESIAN_POINT('',(-21.0,6.65270665837619E-015,9.97927405783629));
#327=VECTOR('',#424,1.0);
#328=SURFACE_SIDE_STYLE('',(#425));
#329=EDGE_LOOP('',(#426,#427,#428,#429));
#330=AXIS2_PLACEMENT_3D('',#430,#431,#432);
#332=SURFACE_STYLE_FILL_AREA(#433);
#333=CARTESIAN_POINT('',(0.0,1.26770506578444E-014,-2.8421709430404E-014));
#334=DIRECTION('',(-0.0,0.0,-1.0));
#335=DIRECTION('',(-1.0,-1.64412888401961E-016,0.0));
#336=CARTESIAN_POINT('',(0.0,1.26770506578444E-014,-2.8421709430404E-014));
#337=DIRECTION('',(-0.0,0.0,-1.0));
#338=DIRECTION('',(-1.0,-1.64412888401961E-016,0.0));
#339=SURFACE_STYLE_FILL_AREA(#434);
#340=ORIENTED_EDGE('',*,*,#125,.F.);
#341=ORIENTED_EDGE('',*,*,#117,.F.);
#342=ORIENTED_EDGE('',*,*,#113,.F.);
#343=ORIENTED_EDGE('',*,*,#91,.T.);
#344=CARTESIAN_POINT('',(0.0,1.26770506578444E-014,9.97927405783629));
#345=DIRECTION('',(0.0,-0.0,1.0));
#346=DIRECTION('',(-1.0,-1.64412888401961E-016,0.0));
#347=CARTESIAN_POINT('',(0.0,1.26770506578444E-014,12.0));
#348=DIRECTION('',(-0.0,0.0,-1.0));
#349=DIRECTION('',(-1.0,-1.64412888401961E-016,0.0));
#350=SURFACE_STYLE_FILL_AREA(#435);
#351=ORIENTED_EDGE('',*,*,#79,.F.);
#352=ORIENTED_EDGE('',*,*,#73,.T.);
#353=ORIENTED_EDGE('',*,*,#103,.F.);
#354=ORIENTED_EDGE('',*,*,#63,.F.);
#355=CARTESIAN_POINT('',(0.0,1.26770506578444E-014,5.99999999999997));
#356=DIRECTION('',(0.0,-0.0,1.0));
#357=DIRECTION('',(-1.0,-1.64412888401961E-016,0.0));
#358=DIRECTION('',(0.0,0.0,-1.0));
#359=CARTESIAN_POINT('',(0.0,1.26770506578444E-014,-2.8421709430404E-014));
#360=DIRECTION('',(-0.0,0.0,-1.0));
#361=DIRECTION('',(-1.0,-1.64412888401961E-016,0.0));
#362=SURFACE_STYLE_FILL_AREA(#436);
#363=ORIENTED_EDGE('',*,*,#111,.F.);
#364=ORIENTED_EDGE('',*,*,#91,.F.);
#365=ORIENTED_EDGE('',*,*,#123,.F.);
#366=ORIENTED_EDGE('',*,*,#97,.T.);
#367=CARTESIAN_POINT('',(0.0,1.26770506578444E-014,3.97927405783629));
#368=DIRECTION('',(0.0,-0.0,1.0));
#369=DIRECTION('',(-1.0,-1.64412888401961E-016,0.0));
#370=CARTESIAN_POINT('',(0.0,1.26770506578444E-014,12.0));
#371=DIRECTION('',(-0.0,0.0,-1.0));
#372=DIRECTION('',(-1.0,-1.64412888401961E-016,0.0));
#373=CARTESIAN_POINT('',(0.0,1.26770506578444E-014,7.95854811567261));
#374=DIRECTION('',(-0.0,0.0,-1.0));
#375=DIRECTION('',(-1.0,-1.64412888401961E-016,0.0));
#376=SURFACE_STYLE_FILL_AREA(#437);
#377=ORIENTED_EDGE('',*,*,#79,.T.);
#378=ORIENTED_EDGE('',*,*,#83,.F.);
#379=ORIENTED_EDGE('',*,*,#103,.T.);
#380=ORIENTED_EDGE('',*,*,#89,.T.);
#381=CARTESIAN_POINT('',(0.0,1.26770506578444E-014,5.99999999999997));
#382=DIRECTION('',(0.0,-0.0,1.0));
#383=DIRECTION('',(-1.0,-1.64412888401961E-016,0.0));
#384=CARTESIAN_POINT('',(0.0,1.26770506578444E-014,-2.8421709430404E-014));
#385=DIRECTION('',(-0.0,0.0,-1.0));
#386=DIRECTION('',(-1.0,-1.64412888401961E-016,0.0));
#387=SURFACE_STYLE_FILL_AREA(#438);
#388=ORIENTED_EDGE('',*,*,#73,.F.);
#389=ORIENTED_EDGE('',*,*,#89,.F.);
#390=ORIENTED_EDGE('',*,*,#101,.T.);
#391=ORIENTED_EDGE('',*,*,#117,.T.);
#392=CARTESIAN_POINT('',(-29.2500000000001,9.09507707291392E-015,12.0));
#393=DIRECTION('',(0.0,0.0,1.0));
#394=DIRECTION('',(-1.0,-1.22460635382238E-016,0.0));
#395=CARTESIAN_POINT('',(0.0,1.26770506578444E-014,12.0));
#396=DIRECTION('',(-0.0,0.0,-1.0));
#397=DIRECTION('',(-1.0,-1.64412888401961E-016,0.0));
#398=DIRECTION('',(-0.0,-0.0,1.0));
#399=CARTESIAN_POINT('',(0.0,1.26770506578444E-014,7.95854811567261));
#400=DIRECTION('',(-0.0,0.0,-1.0));
#401=DIRECTION('',(-1.0,-1.64412888401961E-016,0.0));
#402=SURFACE_STYLE_FILL_AREA(#439);
#403=ORIENTED_EDGE('',*,*,#61,.F.);
#404=ORIENTED_EDGE('',*,*,#97,.F.);
#405=ORIENTED_EDGE('',*,*,#63,.T.);
#406=ORIENTED_EDGE('',*,*,#83,.T.);
#407=CARTESIAN_POINT('',(-25.75,8.78892548445833E-015,-2.8421709430404E-014));
#408=DIRECTION('',(0.0,0.0,-1.0));
#409=DIRECTION('',(1.0,1.22460635382238E-016,0.0));
#410=DIRECTION('',(0.0,0.0,-1.0));
#411=DIRECTION('',(0.866025403784442,2.48439759270277E-016,0.499999999999995));
#412=SURFACE_STYLE_FILL_AREA(#440);
#413=ORIENTED_EDGE('',*,*,#111,.T.);
#414=ORIENTED_EDGE('',*,*,#61,.T.);
#415=ORIENTED_EDGE('',*,*,#123,.T.);
#416=ORIENTED_EDGE('',*,*,#105,.F.);
#417=CARTESIAN_POINT('',(0.0,1.26770506578444E-014,3.97927405783629));
#418=DIRECTION('',(0.0,-0.0,1.0));
#419=DIRECTION('',(-1.0,-1.64412888401961E-016,0.0));
#420=CARTESIAN_POINT('',(0.0,1.26770506578444E-014,12.0));
#421=DIRECTION('',(-0.0,0.0,-1.0));
#422=DIRECTION('',(-1.0,-1.64412888401961E-016,0.0));
#423=DIRECTION('',(0.0,0.0,1.0));
#424=DIRECTION('',(0.866025403784442,2.48439759270277E-016,-0.499999999999995));
#425=SURFACE_STYLE_FILL_AREA(#441);
#426=ORIENTED_EDGE('',*,*,#125,.T.);
#427=ORIENTED_EDGE('',*,*,#105,.T.);
#428=ORIENTED_EDGE('',*,*,#113,.T.);
#429=ORIENTED_EDGE('',*,*,#101,.F.);
#430=CARTESIAN_POINT('',(0.0,1.26770506578444E-014,9.97927405783629));
#431=DIRECTION('',(0.0,-0.0,1.0));
#432=DIRECTION('',(-1.0,-1.64412888401961E-016,0.0));
#433=FILL_AREA_STYLE('',(#442));
#434=FILL_AREA_STYLE('',(#443));
#435=FILL_AREA_STYLE('',(#444));
#436=FILL_AREA_STYLE('',(#445));
#437=FILL_AREA_STYLE('',(#446));
#438=FILL_AREA_STYLE('',(#447));
#439=FILL_AREA_STYLE('',(#448));
#440=FILL_AREA_STYLE('',(#449));
#441=FILL_AREA_STYLE('',(#450));
#442=FILL_AREA_STYLE_COLOUR('',#451);
#443=FILL_AREA_STYLE_COLOUR('',#452);
#444=FILL_AREA_STYLE_COLOUR('',#453);
#445=FILL_AREA_STYLE_COLOUR('',#454);
#446=FILL_AREA_STYLE_COLOUR('',#455);
#447=FILL_AREA_STYLE_COLOUR('',#456);
#448=FILL_AREA_STYLE_COLOUR('',#457);
#449=FILL_AREA_STYLE_COLOUR('',#458);
#450=FILL_AREA_STYLE_COLOUR('',#459);
#451=COLOUR_RGB('',0.509803950786591,0.509803950786591,0.588235318660736);
#452=COLOUR_RGB('',0.509803950786591,0.509803950786591,0.588235318660736);
#453=COLOUR_RGB('',0.509803950786591,0.509803950786591,0.588235318660736);
#454=COLOUR_RGB('',0.509803950786591,0.509803950786591,0.588235318660736);
#455=COLOUR_RGB('',0.509803950786591,0.509803950786591,0.588235318660736);
#456=COLOUR_RGB('',0.509803950786591,0.509803950786591,0.588235318660736);
#457=COLOUR_RGB('',0.509803950786591,0.509803950786591,0.588235318660736);
#458=COLOUR_RGB('',0.509803950786591,0.509803950786591,0.588235318660736);
#459=COLOUR_RGB('',0.509803950786591,0.509803950786591,0.588235318660736);
ENDSEC;
END-ISO-10303-21;
