ISO-10303-21;
HEADER;
FILE_DESCRIPTION(('STEP AP214'),'1');
FILE_NAME(' ','  ',('TraceParts'),('TraceParts S.A.'),'XStep 1.0',' ',' ');
FILE_SCHEMA(('automotive_design'));
ENDSEC;
DATA;
#1=MECHANICAL_DESIGN_GEOMETRIC_PRESENTATION_REPRESENTATION(' ',(#10,#11,#12,#13,#14,#15,#16,#17,#18,#19,#20,#21,#22,#23,#24,#25,#26,#27,#28,#29,#30,#31,#32,#33,#34,#35,#36,#37,#38,#39,#40,#41,#42,#43,#44),#6);
#2=PRODUCT_DEFINITION_CONTEXT('',#45,'design');
#3=APPLICATION_PROTOCOL_DEFINITION('INTERNATIONAL STANDARD','automotive_design',1994,#45);
#4=PRODUCT_CATEGORY_RELATIONSHIP('NONE','NONE',#46,#47);
#5=SHAPE_DEFINITION_REPRESENTATION(#48,#49);
#6= (GEOMETRIC_REPRESENTATION_CONTEXT(3)GLOBAL_UNCERTAINTY_ASSIGNED_CONTEXT((#52))GLOBAL_UNIT_ASSIGNED_CONTEXT((#54,#55,#56))REPRESENTATION_CONTEXT('NONE','WORKSPACE'));
#10=STYLED_ITEM('',(#58),#59);
#11=STYLED_ITEM('',(#60),#61);
#12=STYLED_ITEM('',(#62),#63);
#13=STYLED_ITEM('',(#64),#65);
#14=STYLED_ITEM('',(#66),#67);
#15=STYLED_ITEM('',(#68),#69);
#16=STYLED_ITEM('',(#70),#71);
#17=STYLED_ITEM('',(#72),#73);
#18=STYLED_ITEM('',(#74),#75);
#19=STYLED_ITEM('',(#76),#77);
#20=STYLED_ITEM('',(#78),#79);
#21=STYLED_ITEM('',(#80),#81);
#22=STYLED_ITEM('',(#82),#83);
#23=STYLED_ITEM('',(#84),#85);
#24=STYLED_ITEM('',(#86),#87);
#25=STYLED_ITEM('',(#88),#89);
#26=STYLED_ITEM('',(#90),#91);
#27=STYLED_ITEM('',(#92),#93);
#28=STYLED_ITEM('',(#94),#95);
#29=STYLED_ITEM('',(#96),#97);
#30=STYLED_ITEM('',(#98),#99);
#31=STYLED_ITEM('',(#100),#101);
#32=STYLED_ITEM('',(#102),#103);
#33=STYLED_ITEM('',(#104),#105);
#34=STYLED_ITEM('',(#106),#107);
#35=STYLED_ITEM('',(#108),#109);
#36=STYLED_ITEM('',(#110),#111);
#37=STYLED_ITEM('',(#112),#113);
#38=STYLED_ITEM('',(#114),#115);
#39=STYLED_ITEM('',(#116),#117);
#40=STYLED_ITEM('',(#118),#119);
#41=STYLED_ITEM('',(#120),#121);
#42=STYLED_ITEM('',(#122),#123);
#43=STYLED_ITEM('',(#124),#125);
#44=STYLED_ITEM('',(#126),#127);
#45=APPLICATION_CONTEXT(' ');
#46=PRODUCT_CATEGORY('part','NONE');
#47=PRODUCT_RELATED_PRODUCT_CATEGORY('detail',' ',(#128));
#48=PRODUCT_DEFINITION_SHAPE('NONE','NONE',#129);
#49=ADVANCED_BREP_SHAPE_REPRESENTATION('1',(#59,#130),#6);
#52=UNCERTAINTY_MEASURE_WITH_UNIT(LENGTH_MEASURE(1.0E-006),#54,'','');
#54= (CONVERSION_BASED_UNIT('MILLIMETRE',#133)LENGTH_UNIT()NAMED_UNIT(#136));
#55= (NAMED_UNIT(#138)PLANE_ANGLE_UNIT()SI_UNIT($,.RADIAN.));
#56= (NAMED_UNIT(#138)SOLID_ANGLE_UNIT()SI_UNIT($,.STERADIAN.));
#58=PRESENTATION_STYLE_ASSIGNMENT((#144));
#59=MANIFOLD_SOLID_BREP('1',#145);
#60=PRESENTATION_STYLE_ASSIGNMENT((#146));
#61=VERTEX_POINT('',#147);
#62=PRESENTATION_STYLE_ASSIGNMENT((#148));
#63=EDGE_CURVE('',#75,#91,#149,.T.);
#64=PRESENTATION_STYLE_ASSIGNMENT((#150));
#65=EDGE_CURVE('',#61,#119,#151,.T.);
#66=PRESENTATION_STYLE_ASSIGNMENT((#152));
#67=EDGE_CURVE('',#91,#75,#153,.T.);
#68=PRESENTATION_STYLE_ASSIGNMENT((#154));
#69=ADVANCED_FACE('',(#155,#156),#157,.T.);
#70=PRESENTATION_STYLE_ASSIGNMENT((#158));
#71=ADVANCED_FACE('',(#159),#160,.F.);
#72=PRESENTATION_STYLE_ASSIGNMENT((#161));
#73=ADVANCED_FACE('',(#162),#163,.F.);
#74=PRESENTATION_STYLE_ASSIGNMENT((#164));
#75=VERTEX_POINT('',#165);
#76=PRESENTATION_STYLE_ASSIGNMENT((#166));
#77=VERTEX_POINT('',#167);
#78=PRESENTATION_STYLE_ASSIGNMENT((#168));
#79=VERTEX_POINT('',#169);
#80=PRESENTATION_STYLE_ASSIGNMENT((#170));
#81=EDGE_CURVE('',#119,#61,#171,.T.);
#82=PRESENTATION_STYLE_ASSIGNMENT((#172));
#83=EDGE_CURVE('',#77,#61,#173,.T.);
#84=PRESENTATION_STYLE_ASSIGNMENT((#174));
#85=EDGE_CURVE('',#99,#77,#175,.T.);
#86=PRESENTATION_STYLE_ASSIGNMENT((#176));
#87=EDGE_CURVE('',#119,#99,#177,.T.);
#88=PRESENTATION_STYLE_ASSIGNMENT((#178));
#89=ADVANCED_FACE('',(#179),#180,.T.);
#90=PRESENTATION_STYLE_ASSIGNMENT((#181));
#91=VERTEX_POINT('',#182);
#92=PRESENTATION_STYLE_ASSIGNMENT((#183));
#93=VERTEX_POINT('',#184);
#94=PRESENTATION_STYLE_ASSIGNMENT((#185));
#95=ADVANCED_FACE('',(#186),#187,.F.);
#96=PRESENTATION_STYLE_ASSIGNMENT((#188));
#97=EDGE_CURVE('',#103,#115,#189,.T.);
#98=PRESENTATION_STYLE_ASSIGNMENT((#190));
#99=VERTEX_POINT('',#191);
#100=PRESENTATION_STYLE_ASSIGNMENT((#192));
#101=ADVANCED_FACE('',(#193,#194),#195,.T.);
#102=PRESENTATION_STYLE_ASSIGNMENT((#196));
#103=VERTEX_POINT('',#197);
#104=PRESENTATION_STYLE_ASSIGNMENT((#198));
#105=EDGE_CURVE('',#79,#93,#199,.T.);
#106=PRESENTATION_STYLE_ASSIGNMENT((#200));
#107=ADVANCED_FACE('',(#201),#202,.F.);
#108=PRESENTATION_STYLE_ASSIGNMENT((#203));
#109=EDGE_CURVE('',#93,#79,#204,.T.);
#110=PRESENTATION_STYLE_ASSIGNMENT((#205));
#111=EDGE_CURVE('',#75,#93,#206,.T.);
#112=PRESENTATION_STYLE_ASSIGNMENT((#207));
#113=EDGE_CURVE('',#93,#115,#208,.T.);
#114=PRESENTATION_STYLE_ASSIGNMENT((#209));
#115=VERTEX_POINT('',#210);
#116=PRESENTATION_STYLE_ASSIGNMENT((#211));
#117=EDGE_CURVE('',#115,#103,#212,.T.);
#118=PRESENTATION_STYLE_ASSIGNMENT((#213));
#119=VERTEX_POINT('',#214);
#120=PRESENTATION_STYLE_ASSIGNMENT((#215));
#121=EDGE_CURVE('',#79,#91,#216,.T.);
#122=PRESENTATION_STYLE_ASSIGNMENT((#217));
#123=ADVANCED_FACE('',(#218),#219,.T.);
#124=PRESENTATION_STYLE_ASSIGNMENT((#220));
#125=EDGE_CURVE('',#103,#79,#221,.T.);
#126=PRESENTATION_STYLE_ASSIGNMENT((#222));
#127=EDGE_CURVE('',#77,#99,#223,.T.);
#128=PRODUCT('1','1','PART-1-DESC',(#224));
#129=PRODUCT_DEFINITION('NONE','NONE',#225,#2);
#130=AXIS2_PLACEMENT_3D('',#226,#227,#228);
#133=LENGTH_MEASURE_WITH_UNIT(LENGTH_MEASURE(1.0),#229);
#136=DIMENSIONAL_EXPONENTS(1.0,0.0,0.0,0.0,0.0,0.0,0.0);
#138=DIMENSIONAL_EXPONENTS(0.0,0.0,0.0,0.0,0.0,0.0,0.0);
#144=SURFACE_STYLE_USAGE(.BOTH.,#230);
#145=CLOSED_SHELL('',(#107,#89,#71,#95,#101,#123,#69,#73));
#146=POINT_STYLE(' ',#231,POSITIVE_LENGTH_MEASURE(1.0E-006),#232);
#147=CARTESIAN_POINT('',(-34.0,7.74983155556154E-015,-2.8421709430404E-014));
#148=CURVE_STYLE('',#233,POSITIVE_LENGTH_MEASURE(1.0E-006),#234);
#149=CIRCLE('',#235,21.0);
#150=CURVE_STYLE('',#236,POSITIVE_LENGTH_MEASURE(1.0E-006),#237);
#151=CIRCLE('',#238,34.0);
#152=CURVE_STYLE('',#239,POSITIVE_LENGTH_MEASURE(1.0E-006),#240);
#153=CIRCLE('',#241,21.0);
#154=SURFACE_STYLE_USAGE(.BOTH.,#242);
#155=FACE_BOUND('',#243,.T.);
#156=FACE_OUTER_BOUND('',#244,.T.);
#157=PLANE('',#245);
#158=SURFACE_STYLE_USAGE(.BOTH.,#246);
#159=FACE_OUTER_BOUND('',#247,.T.);
#160=CONICAL_SURFACE('',#248,25.5,1.04719755119659);
#161=SURFACE_STYLE_USAGE(.BOTH.,#249);
#162=FACE_OUTER_BOUND('',#250,.T.);
#163=CYLINDRICAL_SURFACE('',#251,21.0);
#164=POINT_STYLE(' ',#252,POSITIVE_LENGTH_MEASURE(1.0E-006),#253);
#165=CARTESIAN_POINT('',(21.0,1.8893011015322E-014,-2.8421709430404E-014));
#166=POINT_STYLE(' ',#254,POSITIVE_LENGTH_MEASURE(1.0E-006),#255);
#167=CARTESIAN_POINT('',(-34.0,8.66828632092833E-015,15.0));
#168=POINT_STYLE(' ',#256,POSITIVE_LENGTH_MEASURE(1.0E-006),#257);
#169=CARTESIAN_POINT('',(-21.0,9.94211251728361E-015,9.80384757729325));
#170=CURVE_STYLE('',#258,POSITIVE_LENGTH_MEASURE(1.0E-006),#259);
#171=CIRCLE('',#260,34.0);
#172=CURVE_STYLE('',#261,POSITIVE_LENGTH_MEASURE(1.0E-006),#262);
#173=LINE('',#263,#264);
#174=CURVE_STYLE('',#265,POSITIVE_LENGTH_MEASURE(1.0E-006),#266);
#175=CIRCLE('',#267,34.0);
#176=CURVE_STYLE('',#268,POSITIVE_LENGTH_MEASURE(1.0E-006),#269);
#177=LINE('',#270,#271);
#178=SURFACE_STYLE_USAGE(.BOTH.,#272);
#179=FACE_OUTER_BOUND('',#273,.T.);
#180=CYLINDRICAL_SURFACE('',#274,34.0);
#181=POINT_STYLE(' ',#275,POSITIVE_LENGTH_MEASURE(1.0E-006),#276);
#182=CARTESIAN_POINT('',(-21.0,9.34181981553063E-015,-2.8421709430404E-014));
#183=POINT_STYLE(' ',#277,POSITIVE_LENGTH_MEASURE(1.0E-006),#278);
#184=CARTESIAN_POINT('',(21.0,1.8893011015322E-014,9.80384757729325));
#185=SURFACE_STYLE_USAGE(.BOTH.,#279);
#186=FACE_OUTER_BOUND('',#280,.T.);
#187=CONICAL_SURFACE('',#281,25.5,1.04719755119659);
#188=CURVE_STYLE('',#282,POSITIVE_LENGTH_MEASURE(1.0E-006),#283);
#189=CIRCLE('',#284,30.0);
#190=POINT_STYLE(' ',#285,POSITIVE_LENGTH_MEASURE(1.0E-006),#286);
#191=CARTESIAN_POINT('',(34.0,2.26450976909491E-014,15.0));
#192=SURFACE_STYLE_USAGE(.BOTH.,#287);
#193=FACE_OUTER_BOUND('',#288,.T.);
#194=FACE_BOUND('',#289,.T.);
#195=PLANE('',#290);
#196=POINT_STYLE(' ',#291,POSITIVE_LENGTH_MEASURE(1.0E-006),#292);
#197=CARTESIAN_POINT('',(-30.0,9.15812886245728E-015,15.0));
#198=CURVE_STYLE('',#293,POSITIVE_LENGTH_MEASURE(1.0E-006),#294);
#199=CIRCLE('',#295,21.0);
#200=SURFACE_STYLE_USAGE(.BOTH.,#296);
#201=FACE_OUTER_BOUND('',#297,.T.);
#202=CYLINDRICAL_SURFACE('',#298,21.0);
#203=CURVE_STYLE('',#299,POSITIVE_LENGTH_MEASURE(1.0E-006),#300);
#204=CIRCLE('',#301,21.0);
#205=CURVE_STYLE('',#302,POSITIVE_LENGTH_MEASURE(1.0E-006),#303);
#206=LINE('',#304,#305);
#207=CURVE_STYLE('',#306,POSITIVE_LENGTH_MEASURE(1.0E-006),#307);
#208=LINE('',#308,#309);
#209=POINT_STYLE(' ',#310,POSITIVE_LENGTH_MEASURE(1.0E-006),#311);
#210=CARTESIAN_POINT('',(30.0,2.14906094830638E-014,15.0));
#211=CURVE_STYLE('',#312,POSITIVE_LENGTH_MEASURE(1.0E-006),#313);
#212=CIRCLE('',#314,30.0);
#213=POINT_STYLE(' ',#315,POSITIVE_LENGTH_MEASURE(1.0E-006),#316);
#214=CARTESIAN_POINT('',(34.0,2.26450976909491E-014,-2.8421709430404E-014));
#215=CURVE_STYLE('',#317,POSITIVE_LENGTH_MEASURE(1.0E-006),#318);
#216=LINE('',#319,#320);
#217=SURFACE_STYLE_USAGE(.BOTH.,#321);
#218=FACE_OUTER_BOUND('',#322,.T.);
#219=CYLINDRICAL_SURFACE('',#323,34.0);
#220=CURVE_STYLE('',#324,POSITIVE_LENGTH_MEASURE(1.0E-006),#325);
#221=LINE('',#326,#327);
#222=CURVE_STYLE('',#328,POSITIVE_LENGTH_MEASURE(1.0E-006),#329);
#223=CIRCLE('',#330,34.0);
#224=PRODUCT_CONTEXT('',#45,'mechanical');
#225=PRODUCT_DEFINITION_FORMATION_WITH_SPECIFIED_SOURCE(' ','NONE',#128,.NOT_KNOWN.);
#226=CARTESIAN_POINT('',(0.0,0.0,0.0));
#227=DIRECTION('',(0.0,0.0,1.0));
#228=DIRECTION('',(1.0,0.0,0.0));
#229= (NAMED_UNIT(#136)LENGTH_UNIT()SI_UNIT(.MILLI.,.METRE.));
#230=SURFACE_SIDE_STYLE('',(#332));
#231=PRE_DEFINED_MARKER('');
#232=COLOUR_RGB('',0.509803950786591,0.509803950786591,0.588235318660736);
#233=DRAUGHTING_PRE_DEFINED_CURVE_FONT('continuous');
#234=COLOUR_RGB('',0.509803950786591,0.509803950786591,0.588235318660736);
#235=AXIS2_PLACEMENT_3D('',#333,#334,#335);
#236=DRAUGHTING_PRE_DEFINED_CURVE_FONT('continuous');
#237=COLOUR_RGB('',0.509803950786591,0.509803950786591,0.588235318660736);
#238=AXIS2_PLACEMENT_3D('',#336,#337,#338);
#239=DRAUGHTING_PRE_DEFINED_CURVE_FONT('continuous');
#240=COLOUR_RGB('',0.509803950786591,0.509803950786591,0.588235318660736);
#241=AXIS2_PLACEMENT_3D('',#339,#340,#341);
#242=SURFACE_SIDE_STYLE('',(#342));
#243=EDGE_LOOP('',(#343,#344));
#244=EDGE_LOOP('',(#345,#346));
#245=AXIS2_PLACEMENT_3D('',#347,#348,#349);
#246=SURFACE_SIDE_STYLE('',(#350));
#247=EDGE_LOOP('',(#351,#352,#353,#354));
#248=AXIS2_PLACEMENT_3D('',#355,#356,#357);
#249=SURFACE_SIDE_STYLE('',(#358));
#250=EDGE_LOOP('',(#359,#360,#361,#362));
#251=AXIS2_PLACEMENT_3D('',#363,#364,#365);
#252=PRE_DEFINED_MARKER('');
#253=COLOUR_RGB('',0.509803950786591,0.509803950786591,0.588235318660736);
#254=PRE_DEFINED_MARKER('');
#255=COLOUR_RGB('',0.509803950786591,0.509803950786591,0.588235318660736);
#256=PRE_DEFINED_MARKER('');
#257=COLOUR_RGB('',0.509803950786591,0.509803950786591,0.588235318660736);
#258=DRAUGHTING_PRE_DEFINED_CURVE_FONT('continuous');
#259=COLOUR_RGB('',0.509803950786591,0.509803950786591,0.588235318660736);
#260=AXIS2_PLACEMENT_3D('',#366,#367,#368);
#261=DRAUGHTING_PRE_DEFINED_CURVE_FONT('continuous');
#262=COLOUR_RGB('',0.509803950786591,0.509803950786591,0.588235318660736);
#263=CARTESIAN_POINT('',(-34.0,3.01879815689971E-015,7.49999999999997));
#264=VECTOR('',#369,1.0);
#265=DRAUGHTING_PRE_DEFINED_CURVE_FONT('continuous');
#266=COLOUR_RGB('',0.509803950786591,0.509803950786591,0.588235318660736);
#267=AXIS2_PLACEMENT_3D('',#370,#371,#372);
#268=DRAUGHTING_PRE_DEFINED_CURVE_FONT('continuous');
#269=COLOUR_RGB('',0.509803950786591,0.509803950786591,0.588235318660736);
#270=CARTESIAN_POINT('',(34.0,2.26450976909491E-014,7.49999999999997));
#271=VECTOR('',#373,1.0);
#272=SURFACE_SIDE_STYLE('',(#374));
#273=EDGE_LOOP('',(#375,#376,#377,#378));
#274=AXIS2_PLACEMENT_3D('',#379,#380,#381);
#275=PRE_DEFINED_MARKER('');
#276=COLOUR_RGB('',0.509803950786591,0.509803950786591,0.588235318660736);
#277=PRE_DEFINED_MARKER('');
#278=COLOUR_RGB('',0.509803950786591,0.509803950786591,0.588235318660736);
#279=SURFACE_SIDE_STYLE('',(#382));
#280=EDGE_LOOP('',(#383,#384,#385,#386));
#281=AXIS2_PLACEMENT_3D('',#387,#388,#389);
#282=DRAUGHTING_PRE_DEFINED_CURVE_FONT('continuous');
#283=COLOUR_RGB('',0.509803950786591,0.509803950786591,0.588235318660736);
#284=AXIS2_PLACEMENT_3D('',#390,#391,#392);
#285=PRE_DEFINED_MARKER('');
#286=COLOUR_RGB('',0.509803950786591,0.509803950786591,0.588235318660736);
#287=SURFACE_SIDE_STYLE('',(#393));
#288=EDGE_LOOP('',(#394,#395));
#289=EDGE_LOOP('',(#396,#397));
#290=AXIS2_PLACEMENT_3D('',#398,#399,#400);
#291=PRE_DEFINED_MARKER('');
#292=COLOUR_RGB('',0.509803950786591,0.509803950786591,0.588235318660736);
#293=DRAUGHTING_PRE_DEFINED_CURVE_FONT('continuous');
#294=COLOUR_RGB('',0.509803950786591,0.509803950786591,0.588235318660736);
#295=AXIS2_PLACEMENT_3D('',#401,#402,#403);
#296=SURFACE_SIDE_STYLE('',(#404));
#297=EDGE_LOOP('',(#405,#406,#407,#408));
#298=AXIS2_PLACEMENT_3D('',#409,#410,#411);
#299=DRAUGHTING_PRE_DEFINED_CURVE_FONT('continuous');
#300=COLOUR_RGB('',0.509803950786591,0.509803950786591,0.588235318660736);
#301=AXIS2_PLACEMENT_3D('',#412,#413,#414);
#302=DRAUGHTING_PRE_DEFINED_CURVE_FONT('continuous');
#303=COLOUR_RGB('',0.509803950786591,0.509803950786591,0.588235318660736);
#304=CARTESIAN_POINT('',(21.0,1.8893011015322E-014,4.90192378864661));
#305=VECTOR('',#415,1.0);
#306=DRAUGHTING_PRE_DEFINED_CURVE_FONT('continuous');
#307=COLOUR_RGB('',0.509803950786591,0.509803950786591,0.588235318660736);
#308=CARTESIAN_POINT('',(25.5,2.01918102491929E-014,12.4019237886466));
#309=VECTOR('',#416,1.0);
#310=PRE_DEFINED_MARKER('');
#311=COLOUR_RGB('',0.509803950786591,0.509803950786591,0.588235318660736);
#312=DRAUGHTING_PRE_DEFINED_CURVE_FONT('continuous');
#313=COLOUR_RGB('',0.509803950786591,0.509803950786591,0.588235318660736);
#314=AXIS2_PLACEMENT_3D('',#417,#418,#419);
#315=PRE_DEFINED_MARKER('');
#316=COLOUR_RGB('',0.509803950786591,0.509803950786591,0.588235318660736);
#317=DRAUGHTING_PRE_DEFINED_CURVE_FONT('continuous');
#318=COLOUR_RGB('',0.509803950786591,0.509803950786591,0.588235318660736);
#319=CARTESIAN_POINT('',(-21.0,6.7708848325268E-015,4.90192378864661));
#320=VECTOR('',#420,1.0);
#321=SURFACE_SIDE_STYLE('',(#421));
#322=EDGE_LOOP('',(#422,#423,#424,#425));
#323=AXIS2_PLACEMENT_3D('',#426,#427,#428);
#324=DRAUGHTING_PRE_DEFINED_CURVE_FONT('continuous');
#325=COLOUR_RGB('',0.509803950786591,0.509803950786591,0.588235318660736);
#326=CARTESIAN_POINT('',(-25.5,5.47208559865588E-015,12.4019237886466));
#327=VECTOR('',#429,1.0);
#328=DRAUGHTING_PRE_DEFINED_CURVE_FONT('continuous');
#329=COLOUR_RGB('',0.509803950786591,0.509803950786591,0.588235318660736);
#330=AXIS2_PLACEMENT_3D('',#430,#431,#432);
#332=SURFACE_STYLE_FILL_AREA(#433);
#333=CARTESIAN_POINT('',(0.0,1.28319479239244E-014,-2.8421709430404E-014));
#334=DIRECTION('',(-0.0,0.0,-1.0));
#335=DIRECTION('',(-1.0,-1.66161416589077E-016,0.0));
#336=CARTESIAN_POINT('',(0.0,1.28319479239244E-014,-2.8421709430404E-014));
#337=DIRECTION('',(-0.0,0.0,-1.0));
#338=DIRECTION('',(-1.0,-1.66161416589077E-016,0.0));
#339=CARTESIAN_POINT('',(0.0,1.28319479239244E-014,-2.8421709430404E-014));
#340=DIRECTION('',(-0.0,0.0,-1.0));
#341=DIRECTION('',(-1.0,-1.66161416589077E-016,0.0));
#342=SURFACE_STYLE_FILL_AREA(#434);
#343=ORIENTED_EDGE('',*,*,#67,.F.);
#344=ORIENTED_EDGE('',*,*,#63,.F.);
#345=ORIENTED_EDGE('',*,*,#65,.T.);
#346=ORIENTED_EDGE('',*,*,#81,.T.);
#347=CARTESIAN_POINT('',(-27.5,8.54582568554609E-015,-2.8421709430404E-014));
#348=DIRECTION('',(0.0,0.0,-1.0));
#349=DIRECTION('',(1.0,1.22460635382238E-016,0.0));
#350=SURFACE_STYLE_FILL_AREA(#435);
#351=ORIENTED_EDGE('',*,*,#125,.F.);
#352=ORIENTED_EDGE('',*,*,#117,.F.);
#353=ORIENTED_EDGE('',*,*,#113,.F.);
#354=ORIENTED_EDGE('',*,*,#109,.T.);
#355=CARTESIAN_POINT('',(0.0,1.28319479239244E-014,12.4019237886466));
#356=DIRECTION('',(0.0,-0.0,1.0));
#357=DIRECTION('',(-1.0,-1.66161416589077E-016,0.0));
#358=SURFACE_STYLE_FILL_AREA(#436);
#359=ORIENTED_EDGE('',*,*,#121,.T.);
#360=ORIENTED_EDGE('',*,*,#67,.T.);
#361=ORIENTED_EDGE('',*,*,#111,.T.);
#362=ORIENTED_EDGE('',*,*,#105,.F.);
#363=CARTESIAN_POINT('',(0.0,1.28319479239244E-014,4.90192378864661));
#364=DIRECTION('',(0.0,-0.0,1.0));
#365=DIRECTION('',(-1.0,-1.66161416589077E-016,0.0));
#366=CARTESIAN_POINT('',(0.0,1.28319479239244E-014,-2.8421709430404E-014));
#367=DIRECTION('',(-0.0,0.0,-1.0));
#368=DIRECTION('',(-1.0,-1.66161416589077E-016,0.0));
#369=DIRECTION('',(0.0,0.0,-1.0));
#370=CARTESIAN_POINT('',(0.0,1.28319479239244E-014,15.0));
#371=DIRECTION('',(-0.0,0.0,-1.0));
#372=DIRECTION('',(-1.0,-1.66161416589077E-016,0.0));
#373=DIRECTION('',(-0.0,-0.0,1.0));
#374=SURFACE_STYLE_FILL_AREA(#437);
#375=ORIENTED_EDGE('',*,*,#83,.F.);
#376=ORIENTED_EDGE('',*,*,#127,.T.);
#377=ORIENTED_EDGE('',*,*,#87,.F.);
#378=ORIENTED_EDGE('',*,*,#65,.F.);
#379=CARTESIAN_POINT('',(0.0,1.28319479239244E-014,7.49999999999997));
#380=DIRECTION('',(0.0,-0.0,1.0));
#381=DIRECTION('',(-1.0,-1.66161416589077E-016,0.0));
#382=SURFACE_STYLE_FILL_AREA(#438);
#383=ORIENTED_EDGE('',*,*,#125,.T.);
#384=ORIENTED_EDGE('',*,*,#105,.T.);
#385=ORIENTED_EDGE('',*,*,#113,.T.);
#386=ORIENTED_EDGE('',*,*,#97,.F.);
#387=CARTESIAN_POINT('',(0.0,1.28319479239244E-014,12.4019237886466));
#388=DIRECTION('',(0.0,-0.0,1.0));
#389=DIRECTION('',(-1.0,-1.66161416589077E-016,0.0));
#390=CARTESIAN_POINT('',(0.0,1.28319479239244E-014,15.0));
#391=DIRECTION('',(-0.0,0.0,-1.0));
#392=DIRECTION('',(-1.0,-1.66161416589077E-016,0.0));
#393=SURFACE_STYLE_FILL_AREA(#439);
#394=ORIENTED_EDGE('',*,*,#127,.F.);
#395=ORIENTED_EDGE('',*,*,#85,.F.);
#396=ORIENTED_EDGE('',*,*,#97,.T.);
#397=ORIENTED_EDGE('',*,*,#117,.T.);
#398=CARTESIAN_POINT('',(-32.0,8.9132075916928E-015,15.0));
#399=DIRECTION('',(0.0,0.0,1.0));
#400=DIRECTION('',(-1.0,-1.22460635382238E-016,0.0));
#401=CARTESIAN_POINT('',(0.0,1.28319479239244E-014,9.80384757729325));
#402=DIRECTION('',(-0.0,0.0,-1.0));
#403=DIRECTION('',(-1.0,-1.66161416589077E-016,0.0));
#404=SURFACE_STYLE_FILL_AREA(#440);
#405=ORIENTED_EDGE('',*,*,#121,.F.);
#406=ORIENTED_EDGE('',*,*,#109,.F.);
#407=ORIENTED_EDGE('',*,*,#111,.F.);
#408=ORIENTED_EDGE('',*,*,#63,.T.);
#409=CARTESIAN_POINT('',(0.0,1.28319479239244E-014,4.90192378864661));
#410=DIRECTION('',(0.0,-0.0,1.0));
#411=DIRECTION('',(-1.0,-1.66161416589077E-016,0.0));
#412=CARTESIAN_POINT('',(0.0,1.28319479239244E-014,9.80384757729325));
#413=DIRECTION('',(-0.0,0.0,-1.0));
#414=DIRECTION('',(-1.0,-1.66161416589077E-016,0.0));
#415=DIRECTION('',(0.0,0.0,1.0));
#416=DIRECTION('',(0.866025403784435,2.4995402909955E-016,0.500000000000006));
#417=CARTESIAN_POINT('',(0.0,1.28319479239244E-014,15.0));
#418=DIRECTION('',(-0.0,0.0,-1.0));
#419=DIRECTION('',(-1.0,-1.66161416589077E-016,0.0));
#420=DIRECTION('',(0.0,0.0,-1.0));
#421=SURFACE_STYLE_FILL_AREA(#441);
#422=ORIENTED_EDGE('',*,*,#83,.T.);
#423=ORIENTED_EDGE('',*,*,#81,.F.);
#424=ORIENTED_EDGE('',*,*,#87,.T.);
#425=ORIENTED_EDGE('',*,*,#85,.T.);
#426=CARTESIAN_POINT('',(0.0,1.28319479239244E-014,7.49999999999997));
#427=DIRECTION('',(0.0,-0.0,1.0));
#428=DIRECTION('',(-1.0,-1.66161416589077E-016,0.0));
#429=DIRECTION('',(0.866025403784435,2.4995402909955E-016,-0.500000000000006));
#430=CARTESIAN_POINT('',(0.0,1.28319479239244E-014,15.0));
#431=DIRECTION('',(-0.0,0.0,-1.0));
#432=DIRECTION('',(-1.0,-1.66161416589077E-016,0.0));
#433=FILL_AREA_STYLE('',(#442));
#434=FILL_AREA_STYLE('',(#443));
#435=FILL_AREA_STYLE('',(#444));
#436=FILL_AREA_STYLE('',(#445));
#437=FILL_AREA_STYLE('',(#446));
#438=FILL_AREA_STYLE('',(#447));
#439=FILL_AREA_STYLE('',(#448));
#440=FILL_AREA_STYLE('',(#449));
#441=FILL_AREA_STYLE('',(#450));
#442=FILL_AREA_STYLE_COLOUR('',#451);
#443=FILL_AREA_STYLE_COLOUR('',#452);
#444=FILL_AREA_STYLE_COLOUR('',#453);
#445=FILL_AREA_STYLE_COLOUR('',#454);
#446=FILL_AREA_STYLE_COLOUR('',#455);
#447=FILL_AREA_STYLE_COLOUR('',#456);
#448=FILL_AREA_STYLE_COLOUR('',#457);
#449=FILL_AREA_STYLE_COLOUR('',#458);
#450=FILL_AREA_STYLE_COLOUR('',#459);
#451=COLOUR_RGB('',0.509803950786591,0.509803950786591,0.588235318660736);
#452=COLOUR_RGB('',0.509803950786591,0.509803950786591,0.588235318660736);
#453=COLOUR_RGB('',0.509803950786591,0.509803950786591,0.588235318660736);
#454=COLOUR_RGB('',0.509803950786591,0.509803950786591,0.588235318660736);
#455=COLOUR_RGB('',0.509803950786591,0.509803950786591,0.588235318660736);
#456=COLOUR_RGB('',0.509803950786591,0.509803950786591,0.588235318660736);
#457=COLOUR_RGB('',0.509803950786591,0.509803950786591,0.588235318660736);
#458=COLOUR_RGB('',0.509803950786591,0.509803950786591,0.588235318660736);
#459=COLOUR_RGB('',0.509803950786591,0.509803950786591,0.588235318660736);
ENDSEC;
END-ISO-10303-21;
