ISO-10303-21;
HEADER;
FILE_DESCRIPTION(('STEP AP214'),'1');
FILE_NAME(' ','  ',('TraceParts'),('TraceParts S.A.'),'XStep 1.0',' ',' ');
FILE_SCHEMA(('automotive_design'));
ENDSEC;
DATA;
#1=MECHANICAL_DESIGN_GEOMETRIC_PRESENTATION_REPRESENTATION(' ',(#10,#11,#12,#13,#14,#15,#16,#17,#18,#19,#20,#21,#22,#23,#24,#25,#26,#27,#28,#29,#30,#31,#32,#33,#34,#35,#36,#37,#38,#39,#40,#41,#42,#43,#44,#45,#46,#47,#48,#49,#50,#51,#52),#6);
#2=PRODUCT_DEFINITION_CONTEXT('',#53,'design');
#3=APPLICATION_PROTOCOL_DEFINITION('INTERNATIONAL STANDARD','automotive_design',1994,#53);
#4=PRODUCT_CATEGORY_RELATIONSHIP('NONE','NONE',#54,#55);
#5=SHAPE_DEFINITION_REPRESENTATION(#56,#57);
#6= (GEOMETRIC_REPRESENTATION_CONTEXT(3)GLOBAL_UNCERTAINTY_ASSIGNED_CONTEXT((#60))GLOBAL_UNIT_ASSIGNED_CONTEXT((#62,#63,#64))REPRESENTATION_CONTEXT('NONE','WORKSPACE'));
#10=STYLED_ITEM('',(#66),#67);
#11=STYLED_ITEM('',(#68),#69);
#12=STYLED_ITEM('',(#70),#71);
#13=STYLED_ITEM('',(#72),#73);
#14=STYLED_ITEM('',(#74),#75);
#15=STYLED_ITEM('',(#76),#77);
#16=STYLED_ITEM('',(#78),#79);
#17=STYLED_ITEM('',(#80),#81);
#18=STYLED_ITEM('',(#82),#83);
#19=STYLED_ITEM('',(#84),#85);
#20=STYLED_ITEM('',(#86),#87);
#21=STYLED_ITEM('',(#88),#89);
#22=STYLED_ITEM('',(#90),#91);
#23=STYLED_ITEM('',(#92),#93);
#24=STYLED_ITEM('',(#94),#95);
#25=STYLED_ITEM('',(#96),#97);
#26=STYLED_ITEM('',(#98),#99);
#27=STYLED_ITEM('',(#100),#101);
#28=STYLED_ITEM('',(#102),#103);
#29=STYLED_ITEM('',(#104),#105);
#30=STYLED_ITEM('',(#106),#107);
#31=STYLED_ITEM('',(#108),#109);
#32=STYLED_ITEM('',(#110),#111);
#33=STYLED_ITEM('',(#112),#113);
#34=STYLED_ITEM('',(#114),#115);
#35=STYLED_ITEM('',(#116),#117);
#36=STYLED_ITEM('',(#118),#119);
#37=STYLED_ITEM('',(#120),#121);
#38=STYLED_ITEM('',(#122),#123);
#39=STYLED_ITEM('',(#124),#125);
#40=STYLED_ITEM('',(#126),#127);
#41=STYLED_ITEM('',(#128),#129);
#42=STYLED_ITEM('',(#130),#131);
#43=STYLED_ITEM('',(#132),#133);
#44=STYLED_ITEM('',(#134),#135);
#45=STYLED_ITEM('',(#136),#137);
#46=STYLED_ITEM('',(#138),#139);
#47=STYLED_ITEM('',(#140),#141);
#48=STYLED_ITEM('',(#142),#143);
#49=STYLED_ITEM('',(#144),#145);
#50=STYLED_ITEM('',(#146),#147);
#51=STYLED_ITEM('',(#148),#149);
#52=STYLED_ITEM('',(#150),#151);
#53=APPLICATION_CONTEXT(' ');
#54=PRODUCT_CATEGORY('part','NONE');
#55=PRODUCT_RELATED_PRODUCT_CATEGORY('detail',' ',(#152));
#56=PRODUCT_DEFINITION_SHAPE('NONE','NONE',#153);
#57=ADVANCED_BREP_SHAPE_REPRESENTATION('1',(#79,#154),#6);
#60=UNCERTAINTY_MEASURE_WITH_UNIT(LENGTH_MEASURE(1.0E-006),#62,'','');
#62= (CONVERSION_BASED_UNIT('MILLIMETRE',#157)LENGTH_UNIT()NAMED_UNIT(#160));
#63= (NAMED_UNIT(#162)PLANE_ANGLE_UNIT()SI_UNIT($,.RADIAN.));
#64= (NAMED_UNIT(#162)SOLID_ANGLE_UNIT()SI_UNIT($,.STERADIAN.));
#66=PRESENTATION_STYLE_ASSIGNMENT((#168));
#67=EDGE_CURVE('',#99,#111,#169,.T.);
#68=PRESENTATION_STYLE_ASSIGNMENT((#170));
#69=EDGE_CURVE('',#131,#135,#171,.T.);
#70=PRESENTATION_STYLE_ASSIGNMENT((#172));
#71=ADVANCED_FACE('',(#173),#174,.T.);
#72=PRESENTATION_STYLE_ASSIGNMENT((#175));
#73=VERTEX_POINT('',#176);
#74=PRESENTATION_STYLE_ASSIGNMENT((#177));
#75=VERTEX_POINT('',#178);
#76=PRESENTATION_STYLE_ASSIGNMENT((#179));
#77=EDGE_CURVE('',#75,#73,#180,.T.);
#78=PRESENTATION_STYLE_ASSIGNMENT((#181));
#79=MANIFOLD_SOLID_BREP('1',#182);
#80=PRESENTATION_STYLE_ASSIGNMENT((#183));
#81=ADVANCED_FACE('',(#184,#185),#186,.T.);
#82=PRESENTATION_STYLE_ASSIGNMENT((#187));
#83=ADVANCED_FACE('',(#188),#189,.F.);
#84=PRESENTATION_STYLE_ASSIGNMENT((#190));
#85=EDGE_CURVE('',#147,#97,#191,.T.);
#86=PRESENTATION_STYLE_ASSIGNMENT((#192));
#87=ADVANCED_FACE('',(#193),#194,.F.);
#88=PRESENTATION_STYLE_ASSIGNMENT((#195));
#89=EDGE_CURVE('',#145,#127,#196,.T.);
#90=PRESENTATION_STYLE_ASSIGNMENT((#197));
#91=ADVANCED_FACE('',(#198),#199,.T.);
#92=PRESENTATION_STYLE_ASSIGNMENT((#200));
#93=EDGE_CURVE('',#137,#151,#201,.T.);
#94=PRESENTATION_STYLE_ASSIGNMENT((#202));
#95=EDGE_CURVE('',#135,#137,#203,.T.);
#96=PRESENTATION_STYLE_ASSIGNMENT((#204));
#97=VERTEX_POINT('',#205);
#98=PRESENTATION_STYLE_ASSIGNMENT((#206));
#99=VERTEX_POINT('',#207);
#100=PRESENTATION_STYLE_ASSIGNMENT((#208));
#101=ADVANCED_FACE('',(#209),#210,.T.);
#102=PRESENTATION_STYLE_ASSIGNMENT((#211));
#103=EDGE_CURVE('',#97,#73,#212,.T.);
#104=PRESENTATION_STYLE_ASSIGNMENT((#213));
#105=EDGE_CURVE('',#75,#147,#214,.T.);
#106=PRESENTATION_STYLE_ASSIGNMENT((#215));
#107=EDGE_CURVE('',#111,#99,#216,.T.);
#108=PRESENTATION_STYLE_ASSIGNMENT((#217));
#109=ADVANCED_FACE('',(#218),#219,.T.);
#110=PRESENTATION_STYLE_ASSIGNMENT((#220));
#111=VERTEX_POINT('',#221);
#112=PRESENTATION_STYLE_ASSIGNMENT((#222));
#113=ADVANCED_FACE('',(#223),#224,.F.);
#114=PRESENTATION_STYLE_ASSIGNMENT((#225));
#115=EDGE_CURVE('',#137,#127,#226,.T.);
#116=PRESENTATION_STYLE_ASSIGNMENT((#227));
#117=ADVANCED_FACE('',(#228,#229),#230,.T.);
#118=PRESENTATION_STYLE_ASSIGNMENT((#231));
#119=EDGE_CURVE('',#151,#131,#232,.T.);
#120=PRESENTATION_STYLE_ASSIGNMENT((#233));
#121=EDGE_CURVE('',#73,#75,#234,.T.);
#122=PRESENTATION_STYLE_ASSIGNMENT((#235));
#123=EDGE_CURVE('',#127,#145,#236,.T.);
#124=PRESENTATION_STYLE_ASSIGNMENT((#237));
#125=EDGE_CURVE('',#97,#147,#238,.T.);
#126=PRESENTATION_STYLE_ASSIGNMENT((#239));
#127=VERTEX_POINT('',#240);
#128=PRESENTATION_STYLE_ASSIGNMENT((#241));
#129=EDGE_CURVE('',#147,#99,#242,.T.);
#130=PRESENTATION_STYLE_ASSIGNMENT((#243));
#131=VERTEX_POINT('',#244);
#132=PRESENTATION_STYLE_ASSIGNMENT((#245));
#133=EDGE_CURVE('',#151,#137,#246,.T.);
#134=PRESENTATION_STYLE_ASSIGNMENT((#247));
#135=VERTEX_POINT('',#248);
#136=PRESENTATION_STYLE_ASSIGNMENT((#249));
#137=VERTEX_POINT('',#250);
#138=PRESENTATION_STYLE_ASSIGNMENT((#251));
#139=EDGE_CURVE('',#135,#131,#252,.T.);
#140=PRESENTATION_STYLE_ASSIGNMENT((#253));
#141=EDGE_CURVE('',#145,#151,#254,.T.);
#142=PRESENTATION_STYLE_ASSIGNMENT((#255));
#143=ADVANCED_FACE('',(#256),#257,.F.);
#144=PRESENTATION_STYLE_ASSIGNMENT((#258));
#145=VERTEX_POINT('',#259);
#146=PRESENTATION_STYLE_ASSIGNMENT((#260));
#147=VERTEX_POINT('',#261);
#148=PRESENTATION_STYLE_ASSIGNMENT((#262));
#149=EDGE_CURVE('',#111,#97,#263,.T.);
#150=PRESENTATION_STYLE_ASSIGNMENT((#264));
#151=VERTEX_POINT('',#265);
#152=PRODUCT('1','1','PART-1-DESC',(#266));
#153=PRODUCT_DEFINITION('NONE','NONE',#267,#2);
#154=AXIS2_PLACEMENT_3D('',#268,#269,#270);
#157=LENGTH_MEASURE_WITH_UNIT(LENGTH_MEASURE(1.0),#271);
#160=DIMENSIONAL_EXPONENTS(1.0,0.0,0.0,0.0,0.0,0.0,0.0);
#162=DIMENSIONAL_EXPONENTS(0.0,0.0,0.0,0.0,0.0,0.0,0.0);
#168=CURVE_STYLE('',#272,POSITIVE_LENGTH_MEASURE(1.0E-006),#273);
#169=CIRCLE('',#274,5.25000000000003);
#170=CURVE_STYLE('',#275,POSITIVE_LENGTH_MEASURE(1.0E-006),#276);
#171=CIRCLE('',#277,10.5);
#172=SURFACE_STYLE_USAGE(.BOTH.,#278);
#173=FACE_OUTER_BOUND('',#279,.T.);
#174=CYLINDRICAL_SURFACE('',#280,10.5);
#175=POINT_STYLE(' ',#281,POSITIVE_LENGTH_MEASURE(1.0E-006),#282);
#176=CARTESIAN_POINT('',(5.75000000000006,7.60794267563039E-015,4.0));
#177=POINT_STYLE(' ',#283,POSITIVE_LENGTH_MEASURE(1.0E-006),#284);
#178=CARTESIAN_POINT('',(-5.75,5.22753831015932E-015,4.0));
#179=CURVE_STYLE('',#285,POSITIVE_LENGTH_MEASURE(1.0E-006),#286);
#180=CIRCLE('',#287,5.75000000000003);
#181=SURFACE_STYLE_USAGE(.BOTH.,#288);
#182=CLOSED_SHELL('',(#87,#109,#143,#91,#101,#113,#117,#71,#81,#83));
#183=SURFACE_STYLE_USAGE(.BOTH.,#289);
#184=FACE_OUTER_BOUND('',#290,.T.);
#185=FACE_BOUND('',#291,.T.);
#186=PLANE('',#292);
#187=SURFACE_STYLE_USAGE(.BOTH.,#293);
#188=FACE_OUTER_BOUND('',#294,.T.);
#189=CYLINDRICAL_SURFACE('',#295,5.25000000000003);
#190=CURVE_STYLE('',#296,POSITIVE_LENGTH_MEASURE(1.0E-006),#297);
#191=CIRCLE('',#298,5.25000000000003);
#192=SURFACE_STYLE_USAGE(.BOTH.,#299);
#193=FACE_OUTER_BOUND('',#300,.T.);
#194=CYLINDRICAL_SURFACE('',#301,5.25000000000003);
#195=CURVE_STYLE('',#302,POSITIVE_LENGTH_MEASURE(1.0E-006),#303);
#196=CIRCLE('',#304,5.60823386513009);
#197=SURFACE_STYLE_USAGE(.BOTH.,#305);
#198=FACE_OUTER_BOUND('',#306,.T.);
#199=SPHERICAL_SURFACE('',#307,15.0000000000001);
#200=CURVE_STYLE('',#308,POSITIVE_LENGTH_MEASURE(1.0E-006),#309);
#201=CIRCLE('',#310,10.5);
#202=CURVE_STYLE('',#311,POSITIVE_LENGTH_MEASURE(1.0E-006),#312);
#203=LINE('',#313,#314);
#204=POINT_STYLE(' ',#315,POSITIVE_LENGTH_MEASURE(1.0E-006),#316);
#205=CARTESIAN_POINT('',(5.25000000000006,7.4621813093675E-015,3.5));
#206=POINT_STYLE(' ',#317,POSITIVE_LENGTH_MEASURE(1.0E-006),#318);
#207=CARTESIAN_POINT('',(-5.25,5.04384735708596E-015,-2.8421709430404E-014));
#208=SURFACE_STYLE_USAGE(.BOTH.,#319);
#209=FACE_OUTER_BOUND('',#320,.T.);
#210=SPHERICAL_SURFACE('',#321,15.0000000000001);
#211=CURVE_STYLE('',#322,POSITIVE_LENGTH_MEASURE(1.0E-006),#323);
#212=LINE('',#324,#325);
#213=CURVE_STYLE('',#326,POSITIVE_LENGTH_MEASURE(1.0E-006),#327);
#214=LINE('',#328,#329);
#215=CURVE_STYLE('',#330,POSITIVE_LENGTH_MEASURE(1.0E-006),#331);
#216=CIRCLE('',#332,5.25000000000003);
#217=SURFACE_STYLE_USAGE(.BOTH.,#333);
#218=FACE_OUTER_BOUND('',#334,.T.);
#219=CYLINDRICAL_SURFACE('',#335,10.5);
#220=POINT_STYLE(' ',#336,POSITIVE_LENGTH_MEASURE(1.0E-006),#337);
#221=CARTESIAN_POINT('',(5.25000000000006,7.4621813093675E-015,-2.8421709430404E-014));
#222=SURFACE_STYLE_USAGE(.BOTH.,#338);
#223=FACE_OUTER_BOUND('',#339,.T.);
#224=CONICAL_SURFACE('',#340,5.50000000000003,0.785398163397448);
#225=CURVE_STYLE('',#341,POSITIVE_LENGTH_MEASURE(1.0E-006),#342);
#226=CIRCLE('',#343,15.0000000000001);
#227=SURFACE_STYLE_USAGE(.BOTH.,#344);
#228=FACE_OUTER_BOUND('',#345,.T.);
#229=FACE_BOUND('',#346,.T.);
#230=PLANE('',#347);
#231=CURVE_STYLE('',#348,POSITIVE_LENGTH_MEASURE(1.0E-006),#349);
#232=LINE('',#350,#351);
#233=CURVE_STYLE('',#352,POSITIVE_LENGTH_MEASURE(1.0E-006),#353);
#234=CIRCLE('',#354,5.75000000000003);
#235=CURVE_STYLE('',#355,POSITIVE_LENGTH_MEASURE(1.0E-006),#356);
#236=CIRCLE('',#357,5.60823386513009);
#237=CURVE_STYLE('',#358,POSITIVE_LENGTH_MEASURE(1.0E-006),#359);
#238=CIRCLE('',#360,5.25000000000003);
#239=POINT_STYLE(' ',#361,POSITIVE_LENGTH_MEASURE(1.0E-006),#362);
#240=CARTESIAN_POINT('',(-5.6082338651297,4.99997781034674E-015,-3.19744231092045E-014));
#241=CURVE_STYLE('',#363,POSITIVE_LENGTH_MEASURE(1.0E-006),#364);
#242=LINE('',#365,#366);
#243=POINT_STYLE(' ',#367,POSITIVE_LENGTH_MEASURE(1.0E-006),#368);
#244=CARTESIAN_POINT('',(10.5000000000001,8.99267565512781E-015,4.0));
#245=CURVE_STYLE('',#369,POSITIVE_LENGTH_MEASURE(1.0E-006),#370);
#246=CIRCLE('',#371,10.5);
#247=POINT_STYLE(' ',#372,POSITIVE_LENGTH_MEASURE(1.0E-006),#373);
#248=CARTESIAN_POINT('',(-10.5,4.64585029209369E-015,4.0));
#249=POINT_STYLE(' ',#374,POSITIVE_LENGTH_MEASURE(1.0E-006),#375);
#250=CARTESIAN_POINT('',(-10.4999999999999,4.5968660379408E-015,3.19999999999999));
#251=CURVE_STYLE('',#376,POSITIVE_LENGTH_MEASURE(1.0E-006),#377);
#252=CIRCLE('',#378,10.5);
#253=CURVE_STYLE('',#379,POSITIVE_LENGTH_MEASURE(1.0E-006),#380);
#254=CIRCLE('',#381,15.0000000000001);
#255=SURFACE_STYLE_USAGE(.BOTH.,#382);
#256=FACE_OUTER_BOUND('',#383,.T.);
#257=CONICAL_SURFACE('',#384,5.50000000000003,0.785398163397448);
#258=POINT_STYLE(' ',#385,POSITIVE_LENGTH_MEASURE(1.0E-006),#386);
#259=CARTESIAN_POINT('',(5.6082338651302,7.91218637161843E-015,-1.4210854715202E-014));
#260=POINT_STYLE(' ',#387,POSITIVE_LENGTH_MEASURE(1.0E-006),#388);
#261=CARTESIAN_POINT('',(-5.25,5.25815346900488E-015,3.5));
#262=CURVE_STYLE('',#389,POSITIVE_LENGTH_MEASURE(1.0E-006),#390);
#263=LINE('',#391,#392);
#264=POINT_STYLE(' ',#393,POSITIVE_LENGTH_MEASURE(1.0E-006),#394);
#265=CARTESIAN_POINT('',(10.5000000000001,9.11028394965338E-015,3.19999999999995));
#266=PRODUCT_CONTEXT('',#53,'mechanical');
#267=PRODUCT_DEFINITION_FORMATION_WITH_SPECIFIED_SOURCE(' ','NONE',#152,.NOT_KNOWN.);
#268=CARTESIAN_POINT('',(0.0,0.0,0.0));
#269=DIRECTION('',(0.0,0.0,1.0));
#270=DIRECTION('',(1.0,0.0,0.0));
#271= (NAMED_UNIT(#160)LENGTH_UNIT()SI_UNIT(.MILLI.,.METRE.));
#272=DRAUGHTING_PRE_DEFINED_CURVE_FONT('continuous');
#273=COLOUR_RGB('',0.509803950786591,0.509803950786591,0.588235318660736);
#274=AXIS2_PLACEMENT_3D('',#396,#397,#398);
#275=DRAUGHTING_PRE_DEFINED_CURVE_FONT('continuous');
#276=COLOUR_RGB('',0.509803950786591,0.509803950786591,0.588235318660736);
#277=AXIS2_PLACEMENT_3D('',#399,#400,#401);
#278=SURFACE_SIDE_STYLE('',(#402));
#279=EDGE_LOOP('',(#403,#404,#405,#406));
#280=AXIS2_PLACEMENT_3D('',#407,#408,#409);
#281=PRE_DEFINED_MARKER('');
#282=COLOUR_RGB('',0.509803950786591,0.509803950786591,0.588235318660736);
#283=PRE_DEFINED_MARKER('');
#284=COLOUR_RGB('',0.509803950786591,0.509803950786591,0.588235318660736);
#285=DRAUGHTING_PRE_DEFINED_CURVE_FONT('continuous');
#286=COLOUR_RGB('',0.509803950786591,0.509803950786591,0.588235318660736);
#287=AXIS2_PLACEMENT_3D('',#410,#411,#412);
#288=SURFACE_SIDE_STYLE('',(#413));
#289=SURFACE_SIDE_STYLE('',(#414));
#290=EDGE_LOOP('',(#415,#416));
#291=EDGE_LOOP('',(#417,#418));
#292=AXIS2_PLACEMENT_3D('',#419,#420,#421);
#293=SURFACE_SIDE_STYLE('',(#422));
#294=EDGE_LOOP('',(#423,#424,#425,#426));
#295=AXIS2_PLACEMENT_3D('',#427,#428,#429);
#296=DRAUGHTING_PRE_DEFINED_CURVE_FONT('continuous');
#297=COLOUR_RGB('',0.509803950786591,0.509803950786591,0.588235318660736);
#298=AXIS2_PLACEMENT_3D('',#430,#431,#432);
#299=SURFACE_SIDE_STYLE('',(#433));
#300=EDGE_LOOP('',(#434,#435,#436,#437));
#301=AXIS2_PLACEMENT_3D('',#438,#439,#440);
#302=DRAUGHTING_PRE_DEFINED_CURVE_FONT('continuous');
#303=COLOUR_RGB('',0.509803950786591,0.509803950786591,0.588235318660736);
#304=AXIS2_PLACEMENT_3D('',#441,#442,#443);
#305=SURFACE_SIDE_STYLE('',(#444));
#306=EDGE_LOOP('',(#445,#446,#447,#448));
#307=AXIS2_PLACEMENT_3D('',#449,#450,#451);
#308=DRAUGHTING_PRE_DEFINED_CURVE_FONT('continuous');
#309=COLOUR_RGB('',0.509803950786591,0.509803950786591,0.588235318660736);
#310=AXIS2_PLACEMENT_3D('',#452,#453,#454);
#311=DRAUGHTING_PRE_DEFINED_CURVE_FONT('continuous');
#312=COLOUR_RGB('',0.509803950786591,0.509803950786591,0.588235318660736);
#313=CARTESIAN_POINT('',(-10.5,2.87069827208656E-015,3.59999999999997));
#314=VECTOR('',#455,1.0);
#315=PRE_DEFINED_MARKER('');
#316=COLOUR_RGB('',0.509803950786591,0.509803950786591,0.588235318660736);
#317=PRE_DEFINED_MARKER('');
#318=COLOUR_RGB('',0.509803950786591,0.509803950786591,0.588235318660736);
#319=SURFACE_SIDE_STYLE('',(#456));
#320=EDGE_LOOP('',(#457,#458,#459,#460));
#321=AXIS2_PLACEMENT_3D('',#461,#462,#463);
#322=DRAUGHTING_PRE_DEFINED_CURVE_FONT('continuous');
#323=COLOUR_RGB('',0.509803950786591,0.509803950786591,0.588235318660736);
#324=CARTESIAN_POINT('',(5.50000000000006,7.53506199249895E-015,3.75));
#325=VECTOR('',#464,1.0);
#326=DRAUGHTING_PRE_DEFINED_CURVE_FONT('continuous');
#327=COLOUR_RGB('',0.509803950786591,0.509803950786591,0.588235318660736);
#328=CARTESIAN_POINT('',(-5.5,4.32831193471542E-015,3.75));
#329=VECTOR('',#465,1.0);
#330=DRAUGHTING_PRE_DEFINED_CURVE_FONT('continuous');
#331=COLOUR_RGB('',0.509803950786591,0.509803950786591,0.588235318660736);
#332=AXIS2_PLACEMENT_3D('',#466,#467,#468);
#333=SURFACE_SIDE_STYLE('',(#469));
#334=EDGE_LOOP('',(#470,#471,#472,#473));
#335=AXIS2_PLACEMENT_3D('',#474,#475,#476);
#336=PRE_DEFINED_MARKER('');
#337=COLOUR_RGB('',0.509803950786591,0.509803950786591,0.588235318660736);
#338=SURFACE_SIDE_STYLE('',(#477));
#339=EDGE_LOOP('',(#478,#479,#480,#481));
#340=AXIS2_PLACEMENT_3D('',#482,#483,#484);
#341=DRAUGHTING_PRE_DEFINED_CURVE_FONT('continuous');
#342=COLOUR_RGB('',0.509803950786591,0.509803950786591,0.588235318660736);
#343=AXIS2_PLACEMENT_3D('',#485,#486,#487);
#344=SURFACE_SIDE_STYLE('',(#488));
#345=EDGE_LOOP('',(#489,#490));
#346=EDGE_LOOP('',(#491,#492));
#347=AXIS2_PLACEMENT_3D('',#493,#494,#495);
#348=DRAUGHTING_PRE_DEFINED_CURVE_FONT('continuous');
#349=COLOUR_RGB('',0.509803950786591,0.509803950786591,0.588235318660736);
#350=CARTESIAN_POINT('',(10.5000000000001,8.99267565512781E-015,3.59999999999997));
#351=VECTOR('',#496,1.0);
#352=DRAUGHTING_PRE_DEFINED_CURVE_FONT('continuous');
#353=COLOUR_RGB('',0.509803950786591,0.509803950786591,0.588235318660736);
#354=AXIS2_PLACEMENT_3D('',#497,#498,#499);
#355=DRAUGHTING_PRE_DEFINED_CURVE_FONT('continuous');
#356=COLOUR_RGB('',0.509803950786591,0.509803950786591,0.588235318660736);
#357=AXIS2_PLACEMENT_3D('',#500,#501,#502);
#358=DRAUGHTING_PRE_DEFINED_CURVE_FONT('continuous');
#359=COLOUR_RGB('',0.509803950786591,0.509803950786591,0.588235318660736);
#360=AXIS2_PLACEMENT_3D('',#503,#504,#505);
#361=PRE_DEFINED_MARKER('');
#362=COLOUR_RGB('',0.509803950786591,0.509803950786591,0.588235318660736);
#363=DRAUGHTING_PRE_DEFINED_CURVE_FONT('continuous');
#364=COLOUR_RGB('',0.509803950786591,0.509803950786591,0.588235318660736);
#365=CARTESIAN_POINT('',(-5.25,4.40119261784687E-015,1.74999999999999));
#366=VECTOR('',#506,1.0);
#367=PRE_DEFINED_MARKER('');
#368=COLOUR_RGB('',0.509803950786591,0.509803950786591,0.588235318660736);
#369=DRAUGHTING_PRE_DEFINED_CURVE_FONT('continuous');
#370=COLOUR_RGB('',0.509803950786591,0.509803950786591,0.588235318660736);
#371=AXIS2_PLACEMENT_3D('',#507,#508,#509);
#372=PRE_DEFINED_MARKER('');
#373=COLOUR_RGB('',0.509803950786591,0.509803950786591,0.588235318660736);
#374=PRE_DEFINED_MARKER('');
#375=COLOUR_RGB('',0.509803950786591,0.509803950786591,0.588235318660736);
#376=DRAUGHTING_PRE_DEFINED_CURVE_FONT('continuous');
#377=COLOUR_RGB('',0.509803950786591,0.509803950786591,0.588235318660736);
#378=AXIS2_PLACEMENT_3D('',#510,#511,#512);
#379=DRAUGHTING_PRE_DEFINED_CURVE_FONT('continuous');
#380=COLOUR_RGB('',0.509803950786591,0.509803950786591,0.588235318660736);
#381=AXIS2_PLACEMENT_3D('',#513,#514,#515);
#382=SURFACE_SIDE_STYLE('',(#516));
#383=EDGE_LOOP('',(#517,#518,#519,#520));
#384=AXIS2_PLACEMENT_3D('',#521,#522,#523);
#385=PRE_DEFINED_MARKER('');
#386=COLOUR_RGB('',0.509803950786591,0.509803950786591,0.588235318660736);
#387=PRE_DEFINED_MARKER('');
#388=COLOUR_RGB('',0.509803950786591,0.509803950786591,0.588235318660736);
#389=DRAUGHTING_PRE_DEFINED_CURVE_FONT('continuous');
#390=COLOUR_RGB('',0.509803950786591,0.509803950786591,0.588235318660736);
#391=CARTESIAN_POINT('',(5.25000000000006,7.4621813093675E-015,1.74999999999999));
#392=VECTOR('',#524,1.0);
#393=PRE_DEFINED_MARKER('');
#394=COLOUR_RGB('',0.509803950786591,0.509803950786591,0.588235318660736);
#396=CARTESIAN_POINT('',(2.8421709430404E-014,5.93168696360719E-015,-2.8421709430404E-014));
#397=DIRECTION('',(-0.0,0.0,-1.0));
#398=DIRECTION('',(-1.0,-1.69062097143536E-016,0.0));
#399=CARTESIAN_POINT('',(2.8421709430404E-014,5.93168696360719E-015,4.0));
#400=DIRECTION('',(-0.0,0.0,-1.0));
#401=DIRECTION('',(-1.0,-1.69062097143536E-016,0.0));
#402=SURFACE_STYLE_FILL_AREA(#525);
#403=ORIENTED_EDGE('',*,*,#95,.T.);
#404=ORIENTED_EDGE('',*,*,#93,.T.);
#405=ORIENTED_EDGE('',*,*,#119,.T.);
#406=ORIENTED_EDGE('',*,*,#69,.T.);
#407=CARTESIAN_POINT('',(2.8421709430404E-014,5.93168696360719E-015,2.0));
#408=DIRECTION('',(0.0,-0.0,1.0));
#409=DIRECTION('',(-1.0,-1.69062097143536E-016,0.0));
#410=CARTESIAN_POINT('',(2.8421709430404E-014,5.93168696360719E-015,4.0));
#411=DIRECTION('',(-0.0,0.0,-1.0));
#412=DIRECTION('',(-1.0,-1.69062097143536E-016,0.0));
#413=SURFACE_STYLE_FILL_AREA(#526);
#414=SURFACE_STYLE_FILL_AREA(#527);
#415=ORIENTED_EDGE('',*,*,#123,.T.);
#416=ORIENTED_EDGE('',*,*,#89,.T.);
#417=ORIENTED_EDGE('',*,*,#67,.F.);
#418=ORIENTED_EDGE('',*,*,#107,.F.);
#419=CARTESIAN_POINT('',(-7.875,4.72238818920758E-015,-1.4210854715202E-014));
#420=DIRECTION('',(0.0,0.0,-1.0));
#421=DIRECTION('',(1.0,1.22460635382238E-016,0.0));
#422=SURFACE_STYLE_FILL_AREA(#528);
#423=ORIENTED_EDGE('',*,*,#129,.T.);
#424=ORIENTED_EDGE('',*,*,#67,.T.);
#425=ORIENTED_EDGE('',*,*,#149,.T.);
#426=ORIENTED_EDGE('',*,*,#85,.F.);
#427=CARTESIAN_POINT('',(2.8421709430404E-014,5.93168696360719E-015,1.74999999999999));
#428=DIRECTION('',(0.0,-0.0,1.0));
#429=DIRECTION('',(-1.0,-1.69062097143536E-016,0.0));
#430=CARTESIAN_POINT('',(2.8421709430404E-014,5.93168696360719E-015,3.5));
#431=DIRECTION('',(-0.0,0.0,-1.0));
#432=DIRECTION('',(-1.0,-1.69062097143536E-016,0.0));
#433=SURFACE_STYLE_FILL_AREA(#529);
#434=ORIENTED_EDGE('',*,*,#129,.F.);
#435=ORIENTED_EDGE('',*,*,#125,.F.);
#436=ORIENTED_EDGE('',*,*,#149,.F.);
#437=ORIENTED_EDGE('',*,*,#107,.T.);
#438=CARTESIAN_POINT('',(2.8421709430404E-014,5.93168696360719E-015,1.74999999999999));
#439=DIRECTION('',(0.0,-0.0,1.0));
#440=DIRECTION('',(-1.0,-1.69062097143536E-016,0.0));
#441=CARTESIAN_POINT('',(1.14575016141316E-013,6.5386106066264E-015,-1.4210854715202E-014));
#442=DIRECTION('',(0.0,0.0,-1.0));
#443=DIRECTION('',(0.0,-1.0,0.0));
#444=SURFACE_STYLE_FILL_AREA(#530);
#445=ORIENTED_EDGE('',*,*,#141,.F.);
#446=ORIENTED_EDGE('',*,*,#123,.F.);
#447=ORIENTED_EDGE('',*,*,#115,.F.);
#448=ORIENTED_EDGE('',*,*,#133,.F.);
#449=CARTESIAN_POINT('',(1.14575016141316E-013,6.5386106066264E-015,13.9121426428142));
#450=DIRECTION('',(0.0,0.0,-1.0));
#451=DIRECTION('',(1.0,1.22460635382238E-016,0.0));
#452=CARTESIAN_POINT('',(2.8421709430404E-014,5.93168696360719E-015,3.19999999999995));
#453=DIRECTION('',(0.0,0.0,1.0));
#454=DIRECTION('',(-1.0,-1.69062097143536E-016,0.0));
#455=DIRECTION('',(0.0,0.0,-1.0));
#456=SURFACE_STYLE_FILL_AREA(#531);
#457=ORIENTED_EDGE('',*,*,#141,.T.);
#458=ORIENTED_EDGE('',*,*,#93,.F.);
#459=ORIENTED_EDGE('',*,*,#115,.T.);
#460=ORIENTED_EDGE('',*,*,#89,.F.);
#461=CARTESIAN_POINT('',(1.14575016141316E-013,6.5386106066264E-015,13.9121426428142));
#462=DIRECTION('',(0.0,0.0,-1.0));
#463=DIRECTION('',(1.0,1.22460635382238E-016,0.0));
#464=DIRECTION('',(0.707106781186548,2.06137701039006E-016,0.707106781186547));
#465=DIRECTION('',(0.707106781186548,2.06137701039006E-016,-0.707106781186547));
#466=CARTESIAN_POINT('',(2.8421709430404E-014,5.93168696360719E-015,-2.8421709430404E-014));
#467=DIRECTION('',(-0.0,0.0,-1.0));
#468=DIRECTION('',(-1.0,-1.69062097143536E-016,0.0));
#469=SURFACE_STYLE_FILL_AREA(#532);
#470=ORIENTED_EDGE('',*,*,#95,.F.);
#471=ORIENTED_EDGE('',*,*,#139,.T.);
#472=ORIENTED_EDGE('',*,*,#119,.F.);
#473=ORIENTED_EDGE('',*,*,#133,.T.);
#474=CARTESIAN_POINT('',(2.8421709430404E-014,5.93168696360719E-015,2.0));
#475=DIRECTION('',(0.0,-0.0,1.0));
#476=DIRECTION('',(-1.0,-1.69062097143536E-016,0.0));
#477=SURFACE_STYLE_FILL_AREA(#533);
#478=ORIENTED_EDGE('',*,*,#105,.T.);
#479=ORIENTED_EDGE('',*,*,#85,.T.);
#480=ORIENTED_EDGE('',*,*,#103,.T.);
#481=ORIENTED_EDGE('',*,*,#77,.F.);
#482=CARTESIAN_POINT('',(2.8421709430404E-014,5.93168696360719E-015,3.75));
#483=DIRECTION('',(0.0,-0.0,1.0));
#484=DIRECTION('',(-1.0,-1.69062097143536E-016,0.0));
#485=CARTESIAN_POINT('',(1.14575016141316E-013,6.5386106066264E-015,13.9121426428142));
#486=DIRECTION('',(2.44921270764475E-016,-1.0,0.0));
#487=DIRECTION('',(-0.0,0.0,1.0));
#488=SURFACE_STYLE_FILL_AREA(#534);
#489=ORIENTED_EDGE('',*,*,#139,.F.);
#490=ORIENTED_EDGE('',*,*,#69,.F.);
#491=ORIENTED_EDGE('',*,*,#77,.T.);
#492=ORIENTED_EDGE('',*,*,#121,.T.);
#493=CARTESIAN_POINT('',(-8.125,4.9366943011265E-015,4.0));
#494=DIRECTION('',(0.0,0.0,1.0));
#495=DIRECTION('',(-1.0,-1.22460635382238E-016,0.0));
#496=DIRECTION('',(-0.0,-0.0,1.0));
#497=CARTESIAN_POINT('',(2.8421709430404E-014,5.93168696360719E-015,4.0));
#498=DIRECTION('',(-0.0,0.0,-1.0));
#499=DIRECTION('',(-1.0,-1.69062097143536E-016,0.0));
#500=CARTESIAN_POINT('',(1.14575016141316E-013,6.5386106066264E-015,-1.4210854715202E-014));
#501=DIRECTION('',(0.0,0.0,-1.0));
#502=DIRECTION('',(0.0,-1.0,0.0));
#503=CARTESIAN_POINT('',(2.8421709430404E-014,5.93168696360719E-015,3.5));
#504=DIRECTION('',(-0.0,0.0,-1.0));
#505=DIRECTION('',(-1.0,-1.69062097143536E-016,0.0));
#506=DIRECTION('',(0.0,0.0,-1.0));
#507=CARTESIAN_POINT('',(2.8421709430404E-014,5.93168696360719E-015,3.19999999999995));
#508=DIRECTION('',(0.0,0.0,1.0));
#509=DIRECTION('',(-1.0,-1.69062097143536E-016,0.0));
#510=CARTESIAN_POINT('',(2.8421709430404E-014,5.93168696360719E-015,4.0));
#511=DIRECTION('',(-0.0,0.0,-1.0));
#512=DIRECTION('',(-1.0,-1.69062097143536E-016,0.0));
#513=CARTESIAN_POINT('',(1.14575016141316E-013,6.5386106066264E-015,13.9121426428142));
#514=DIRECTION('',(2.44921270764475E-016,-1.0,0.0));
#515=DIRECTION('',(-0.0,0.0,1.0));
#516=SURFACE_STYLE_FILL_AREA(#535);
#517=ORIENTED_EDGE('',*,*,#105,.F.);
#518=ORIENTED_EDGE('',*,*,#121,.F.);
#519=ORIENTED_EDGE('',*,*,#103,.F.);
#520=ORIENTED_EDGE('',*,*,#125,.T.);
#521=CARTESIAN_POINT('',(2.8421709430404E-014,5.93168696360719E-015,3.75));
#522=DIRECTION('',(0.0,-0.0,1.0));
#523=DIRECTION('',(-1.0,-1.69062097143536E-016,0.0));
#524=DIRECTION('',(0.0,0.0,1.0));
#525=FILL_AREA_STYLE('',(#536));
#526=FILL_AREA_STYLE('',(#537));
#527=FILL_AREA_STYLE('',(#538));
#528=FILL_AREA_STYLE('',(#539));
#529=FILL_AREA_STYLE('',(#540));
#530=FILL_AREA_STYLE('',(#541));
#531=FILL_AREA_STYLE('',(#542));
#532=FILL_AREA_STYLE('',(#543));
#533=FILL_AREA_STYLE('',(#544));
#534=FILL_AREA_STYLE('',(#545));
#535=FILL_AREA_STYLE('',(#546));
#536=FILL_AREA_STYLE_COLOUR('',#547);
#537=FILL_AREA_STYLE_COLOUR('',#548);
#538=FILL_AREA_STYLE_COLOUR('',#549);
#539=FILL_AREA_STYLE_COLOUR('',#550);
#540=FILL_AREA_STYLE_COLOUR('',#551);
#541=FILL_AREA_STYLE_COLOUR('',#552);
#542=FILL_AREA_STYLE_COLOUR('',#553);
#543=FILL_AREA_STYLE_COLOUR('',#554);
#544=FILL_AREA_STYLE_COLOUR('',#555);
#545=FILL_AREA_STYLE_COLOUR('',#556);
#546=FILL_AREA_STYLE_COLOUR('',#557);
#547=COLOUR_RGB('',0.509803950786591,0.509803950786591,0.588235318660736);
#548=COLOUR_RGB('',0.509803950786591,0.509803950786591,0.588235318660736);
#549=COLOUR_RGB('',0.509803950786591,0.509803950786591,0.588235318660736);
#550=COLOUR_RGB('',0.509803950786591,0.509803950786591,0.588235318660736);
#551=COLOUR_RGB('',0.509803950786591,0.509803950786591,0.588235318660736);
#552=COLOUR_RGB('',0.509803950786591,0.509803950786591,0.588235318660736);
#553=COLOUR_RGB('',0.509803950786591,0.509803950786591,0.588235318660736);
#554=COLOUR_RGB('',0.509803950786591,0.509803950786591,0.588235318660736);
#555=COLOUR_RGB('',0.509803950786591,0.509803950786591,0.588235318660736);
#556=COLOUR_RGB('',0.509803950786591,0.509803950786591,0.588235318660736);
#557=COLOUR_RGB('',0.509803950786591,0.509803950786591,0.588235318660736);
ENDSEC;
END-ISO-10303-21;
