ISO-10303-21;
HEADER;
FILE_DESCRIPTION(('STEP AP214'),'1');
FILE_NAME(' ','  ',('TraceParts'),('TraceParts S.A.'),'XStep 1.0',' ',' ');
FILE_SCHEMA(('automotive_design'));
ENDSEC;
DATA;
#1=MECHANICAL_DESIGN_GEOMETRIC_PRESENTATION_REPRESENTATION(' ',(#10,#11,#12,#13,#14,#15,#16,#17,#18,#19,#20,#21,#22,#23,#24,#25,#26,#27,#28,#29,#30,#31,#32,#33,#34,#35,#36,#37,#38,#39,#40,#41,#42,#43,#44),#6);
#2=PRODUCT_DEFINITION_CONTEXT('',#45,'design');
#3=APPLICATION_PROTOCOL_DEFINITION('INTERNATIONAL STANDARD','automotive_design',1994,#45);
#4=PRODUCT_CATEGORY_RELATIONSHIP('NONE','NONE',#46,#47);
#5=SHAPE_DEFINITION_REPRESENTATION(#48,#49);
#6= (GEOMETRIC_REPRESENTATION_CONTEXT(3)GLOBAL_UNCERTAINTY_ASSIGNED_CONTEXT((#52))GLOBAL_UNIT_ASSIGNED_CONTEXT((#54,#55,#56))REPRESENTATION_CONTEXT('NONE','WORKSPACE'));
#10=STYLED_ITEM('',(#58),#59);
#11=STYLED_ITEM('',(#60),#61);
#12=STYLED_ITEM('',(#62),#63);
#13=STYLED_ITEM('',(#64),#65);
#14=STYLED_ITEM('',(#66),#67);
#15=STYLED_ITEM('',(#68),#69);
#16=STYLED_ITEM('',(#70),#71);
#17=STYLED_ITEM('',(#72),#73);
#18=STYLED_ITEM('',(#74),#75);
#19=STYLED_ITEM('',(#76),#77);
#20=STYLED_ITEM('',(#78),#79);
#21=STYLED_ITEM('',(#80),#81);
#22=STYLED_ITEM('',(#82),#83);
#23=STYLED_ITEM('',(#84),#85);
#24=STYLED_ITEM('',(#86),#87);
#25=STYLED_ITEM('',(#88),#89);
#26=STYLED_ITEM('',(#90),#91);
#27=STYLED_ITEM('',(#92),#93);
#28=STYLED_ITEM('',(#94),#95);
#29=STYLED_ITEM('',(#96),#97);
#30=STYLED_ITEM('',(#98),#99);
#31=STYLED_ITEM('',(#100),#101);
#32=STYLED_ITEM('',(#102),#103);
#33=STYLED_ITEM('',(#104),#105);
#34=STYLED_ITEM('',(#106),#107);
#35=STYLED_ITEM('',(#108),#109);
#36=STYLED_ITEM('',(#110),#111);
#37=STYLED_ITEM('',(#112),#113);
#38=STYLED_ITEM('',(#114),#115);
#39=STYLED_ITEM('',(#116),#117);
#40=STYLED_ITEM('',(#118),#119);
#41=STYLED_ITEM('',(#120),#121);
#42=STYLED_ITEM('',(#122),#123);
#43=STYLED_ITEM('',(#124),#125);
#44=STYLED_ITEM('',(#126),#127);
#45=APPLICATION_CONTEXT(' ');
#46=PRODUCT_CATEGORY('part','NONE');
#47=PRODUCT_RELATED_PRODUCT_CATEGORY('detail',' ',(#128));
#48=PRODUCT_DEFINITION_SHAPE('NONE','NONE',#129);
#49=ADVANCED_BREP_SHAPE_REPRESENTATION('1',(#61,#130),#6);
#52=UNCERTAINTY_MEASURE_WITH_UNIT(LENGTH_MEASURE(1.0E-006),#54,'','');
#54= (CONVERSION_BASED_UNIT('MILLIMETRE',#133)LENGTH_UNIT()NAMED_UNIT(#136));
#55= (NAMED_UNIT(#138)PLANE_ANGLE_UNIT()SI_UNIT($,.RADIAN.));
#56= (NAMED_UNIT(#138)SOLID_ANGLE_UNIT()SI_UNIT($,.STERADIAN.));
#58=PRESENTATION_STYLE_ASSIGNMENT((#144));
#59=EDGE_CURVE('',#95,#121,#145,.T.);
#60=PRESENTATION_STYLE_ASSIGNMENT((#146));
#61=MANIFOLD_SOLID_BREP('1',#147);
#62=PRESENTATION_STYLE_ASSIGNMENT((#148));
#63=EDGE_CURVE('',#93,#79,#149,.T.);
#64=PRESENTATION_STYLE_ASSIGNMENT((#150));
#65=EDGE_CURVE('',#93,#85,#151,.T.);
#66=PRESENTATION_STYLE_ASSIGNMENT((#152));
#67=ADVANCED_FACE('',(#153),#154,.T.);
#68=PRESENTATION_STYLE_ASSIGNMENT((#155));
#69=ADVANCED_FACE('',(#156,#157),#158,.T.);
#70=PRESENTATION_STYLE_ASSIGNMENT((#159));
#71=EDGE_CURVE('',#119,#85,#160,.T.);
#72=PRESENTATION_STYLE_ASSIGNMENT((#161));
#73=EDGE_CURVE('',#119,#79,#162,.T.);
#74=PRESENTATION_STYLE_ASSIGNMENT((#163));
#75=ADVANCED_FACE('',(#164,#165),#166,.T.);
#76=PRESENTATION_STYLE_ASSIGNMENT((#167));
#77=EDGE_CURVE('',#89,#95,#168,.T.);
#78=PRESENTATION_STYLE_ASSIGNMENT((#169));
#79=VERTEX_POINT('',#170);
#80=PRESENTATION_STYLE_ASSIGNMENT((#171));
#81=VERTEX_POINT('',#172);
#82=PRESENTATION_STYLE_ASSIGNMENT((#173));
#83=EDGE_CURVE('',#85,#93,#174,.T.);
#84=PRESENTATION_STYLE_ASSIGNMENT((#175));
#85=VERTEX_POINT('',#176);
#86=PRESENTATION_STYLE_ASSIGNMENT((#177));
#87=EDGE_CURVE('',#81,#123,#178,.T.);
#88=PRESENTATION_STYLE_ASSIGNMENT((#179));
#89=VERTEX_POINT('',#180);
#90=PRESENTATION_STYLE_ASSIGNMENT((#181));
#91=VERTEX_POINT('',#182);
#92=PRESENTATION_STYLE_ASSIGNMENT((#183));
#93=VERTEX_POINT('',#184);
#94=PRESENTATION_STYLE_ASSIGNMENT((#185));
#95=VERTEX_POINT('',#186);
#96=PRESENTATION_STYLE_ASSIGNMENT((#187));
#97=ADVANCED_FACE('',(#188),#189,.T.);
#98=PRESENTATION_STYLE_ASSIGNMENT((#190));
#99=EDGE_CURVE('',#89,#91,#191,.T.);
#100=PRESENTATION_STYLE_ASSIGNMENT((#192));
#101=EDGE_CURVE('',#121,#91,#193,.T.);
#102=PRESENTATION_STYLE_ASSIGNMENT((#194));
#103=EDGE_CURVE('',#91,#123,#195,.T.);
#104=PRESENTATION_STYLE_ASSIGNMENT((#196));
#105=ADVANCED_FACE('',(#197),#198,.F.);
#106=PRESENTATION_STYLE_ASSIGNMENT((#199));
#107=ADVANCED_FACE('',(#200),#201,.F.);
#108=PRESENTATION_STYLE_ASSIGNMENT((#202));
#109=EDGE_CURVE('',#91,#89,#203,.T.);
#110=PRESENTATION_STYLE_ASSIGNMENT((#204));
#111=ADVANCED_FACE('',(#205),#206,.F.);
#112=PRESENTATION_STYLE_ASSIGNMENT((#207));
#113=EDGE_CURVE('',#121,#95,#208,.T.);
#114=PRESENTATION_STYLE_ASSIGNMENT((#209));
#115=EDGE_CURVE('',#79,#119,#210,.T.);
#116=PRESENTATION_STYLE_ASSIGNMENT((#211));
#117=EDGE_CURVE('',#123,#81,#212,.T.);
#118=PRESENTATION_STYLE_ASSIGNMENT((#213));
#119=VERTEX_POINT('',#214);
#120=PRESENTATION_STYLE_ASSIGNMENT((#215));
#121=VERTEX_POINT('',#216);
#122=PRESENTATION_STYLE_ASSIGNMENT((#217));
#123=VERTEX_POINT('',#218);
#124=PRESENTATION_STYLE_ASSIGNMENT((#219));
#125=EDGE_CURVE('',#81,#89,#220,.T.);
#126=PRESENTATION_STYLE_ASSIGNMENT((#221));
#127=ADVANCED_FACE('',(#222),#223,.F.);
#128=PRODUCT('1','1','PART-1-DESC',(#224));
#129=PRODUCT_DEFINITION('NONE','NONE',#225,#2);
#130=AXIS2_PLACEMENT_3D('',#226,#227,#228);
#133=LENGTH_MEASURE_WITH_UNIT(LENGTH_MEASURE(1.0),#229);
#136=DIMENSIONAL_EXPONENTS(1.0,0.0,0.0,0.0,0.0,0.0,0.0);
#138=DIMENSIONAL_EXPONENTS(0.0,0.0,0.0,0.0,0.0,0.0,0.0);
#144=CURVE_STYLE('',#230,POSITIVE_LENGTH_MEASURE(1.0E-006),#231);
#145=CIRCLE('',#232,3.54999999999998);
#146=SURFACE_STYLE_USAGE(.BOTH.,#233);
#147=CLOSED_SHELL('',(#107,#67,#127,#111,#75,#97,#69,#105));
#148=CURVE_STYLE('',#234,POSITIVE_LENGTH_MEASURE(1.0E-006),#235);
#149=LINE('',#236,#237);
#150=CURVE_STYLE('',#238,POSITIVE_LENGTH_MEASURE(1.0E-006),#239);
#151=CIRCLE('',#240,5.99999999999997);
#152=SURFACE_STYLE_USAGE(.BOTH.,#241);
#153=FACE_OUTER_BOUND('',#242,.T.);
#154=CYLINDRICAL_SURFACE('',#243,5.99999999999997);
#155=SURFACE_STYLE_USAGE(.BOTH.,#244);
#156=FACE_BOUND('',#245,.T.);
#157=FACE_OUTER_BOUND('',#246,.T.);
#158=PLANE('',#247);
#159=CURVE_STYLE('',#248,POSITIVE_LENGTH_MEASURE(1.0E-006),#249);
#160=LINE('',#250,#251);
#161=CURVE_STYLE('',#252,POSITIVE_LENGTH_MEASURE(1.0E-006),#253);
#162=CIRCLE('',#254,5.99999999999997);
#163=SURFACE_STYLE_USAGE(.BOTH.,#255);
#164=FACE_OUTER_BOUND('',#256,.T.);
#165=FACE_BOUND('',#257,.T.);
#166=PLANE('',#258);
#167=CURVE_STYLE('',#259,POSITIVE_LENGTH_MEASURE(1.0E-006),#260);
#168=LINE('',#261,#262);
#169=POINT_STYLE(' ',#263,POSITIVE_LENGTH_MEASURE(1.0E-006),#264);
#170=CARTESIAN_POINT('',(-5.99999999999994,9.99086118305649E-015,-2.8421709430404E-014));
#171=POINT_STYLE(' ',#265,POSITIVE_LENGTH_MEASURE(1.0E-006),#266);
#172=CARTESIAN_POINT('',(-5.49999999999994,1.02235363902827E-014,2.79999999999998));
#173=CURVE_STYLE('',#267,POSITIVE_LENGTH_MEASURE(1.0E-006),#268);
#174=CIRCLE('',#269,5.99999999999997);
#175=POINT_STYLE(' ',#270,POSITIVE_LENGTH_MEASURE(1.0E-006),#271);
#176=CARTESIAN_POINT('',(6.0,1.26561504151242E-014,2.79999999999998));
#177=CURVE_STYLE('',#272,POSITIVE_LENGTH_MEASURE(1.0E-006),#273);
#178=CIRCLE('',#274,5.49999999999997);
#179=POINT_STYLE(' ',#275,POSITIVE_LENGTH_MEASURE(1.0E-006),#276);
#180=CARTESIAN_POINT('',(-3.54999999999995,1.03933995154951E-014,1.6741669750802));
#181=POINT_STYLE(' ',#277,POSITIVE_LENGTH_MEASURE(1.0E-006),#278);
#182=CARTESIAN_POINT('',(3.55000000000001,1.19378591986099E-014,1.6741669750802));
#183=POINT_STYLE(' ',#279,POSITIVE_LENGTH_MEASURE(1.0E-006),#280);
#184=CARTESIAN_POINT('',(-5.99999999999994,1.01623060725916E-014,2.79999999999998));
#185=POINT_STYLE(' ',#281,POSITIVE_LENGTH_MEASURE(1.0E-006),#282);
#186=CARTESIAN_POINT('',(-3.54999999999995,1.0290889739743E-014,-2.8421709430404E-014));
#187=SURFACE_STYLE_USAGE(.BOTH.,#283);
#188=FACE_OUTER_BOUND('',#284,.T.);
#189=CYLINDRICAL_SURFACE('',#285,5.99999999999997);
#190=CURVE_STYLE('',#286,POSITIVE_LENGTH_MEASURE(1.0E-006),#287);
#191=CIRCLE('',#288,3.54999999999998);
#192=CURVE_STYLE('',#289,POSITIVE_LENGTH_MEASURE(1.0E-006),#290);
#193=LINE('',#291,#292);
#194=CURVE_STYLE('',#293,POSITIVE_LENGTH_MEASURE(1.0E-006),#294);
#195=LINE('',#295,#296);
#196=SURFACE_STYLE_USAGE(.BOTH.,#297);
#197=FACE_OUTER_BOUND('',#298,.T.);
#198=CYLINDRICAL_SURFACE('',#299,3.54999999999998);
#199=SURFACE_STYLE_USAGE(.BOTH.,#300);
#200=FACE_OUTER_BOUND('',#301,.T.);
#201=CYLINDRICAL_SURFACE('',#302,3.54999999999998);
#202=CURVE_STYLE('',#303,POSITIVE_LENGTH_MEASURE(1.0E-006),#304);
#203=CIRCLE('',#305,3.54999999999998);
#204=SURFACE_STYLE_USAGE(.BOTH.,#306);
#205=FACE_OUTER_BOUND('',#307,.T.);
#206=CONICAL_SURFACE('',#308,4.52499999999998,1.04719755119659);
#207=CURVE_STYLE('',#309,POSITIVE_LENGTH_MEASURE(1.0E-006),#310);
#208=CIRCLE('',#311,3.54999999999998);
#209=CURVE_STYLE('',#312,POSITIVE_LENGTH_MEASURE(1.0E-006),#313);
#210=CIRCLE('',#314,5.99999999999997);
#211=CURVE_STYLE('',#315,POSITIVE_LENGTH_MEASURE(1.0E-006),#316);
#212=CIRCLE('',#317,5.49999999999997);
#213=POINT_STYLE(' ',#318,POSITIVE_LENGTH_MEASURE(1.0E-006),#319);
#214=CARTESIAN_POINT('',(6.0,1.26561504151242E-014,-2.8421709430404E-014));
#215=POINT_STYLE(' ',#320,POSITIVE_LENGTH_MEASURE(1.0E-006),#321);
#216=CARTESIAN_POINT('',(3.55000000000001,1.19378591986099E-014,-2.8421709430404E-014));
#217=POINT_STYLE(' ',#322,POSITIVE_LENGTH_MEASURE(1.0E-006),#323);
#218=CARTESIAN_POINT('',(5.5,1.25095603709376E-014,2.79999999999998));
#219=CURVE_STYLE('',#324,POSITIVE_LENGTH_MEASURE(1.0E-006),#325);
#220=LINE('',#326,#327);
#221=SURFACE_STYLE_USAGE(.BOTH.,#328);
#222=FACE_OUTER_BOUND('',#329,.T.);
#223=CONICAL_SURFACE('',#330,4.52499999999998,1.04719755119659);
#224=PRODUCT_CONTEXT('',#45,'mechanical');
#225=PRODUCT_DEFINITION_FORMATION_WITH_SPECIFIED_SOURCE(' ','NONE',#128,.NOT_KNOWN.);
#226=CARTESIAN_POINT('',(0.0,0.0,0.0));
#227=DIRECTION('',(0.0,0.0,1.0));
#228=DIRECTION('',(1.0,0.0,0.0));
#229= (NAMED_UNIT(#136)LENGTH_UNIT()SI_UNIT(.MILLI.,.METRE.));
#230=DRAUGHTING_PRE_DEFINED_CURVE_FONT('continuous');
#231=COLOUR_RGB('',0.509803950786591,0.509803950786591,0.588235318660736);
#232=AXIS2_PLACEMENT_3D('',#332,#333,#334);
#233=SURFACE_SIDE_STYLE('',(#335));
#234=DRAUGHTING_PRE_DEFINED_CURVE_FONT('continuous');
#235=COLOUR_RGB('',0.509803950786591,0.509803950786591,0.588235318660736);
#236=CARTESIAN_POINT('',(-5.99999999999994,9.13798935464588E-015,1.39999999999998));
#237=VECTOR('',#336,1.0);
#238=DRAUGHTING_PRE_DEFINED_CURVE_FONT('continuous');
#239=COLOUR_RGB('',0.509803950786591,0.509803950786591,0.588235318660736);
#240=AXIS2_PLACEMENT_3D('',#337,#338,#339);
#241=SURFACE_SIDE_STYLE('',(#340));
#242=EDGE_LOOP('',(#341,#342,#343,#344));
#243=AXIS2_PLACEMENT_3D('',#345,#346,#347);
#244=SURFACE_SIDE_STYLE('',(#348));
#245=EDGE_LOOP('',(#349,#350));
#246=EDGE_LOOP('',(#351,#352));
#247=AXIS2_PLACEMENT_3D('',#353,#354,#355);
#248=DRAUGHTING_PRE_DEFINED_CURVE_FONT('continuous');
#249=COLOUR_RGB('',0.509803950786591,0.509803950786591,0.588235318660736);
#250=CARTESIAN_POINT('',(6.0,1.26561504151242E-014,1.39999999999998));
#251=VECTOR('',#356,1.0);
#252=DRAUGHTING_PRE_DEFINED_CURVE_FONT('continuous');
#253=COLOUR_RGB('',0.509803950786591,0.509803950786591,0.588235318660736);
#254=AXIS2_PLACEMENT_3D('',#357,#358,#359);
#255=SURFACE_SIDE_STYLE('',(#360));
#256=EDGE_LOOP('',(#361,#362));
#257=EDGE_LOOP('',(#363,#364));
#258=AXIS2_PLACEMENT_3D('',#365,#366,#367);
#259=DRAUGHTING_PRE_DEFINED_CURVE_FONT('continuous');
#260=COLOUR_RGB('',0.509803950786591,0.509803950786591,0.588235318660736);
#261=CARTESIAN_POINT('',(-3.54999999999995,9.8562805711602E-015,0.837083487540085));
#262=VECTOR('',#368,1.0);
#263=PRE_DEFINED_MARKER('');
#264=COLOUR_RGB('',0.509803950786591,0.509803950786591,0.588235318660736);
#265=PRE_DEFINED_MARKER('');
#266=COLOUR_RGB('',0.509803950786591,0.509803950786591,0.588235318660736);
#267=DRAUGHTING_PRE_DEFINED_CURVE_FONT('continuous');
#268=COLOUR_RGB('',0.509803950786591,0.509803950786591,0.588235318660736);
#269=AXIS2_PLACEMENT_3D('',#369,#370,#371);
#270=PRE_DEFINED_MARKER('');
#271=COLOUR_RGB('',0.509803950786591,0.509803950786591,0.588235318660736);
#272=DRAUGHTING_PRE_DEFINED_CURVE_FONT('continuous');
#273=COLOUR_RGB('',0.509803950786591,0.509803950786591,0.588235318660736);
#274=AXIS2_PLACEMENT_3D('',#372,#373,#374);
#275=PRE_DEFINED_MARKER('');
#276=COLOUR_RGB('',0.509803950786591,0.509803950786591,0.588235318660736);
#277=PRE_DEFINED_MARKER('');
#278=COLOUR_RGB('',0.509803950786591,0.509803950786591,0.588235318660736);
#279=PRE_DEFINED_MARKER('');
#280=COLOUR_RGB('',0.509803950786591,0.509803950786591,0.588235318660736);
#281=PRE_DEFINED_MARKER('');
#282=COLOUR_RGB('',0.509803950786591,0.509803950786591,0.588235318660736);
#283=SURFACE_SIDE_STYLE('',(#375));
#284=EDGE_LOOP('',(#376,#377,#378,#379));
#285=AXIS2_PLACEMENT_3D('',#380,#381,#382);
#286=DRAUGHTING_PRE_DEFINED_CURVE_FONT('continuous');
#287=COLOUR_RGB('',0.509803950786591,0.509803950786591,0.588235318660736);
#288=AXIS2_PLACEMENT_3D('',#383,#384,#385);
#289=DRAUGHTING_PRE_DEFINED_CURVE_FONT('continuous');
#290=COLOUR_RGB('',0.509803950786591,0.509803950786591,0.588235318660736);
#291=CARTESIAN_POINT('',(3.55000000000001,1.19378591986099E-014,0.837083487540085));
#292=VECTOR('',#386,1.0);
#293=DRAUGHTING_PRE_DEFINED_CURVE_FONT('continuous');
#294=COLOUR_RGB('',0.509803950786591,0.509803950786591,0.588235318660736);
#295=CARTESIAN_POINT('',(4.52500000000001,1.22237097847738E-014,2.23708348754009));
#296=VECTOR('',#387,1.0);
#297=SURFACE_SIDE_STYLE('',(#388));
#298=EDGE_LOOP('',(#389,#390,#391,#392));
#299=AXIS2_PLACEMENT_3D('',#393,#394,#395);
#300=SURFACE_SIDE_STYLE('',(#396));
#301=EDGE_LOOP('',(#397,#398,#399,#400));
#302=AXIS2_PLACEMENT_3D('',#401,#402,#403);
#303=DRAUGHTING_PRE_DEFINED_CURVE_FONT('continuous');
#304=COLOUR_RGB('',0.509803950786591,0.509803950786591,0.588235318660736);
#305=AXIS2_PLACEMENT_3D('',#404,#405,#406);
#306=SURFACE_SIDE_STYLE('',(#407));
#307=EDGE_LOOP('',(#408,#409,#410,#411));
#308=AXIS2_PLACEMENT_3D('',#412,#413,#414);
#309=DRAUGHTING_PRE_DEFINED_CURVE_FONT('continuous');
#310=COLOUR_RGB('',0.509803950786591,0.509803950786591,0.588235318660736);
#311=AXIS2_PLACEMENT_3D('',#415,#416,#417);
#312=DRAUGHTING_PRE_DEFINED_CURVE_FONT('continuous');
#313=COLOUR_RGB('',0.509803950786591,0.509803950786591,0.588235318660736);
#314=AXIS2_PLACEMENT_3D('',#418,#419,#420);
#315=DRAUGHTING_PRE_DEFINED_CURVE_FONT('continuous');
#316=COLOUR_RGB('',0.509803950786591,0.509803950786591,0.588235318660736);
#317=AXIS2_PLACEMENT_3D('',#421,#422,#423);
#318=PRE_DEFINED_MARKER('');
#319=COLOUR_RGB('',0.509803950786591,0.509803950786591,0.588235318660736);
#320=PRE_DEFINED_MARKER('');
#321=COLOUR_RGB('',0.509803950786591,0.509803950786591,0.588235318660736);
#322=PRE_DEFINED_MARKER('');
#323=COLOUR_RGB('',0.509803950786591,0.509803950786591,0.588235318660736);
#324=DRAUGHTING_PRE_DEFINED_CURVE_FONT('continuous');
#325=COLOUR_RGB('',0.509803950786591,0.509803950786591,0.588235318660736);
#326=CARTESIAN_POINT('',(-4.52499999999995,9.57042998499634E-015,2.23708348754009));
#327=VECTOR('',#424,1.0);
#328=SURFACE_SIDE_STYLE('',(#425));
#329=EDGE_LOOP('',(#426,#427,#428,#429));
#330=AXIS2_PLACEMENT_3D('',#430,#431,#432);
#332=CARTESIAN_POINT('',(2.8421709430404E-014,1.0897069884885E-014,-2.8421709430404E-014));
#333=DIRECTION('',(-0.0,0.0,-1.0));
#334=DIRECTION('',(-1.0,-1.70719452990959E-016,0.0));
#335=SURFACE_STYLE_FILL_AREA(#433);
#336=DIRECTION('',(0.0,0.0,-1.0));
#337=CARTESIAN_POINT('',(2.8421709430404E-014,1.0897069884885E-014,2.79999999999998));
#338=DIRECTION('',(-0.0,0.0,-1.0));
#339=DIRECTION('',(-1.0,-1.70719452990959E-016,0.0));
#340=SURFACE_STYLE_FILL_AREA(#434);
#341=ORIENTED_EDGE('',*,*,#63,.F.);
#342=ORIENTED_EDGE('',*,*,#65,.T.);
#343=ORIENTED_EDGE('',*,*,#71,.F.);
#344=ORIENTED_EDGE('',*,*,#115,.F.);
#345=CARTESIAN_POINT('',(2.8421709430404E-014,1.0897069884885E-014,1.39999999999998));
#346=DIRECTION('',(0.0,-0.0,1.0));
#347=DIRECTION('',(-1.0,-1.70719452990959E-016,0.0));
#348=SURFACE_STYLE_FILL_AREA(#435);
#349=ORIENTED_EDGE('',*,*,#59,.F.);
#350=ORIENTED_EDGE('',*,*,#113,.F.);
#351=ORIENTED_EDGE('',*,*,#115,.T.);
#352=ORIENTED_EDGE('',*,*,#73,.T.);
#353=CARTESIAN_POINT('',(-4.77499999999995,1.01408754613997E-014,-2.8421709430404E-014));
#354=DIRECTION('',(0.0,0.0,-1.0));
#355=DIRECTION('',(1.0,1.22460635382238E-016,0.0));
#356=DIRECTION('',(-0.0,-0.0,1.0));
#357=CARTESIAN_POINT('',(2.8421709430404E-014,1.0897069884885E-014,-2.8421709430404E-014));
#358=DIRECTION('',(-0.0,0.0,-1.0));
#359=DIRECTION('',(-1.0,-1.70719452990959E-016,0.0));
#360=SURFACE_STYLE_FILL_AREA(#436);
#361=ORIENTED_EDGE('',*,*,#65,.F.);
#362=ORIENTED_EDGE('',*,*,#83,.F.);
#363=ORIENTED_EDGE('',*,*,#87,.T.);
#364=ORIENTED_EDGE('',*,*,#117,.T.);
#365=CARTESIAN_POINT('',(-5.74999999999994,1.01929212314372E-014,2.79999999999998));
#366=DIRECTION('',(0.0,0.0,1.0));
#367=DIRECTION('',(-1.0,-1.22460635382238E-016,0.0));
#368=DIRECTION('',(0.0,0.0,-1.0));
#369=CARTESIAN_POINT('',(2.8421709430404E-014,1.0897069884885E-014,2.79999999999998));
#370=DIRECTION('',(-0.0,0.0,-1.0));
#371=DIRECTION('',(-1.0,-1.70719452990959E-016,0.0));
#372=CARTESIAN_POINT('',(2.8421709430404E-014,1.0897069884885E-014,2.79999999999998));
#373=DIRECTION('',(-0.0,0.0,-1.0));
#374=DIRECTION('',(-1.0,-1.70719452990959E-016,0.0));
#375=SURFACE_STYLE_FILL_AREA(#437);
#376=ORIENTED_EDGE('',*,*,#63,.T.);
#377=ORIENTED_EDGE('',*,*,#73,.F.);
#378=ORIENTED_EDGE('',*,*,#71,.T.);
#379=ORIENTED_EDGE('',*,*,#83,.T.);
#380=CARTESIAN_POINT('',(2.8421709430404E-014,1.0897069884885E-014,1.39999999999998));
#381=DIRECTION('',(0.0,-0.0,1.0));
#382=DIRECTION('',(-1.0,-1.70719452990959E-016,0.0));
#383=CARTESIAN_POINT('',(2.8421709430404E-014,1.0897069884885E-014,1.6741669750802));
#384=DIRECTION('',(-0.0,0.0,-1.0));
#385=DIRECTION('',(-1.0,-1.70719452990959E-016,0.0));
#386=DIRECTION('',(0.0,0.0,1.0));
#387=DIRECTION('',(0.866025403784434,2.53901404414954E-016,0.500000000000007));
#388=SURFACE_STYLE_FILL_AREA(#438);
#389=ORIENTED_EDGE('',*,*,#77,.T.);
#390=ORIENTED_EDGE('',*,*,#59,.T.);
#391=ORIENTED_EDGE('',*,*,#101,.T.);
#392=ORIENTED_EDGE('',*,*,#99,.F.);
#393=CARTESIAN_POINT('',(2.8421709430404E-014,1.0897069884885E-014,0.837083487540085));
#394=DIRECTION('',(0.0,-0.0,1.0));
#395=DIRECTION('',(-1.0,-1.70719452990959E-016,0.0));
#396=SURFACE_STYLE_FILL_AREA(#439);
#397=ORIENTED_EDGE('',*,*,#77,.F.);
#398=ORIENTED_EDGE('',*,*,#109,.F.);
#399=ORIENTED_EDGE('',*,*,#101,.F.);
#400=ORIENTED_EDGE('',*,*,#113,.T.);
#401=CARTESIAN_POINT('',(2.8421709430404E-014,1.0897069884885E-014,0.837083487540085));
#402=DIRECTION('',(0.0,-0.0,1.0));
#403=DIRECTION('',(-1.0,-1.70719452990959E-016,0.0));
#404=CARTESIAN_POINT('',(2.8421709430404E-014,1.0897069884885E-014,1.6741669750802));
#405=DIRECTION('',(-0.0,0.0,-1.0));
#406=DIRECTION('',(-1.0,-1.70719452990959E-016,0.0));
#407=SURFACE_STYLE_FILL_AREA(#440);
#408=ORIENTED_EDGE('',*,*,#125,.T.);
#409=ORIENTED_EDGE('',*,*,#99,.T.);
#410=ORIENTED_EDGE('',*,*,#103,.T.);
#411=ORIENTED_EDGE('',*,*,#87,.F.);
#412=CARTESIAN_POINT('',(2.8421709430404E-014,1.0897069884885E-014,2.23708348754009));
#413=DIRECTION('',(0.0,-0.0,1.0));
#414=DIRECTION('',(-1.0,-1.70719452990959E-016,0.0));
#415=CARTESIAN_POINT('',(2.8421709430404E-014,1.0897069884885E-014,-2.8421709430404E-014));
#416=DIRECTION('',(-0.0,0.0,-1.0));
#417=DIRECTION('',(-1.0,-1.70719452990959E-016,0.0));
#418=CARTESIAN_POINT('',(2.8421709430404E-014,1.0897069884885E-014,-2.8421709430404E-014));
#419=DIRECTION('',(-0.0,0.0,-1.0));
#420=DIRECTION('',(-1.0,-1.70719452990959E-016,0.0));
#421=CARTESIAN_POINT('',(2.8421709430404E-014,1.0897069884885E-014,2.79999999999998));
#422=DIRECTION('',(-0.0,0.0,-1.0));
#423=DIRECTION('',(-1.0,-1.70719452990959E-016,0.0));
#424=DIRECTION('',(0.866025403784434,2.53901404414954E-016,-0.500000000000007));
#425=SURFACE_STYLE_FILL_AREA(#441);
#426=ORIENTED_EDGE('',*,*,#125,.F.);
#427=ORIENTED_EDGE('',*,*,#117,.F.);
#428=ORIENTED_EDGE('',*,*,#103,.F.);
#429=ORIENTED_EDGE('',*,*,#109,.T.);
#430=CARTESIAN_POINT('',(2.8421709430404E-014,1.0897069884885E-014,2.23708348754009));
#431=DIRECTION('',(0.0,-0.0,1.0));
#432=DIRECTION('',(-1.0,-1.70719452990959E-016,0.0));
#433=FILL_AREA_STYLE('',(#442));
#434=FILL_AREA_STYLE('',(#443));
#435=FILL_AREA_STYLE('',(#444));
#436=FILL_AREA_STYLE('',(#445));
#437=FILL_AREA_STYLE('',(#446));
#438=FILL_AREA_STYLE('',(#447));
#439=FILL_AREA_STYLE('',(#448));
#440=FILL_AREA_STYLE('',(#449));
#441=FILL_AREA_STYLE('',(#450));
#442=FILL_AREA_STYLE_COLOUR('',#451);
#443=FILL_AREA_STYLE_COLOUR('',#452);
#444=FILL_AREA_STYLE_COLOUR('',#453);
#445=FILL_AREA_STYLE_COLOUR('',#454);
#446=FILL_AREA_STYLE_COLOUR('',#455);
#447=FILL_AREA_STYLE_COLOUR('',#456);
#448=FILL_AREA_STYLE_COLOUR('',#457);
#449=FILL_AREA_STYLE_COLOUR('',#458);
#450=FILL_AREA_STYLE_COLOUR('',#459);
#451=COLOUR_RGB('',0.509803950786591,0.509803950786591,0.588235318660736);
#452=COLOUR_RGB('',0.509803950786591,0.509803950786591,0.588235318660736);
#453=COLOUR_RGB('',0.509803950786591,0.509803950786591,0.588235318660736);
#454=COLOUR_RGB('',0.509803950786591,0.509803950786591,0.588235318660736);
#455=COLOUR_RGB('',0.509803950786591,0.509803950786591,0.588235318660736);
#456=COLOUR_RGB('',0.509803950786591,0.509803950786591,0.588235318660736);
#457=COLOUR_RGB('',0.509803950786591,0.509803950786591,0.588235318660736);
#458=COLOUR_RGB('',0.509803950786591,0.509803950786591,0.588235318660736);
#459=COLOUR_RGB('',0.509803950786591,0.509803950786591,0.588235318660736);
ENDSEC;
END-ISO-10303-21;
