ISO-10303-21;
HEADER;
FILE_DESCRIPTION(('STEP AP214'),'1');
FILE_NAME(' ','  ',('TraceParts'),('TraceParts S.A.'),'XStep 1.0',' ',' ');
FILE_SCHEMA(('automotive_design'));
ENDSEC;
DATA;
#1=MECHANICAL_DESIGN_GEOMETRIC_PRESENTATION_REPRESENTATION(' ',(#10,#11,#12,#13,#14,#15,#16,#17,#18,#19,#20,#21,#22,#23,#24,#25,#26,#27,#28,#29,#30,#31,#32,#33,#34,#35,#36,#37,#38,#39,#40,#41,#42,#43,#44),#6);
#2=PRODUCT_DEFINITION_CONTEXT('',#45,'design');
#3=APPLICATION_PROTOCOL_DEFINITION('INTERNATIONAL STANDARD','automotive_design',1994,#45);
#4=PRODUCT_CATEGORY_RELATIONSHIP('NONE','NONE',#46,#47);
#5=SHAPE_DEFINITION_REPRESENTATION(#48,#49);
#6= (GEOMETRIC_REPRESENTATION_CONTEXT(3)GLOBAL_UNCERTAINTY_ASSIGNED_CONTEXT((#52))GLOBAL_UNIT_ASSIGNED_CONTEXT((#54,#55,#56))REPRESENTATION_CONTEXT('NONE','WORKSPACE'));
#10=STYLED_ITEM('',(#58),#59);
#11=STYLED_ITEM('',(#60),#61);
#12=STYLED_ITEM('',(#62),#63);
#13=STYLED_ITEM('',(#64),#65);
#14=STYLED_ITEM('',(#66),#67);
#15=STYLED_ITEM('',(#68),#69);
#16=STYLED_ITEM('',(#70),#71);
#17=STYLED_ITEM('',(#72),#73);
#18=STYLED_ITEM('',(#74),#75);
#19=STYLED_ITEM('',(#76),#77);
#20=STYLED_ITEM('',(#78),#79);
#21=STYLED_ITEM('',(#80),#81);
#22=STYLED_ITEM('',(#82),#83);
#23=STYLED_ITEM('',(#84),#85);
#24=STYLED_ITEM('',(#86),#87);
#25=STYLED_ITEM('',(#88),#89);
#26=STYLED_ITEM('',(#90),#91);
#27=STYLED_ITEM('',(#92),#93);
#28=STYLED_ITEM('',(#94),#95);
#29=STYLED_ITEM('',(#96),#97);
#30=STYLED_ITEM('',(#98),#99);
#31=STYLED_ITEM('',(#100),#101);
#32=STYLED_ITEM('',(#102),#103);
#33=STYLED_ITEM('',(#104),#105);
#34=STYLED_ITEM('',(#106),#107);
#35=STYLED_ITEM('',(#108),#109);
#36=STYLED_ITEM('',(#110),#111);
#37=STYLED_ITEM('',(#112),#113);
#38=STYLED_ITEM('',(#114),#115);
#39=STYLED_ITEM('',(#116),#117);
#40=STYLED_ITEM('',(#118),#119);
#41=STYLED_ITEM('',(#120),#121);
#42=STYLED_ITEM('',(#122),#123);
#43=STYLED_ITEM('',(#124),#125);
#44=STYLED_ITEM('',(#126),#127);
#45=APPLICATION_CONTEXT(' ');
#46=PRODUCT_CATEGORY('part','NONE');
#47=PRODUCT_RELATED_PRODUCT_CATEGORY('detail',' ',(#128));
#48=PRODUCT_DEFINITION_SHAPE('NONE','NONE',#129);
#49=ADVANCED_BREP_SHAPE_REPRESENTATION('1',(#99,#130),#6);
#52=UNCERTAINTY_MEASURE_WITH_UNIT(LENGTH_MEASURE(1.0E-006),#54,'','');
#54= (CONVERSION_BASED_UNIT('MILLIMETRE',#133)LENGTH_UNIT()NAMED_UNIT(#136));
#55= (NAMED_UNIT(#138)PLANE_ANGLE_UNIT()SI_UNIT($,.RADIAN.));
#56= (NAMED_UNIT(#138)SOLID_ANGLE_UNIT()SI_UNIT($,.STERADIAN.));
#58=PRESENTATION_STYLE_ASSIGNMENT((#144));
#59=ADVANCED_FACE('',(#145),#146,.F.);
#60=PRESENTATION_STYLE_ASSIGNMENT((#147));
#61=EDGE_CURVE('',#81,#71,#148,.T.);
#62=PRESENTATION_STYLE_ASSIGNMENT((#149));
#63=EDGE_CURVE('',#83,#97,#150,.T.);
#64=PRESENTATION_STYLE_ASSIGNMENT((#151));
#65=VERTEX_POINT('',#152);
#66=PRESENTATION_STYLE_ASSIGNMENT((#153));
#67=EDGE_CURVE('',#65,#119,#154,.T.);
#68=PRESENTATION_STYLE_ASSIGNMENT((#155));
#69=EDGE_CURVE('',#71,#81,#156,.T.);
#70=PRESENTATION_STYLE_ASSIGNMENT((#157));
#71=VERTEX_POINT('',#158);
#72=PRESENTATION_STYLE_ASSIGNMENT((#159));
#73=ADVANCED_FACE('',(#160,#161),#162,.T.);
#74=PRESENTATION_STYLE_ASSIGNMENT((#163));
#75=ADVANCED_FACE('',(#164),#165,.F.);
#76=PRESENTATION_STYLE_ASSIGNMENT((#166));
#77=ADVANCED_FACE('',(#167),#168,.F.);
#78=PRESENTATION_STYLE_ASSIGNMENT((#169));
#79=EDGE_CURVE('',#119,#65,#170,.T.);
#80=PRESENTATION_STYLE_ASSIGNMENT((#171));
#81=VERTEX_POINT('',#172);
#82=PRESENTATION_STYLE_ASSIGNMENT((#173));
#83=VERTEX_POINT('',#174);
#84=PRESENTATION_STYLE_ASSIGNMENT((#175));
#85=EDGE_CURVE('',#97,#83,#176,.T.);
#86=PRESENTATION_STYLE_ASSIGNMENT((#177));
#87=ADVANCED_FACE('',(#178),#179,.T.);
#88=PRESENTATION_STYLE_ASSIGNMENT((#180));
#89=EDGE_CURVE('',#115,#125,#181,.T.);
#90=PRESENTATION_STYLE_ASSIGNMENT((#182));
#91=EDGE_CURVE('',#93,#101,#183,.T.);
#92=PRESENTATION_STYLE_ASSIGNMENT((#184));
#93=VERTEX_POINT('',#185);
#94=PRESENTATION_STYLE_ASSIGNMENT((#186));
#95=ADVANCED_FACE('',(#187),#188,.T.);
#96=PRESENTATION_STYLE_ASSIGNMENT((#189));
#97=VERTEX_POINT('',#190);
#98=PRESENTATION_STYLE_ASSIGNMENT((#191));
#99=MANIFOLD_SOLID_BREP('1',#192);
#100=PRESENTATION_STYLE_ASSIGNMENT((#193));
#101=VERTEX_POINT('',#194);
#102=PRESENTATION_STYLE_ASSIGNMENT((#195));
#103=ADVANCED_FACE('',(#196),#197,.F.);
#104=PRESENTATION_STYLE_ASSIGNMENT((#198));
#105=EDGE_CURVE('',#101,#93,#199,.T.);
#106=PRESENTATION_STYLE_ASSIGNMENT((#200));
#107=EDGE_CURVE('',#97,#101,#201,.T.);
#108=PRESENTATION_STYLE_ASSIGNMENT((#202));
#109=ADVANCED_FACE('',(#203,#204),#205,.T.);
#110=PRESENTATION_STYLE_ASSIGNMENT((#206));
#111=EDGE_CURVE('',#125,#115,#207,.T.);
#112=PRESENTATION_STYLE_ASSIGNMENT((#208));
#113=EDGE_CURVE('',#101,#125,#209,.T.);
#114=PRESENTATION_STYLE_ASSIGNMENT((#210));
#115=VERTEX_POINT('',#211);
#116=PRESENTATION_STYLE_ASSIGNMENT((#212));
#117=EDGE_CURVE('',#93,#83,#213,.T.);
#118=PRESENTATION_STYLE_ASSIGNMENT((#214));
#119=VERTEX_POINT('',#215);
#120=PRESENTATION_STYLE_ASSIGNMENT((#216));
#121=EDGE_CURVE('',#81,#119,#217,.T.);
#122=PRESENTATION_STYLE_ASSIGNMENT((#218));
#123=EDGE_CURVE('',#65,#71,#219,.T.);
#124=PRESENTATION_STYLE_ASSIGNMENT((#220));
#125=VERTEX_POINT('',#221);
#126=PRESENTATION_STYLE_ASSIGNMENT((#222));
#127=EDGE_CURVE('',#115,#93,#223,.T.);
#128=PRODUCT('1','1','PART-1-DESC',(#224));
#129=PRODUCT_DEFINITION('NONE','NONE',#225,#2);
#130=AXIS2_PLACEMENT_3D('',#226,#227,#228);
#133=LENGTH_MEASURE_WITH_UNIT(LENGTH_MEASURE(1.0),#229);
#136=DIMENSIONAL_EXPONENTS(1.0,0.0,0.0,0.0,0.0,0.0,0.0);
#138=DIMENSIONAL_EXPONENTS(0.0,0.0,0.0,0.0,0.0,0.0,0.0);
#144=SURFACE_STYLE_USAGE(.BOTH.,#230);
#145=FACE_OUTER_BOUND('',#231,.T.);
#146=CYLINDRICAL_SURFACE('',#232,28.0);
#147=CURVE_STYLE('',#233,POSITIVE_LENGTH_MEASURE(1.0E-006),#234);
#148=CIRCLE('',#235,46.0);
#149=CURVE_STYLE('',#236,POSITIVE_LENGTH_MEASURE(1.0E-006),#237);
#150=CIRCLE('',#238,28.0);
#151=POINT_STYLE(' ',#239,POSITIVE_LENGTH_MEASURE(1.0E-006),#240);
#152=CARTESIAN_POINT('',(46.0,2.69218747980758E-014,-2.8421709430404E-014));
#153=CURVE_STYLE('',#241,POSITIVE_LENGTH_MEASURE(1.0E-006),#242);
#154=CIRCLE('',#243,46.0);
#155=CURVE_STYLE('',#244,POSITIVE_LENGTH_MEASURE(1.0E-006),#245);
#156=CIRCLE('',#246,46.0);
#157=POINT_STYLE(' ',#247,POSITIVE_LENGTH_MEASURE(1.0E-006),#248);
#158=CARTESIAN_POINT('',(46.0,2.69218747980758E-014,22.0));
#159=SURFACE_STYLE_USAGE(.BOTH.,#249);
#160=FACE_OUTER_BOUND('',#250,.T.);
#161=FACE_BOUND('',#251,.T.);
#162=PLANE('',#252);
#163=SURFACE_STYLE_USAGE(.BOTH.,#253);
#164=FACE_OUTER_BOUND('',#254,.T.);
#165=CYLINDRICAL_SURFACE('',#255,28.0);
#166=SURFACE_STYLE_USAGE(.BOTH.,#256);
#167=FACE_OUTER_BOUND('',#257,.T.);
#168=CONICAL_SURFACE('',#258,34.5,1.04719755119659);
#169=CURVE_STYLE('',#259,POSITIVE_LENGTH_MEASURE(1.0E-006),#260);
#170=CIRCLE('',#261,46.0);
#171=POINT_STYLE(' ',#262,POSITIVE_LENGTH_MEASURE(1.0E-006),#263);
#172=CARTESIAN_POINT('',(-46.0,7.81106187325266E-015,22.0));
#173=POINT_STYLE(' ',#264,POSITIVE_LENGTH_MEASURE(1.0E-006),#265);
#174=CARTESIAN_POINT('',(-28.0,8.66828632092833E-015,-2.8421709430404E-014));
#175=CURVE_STYLE('',#266,POSITIVE_LENGTH_MEASURE(1.0E-006),#267);
#176=CIRCLE('',#268,28.0);
#177=SURFACE_STYLE_USAGE(.BOTH.,#269);
#178=FACE_OUTER_BOUND('',#270,.T.);
#179=CYLINDRICAL_SURFACE('',#271,46.0);
#180=CURVE_STYLE('',#272,POSITIVE_LENGTH_MEASURE(1.0E-006),#273);
#181=CIRCLE('',#274,41.0);
#182=CURVE_STYLE('',#275,POSITIVE_LENGTH_MEASURE(1.0E-006),#276);
#183=CIRCLE('',#277,28.0);
#184=POINT_STYLE(' ',#278,POSITIVE_LENGTH_MEASURE(1.0E-006),#279);
#185=CARTESIAN_POINT('',(-28.0,9.55578588491299E-015,14.4944465005347));
#186=SURFACE_STYLE_USAGE(.BOTH.,#280);
#187=FACE_OUTER_BOUND('',#281,.T.);
#188=CYLINDRICAL_SURFACE('',#282,46.0);
#189=POINT_STYLE(' ',#283,POSITIVE_LENGTH_MEASURE(1.0E-006),#284);
#190=CARTESIAN_POINT('',(28.0,2.16480220469818E-014,-2.8421709430404E-014));
#191=SURFACE_STYLE_USAGE(.BOTH.,#285);
#192=CLOSED_SHELL('',(#75,#95,#77,#103,#73,#87,#109,#59));
#193=POINT_STYLE(' ',#286,POSITIVE_LENGTH_MEASURE(1.0E-006),#287);
#194=CARTESIAN_POINT('',(28.0,2.16480220469818E-014,14.4944465005347));
#195=SURFACE_STYLE_USAGE(.BOTH.,#288);
#196=FACE_OUTER_BOUND('',#289,.T.);
#197=CONICAL_SURFACE('',#290,34.5,1.04719755119659);
#198=CURVE_STYLE('',#291,POSITIVE_LENGTH_MEASURE(1.0E-006),#292);
#199=CIRCLE('',#293,28.0);
#200=CURVE_STYLE('',#294,POSITIVE_LENGTH_MEASURE(1.0E-006),#295);
#201=LINE('',#296,#297);
#202=SURFACE_STYLE_USAGE(.BOTH.,#298);
#203=FACE_BOUND('',#299,.T.);
#204=FACE_OUTER_BOUND('',#300,.T.);
#205=PLANE('',#301);
#206=CURVE_STYLE('',#302,POSITIVE_LENGTH_MEASURE(1.0E-006),#303);
#207=CIRCLE('',#304,41.0);
#208=CURVE_STYLE('',#305,POSITIVE_LENGTH_MEASURE(1.0E-006),#306);
#209=LINE('',#307,#308);
#210=POINT_STYLE(' ',#309,POSITIVE_LENGTH_MEASURE(1.0E-006),#310);
#211=CARTESIAN_POINT('',(-41.0,8.42336505016385E-015,22.0));
#212=CURVE_STYLE('',#311,POSITIVE_LENGTH_MEASURE(1.0E-006),#312);
#213=LINE('',#313,#314);
#214=POINT_STYLE(' ',#315,POSITIVE_LENGTH_MEASURE(1.0E-006),#316);
#215=CARTESIAN_POINT('',(-46.0,6.46399488404805E-015,-2.8421709430404E-014));
#216=CURVE_STYLE('',#317,POSITIVE_LENGTH_MEASURE(1.0E-006),#318);
#217=LINE('',#319,#320);
#218=CURVE_STYLE('',#321,POSITIVE_LENGTH_MEASURE(1.0E-006),#322);
#219=LINE('',#323,#324);
#220=POINT_STYLE(' ',#325,POSITIVE_LENGTH_MEASURE(1.0E-006),#326);
#221=CARTESIAN_POINT('',(41.0,2.54569157005497E-014,22.0));
#222=CURVE_STYLE('',#327,POSITIVE_LENGTH_MEASURE(1.0E-006),#328);
#223=LINE('',#329,#330);
#224=PRODUCT_CONTEXT('',#45,'mechanical');
#225=PRODUCT_DEFINITION_FORMATION_WITH_SPECIFIED_SOURCE(' ','NONE',#128,.NOT_KNOWN.);
#226=CARTESIAN_POINT('',(0.0,0.0,0.0));
#227=DIRECTION('',(0.0,0.0,1.0));
#228=DIRECTION('',(1.0,0.0,0.0));
#229= (NAMED_UNIT(#136)LENGTH_UNIT()SI_UNIT(.MILLI.,.METRE.));
#230=SURFACE_SIDE_STYLE('',(#332));
#231=EDGE_LOOP('',(#333,#334,#335,#336));
#232=AXIS2_PLACEMENT_3D('',#337,#338,#339);
#233=DRAUGHTING_PRE_DEFINED_CURVE_FONT('continuous');
#234=COLOUR_RGB('',0.509803950786591,0.509803950786591,0.588235318660736);
#235=AXIS2_PLACEMENT_3D('',#340,#341,#342);
#236=DRAUGHTING_PRE_DEFINED_CURVE_FONT('continuous');
#237=COLOUR_RGB('',0.509803950786591,0.509803950786591,0.588235318660736);
#238=AXIS2_PLACEMENT_3D('',#343,#344,#345);
#239=PRE_DEFINED_MARKER('');
#240=COLOUR_RGB('',0.509803950786591,0.509803950786591,0.588235318660736);
#241=DRAUGHTING_PRE_DEFINED_CURVE_FONT('continuous');
#242=COLOUR_RGB('',0.509803950786591,0.509803950786591,0.588235318660736);
#243=AXIS2_PLACEMENT_3D('',#346,#347,#348);
#244=DRAUGHTING_PRE_DEFINED_CURVE_FONT('continuous');
#245=COLOUR_RGB('',0.509803950786591,0.509803950786591,0.588235318660736);
#246=AXIS2_PLACEMENT_3D('',#349,#350,#351);
#247=PRE_DEFINED_MARKER('');
#248=COLOUR_RGB('',0.509803950786591,0.509803950786591,0.588235318660736);
#249=SURFACE_SIDE_STYLE('',(#352));
#250=EDGE_LOOP('',(#353,#354));
#251=EDGE_LOOP('',(#355,#356));
#252=AXIS2_PLACEMENT_3D('',#357,#358,#359);
#253=SURFACE_SIDE_STYLE('',(#360));
#254=EDGE_LOOP('',(#361,#362,#363,#364));
#255=AXIS2_PLACEMENT_3D('',#365,#366,#367);
#256=SURFACE_SIDE_STYLE('',(#368));
#257=EDGE_LOOP('',(#369,#370,#371,#372));
#258=AXIS2_PLACEMENT_3D('',#373,#374,#375);
#259=DRAUGHTING_PRE_DEFINED_CURVE_FONT('continuous');
#260=COLOUR_RGB('',0.509803950786591,0.509803950786591,0.588235318660736);
#261=AXIS2_PLACEMENT_3D('',#376,#377,#378);
#262=PRE_DEFINED_MARKER('');
#263=COLOUR_RGB('',0.509803950786591,0.509803950786591,0.588235318660736);
#264=PRE_DEFINED_MARKER('');
#265=COLOUR_RGB('',0.509803950786591,0.509803950786591,0.588235318660736);
#266=DRAUGHTING_PRE_DEFINED_CURVE_FONT('continuous');
#267=COLOUR_RGB('',0.509803950786591,0.509803950786591,0.588235318660736);
#268=AXIS2_PLACEMENT_3D('',#379,#380,#381);
#269=SURFACE_SIDE_STYLE('',(#382));
#270=EDGE_LOOP('',(#383,#384,#385,#386));
#271=AXIS2_PLACEMENT_3D('',#387,#388,#389);
#272=DRAUGHTING_PRE_DEFINED_CURVE_FONT('continuous');
#273=COLOUR_RGB('',0.509803950786591,0.509803950786591,0.588235318660736);
#274=AXIS2_PLACEMENT_3D('',#390,#391,#392);
#275=DRAUGHTING_PRE_DEFINED_CURVE_FONT('continuous');
#276=COLOUR_RGB('',0.509803950786591,0.509803950786591,0.588235318660736);
#277=AXIS2_PLACEMENT_3D('',#393,#394,#395);
#278=PRE_DEFINED_MARKER('');
#279=COLOUR_RGB('',0.509803950786591,0.509803950786591,0.588235318660736);
#280=SURFACE_SIDE_STYLE('',(#396));
#281=EDGE_LOOP('',(#397,#398,#399,#400));
#282=AXIS2_PLACEMENT_3D('',#401,#402,#403);
#283=PRE_DEFINED_MARKER('');
#284=COLOUR_RGB('',0.509803950786591,0.509803950786591,0.588235318660736);
#285=SURFACE_SIDE_STYLE('',(#404));
#286=PRE_DEFINED_MARKER('');
#287=COLOUR_RGB('',0.509803950786591,0.509803950786591,0.588235318660736);
#288=SURFACE_SIDE_STYLE('',(#405));
#289=EDGE_LOOP('',(#406,#407,#408,#409));
#290=AXIS2_PLACEMENT_3D('',#410,#411,#412);
#291=DRAUGHTING_PRE_DEFINED_CURVE_FONT('continuous');
#292=COLOUR_RGB('',0.509803950786591,0.509803950786591,0.588235318660736);
#293=AXIS2_PLACEMENT_3D('',#413,#414,#415);
#294=DRAUGHTING_PRE_DEFINED_CURVE_FONT('continuous');
#295=COLOUR_RGB('',0.509803950786591,0.509803950786591,0.588235318660736);
#296=CARTESIAN_POINT('',(28.0,2.16480220469818E-014,7.24722325026734));
#297=VECTOR('',#416,1.0);
#298=SURFACE_SIDE_STYLE('',(#417));
#299=EDGE_LOOP('',(#418,#419));
#300=EDGE_LOOP('',(#420,#421));
#301=AXIS2_PLACEMENT_3D('',#422,#423,#424);
#302=DRAUGHTING_PRE_DEFINED_CURVE_FONT('continuous');
#303=COLOUR_RGB('',0.509803950786591,0.509803950786591,0.588235318660736);
#304=AXIS2_PLACEMENT_3D('',#425,#426,#427);
#305=DRAUGHTING_PRE_DEFINED_CURVE_FONT('continuous');
#306=COLOUR_RGB('',0.509803950786591,0.509803950786591,0.588235318660736);
#307=CARTESIAN_POINT('',(34.5,2.35524688737658E-014,18.2472232502673));
#308=VECTOR('',#428,1.0);
#309=PRE_DEFINED_MARKER('');
#310=COLOUR_RGB('',0.509803950786591,0.509803950786591,0.588235318660736);
#311=DRAUGHTING_PRE_DEFINED_CURVE_FONT('continuous');
#312=COLOUR_RGB('',0.509803950786591,0.509803950786591,0.588235318660736);
#313=CARTESIAN_POINT('',(-28.0,5.24048015468937E-015,7.24722325026734));
#314=VECTOR('',#429,1.0);
#315=PRE_DEFINED_MARKER('');
#316=COLOUR_RGB('',0.509803950786591,0.509803950786591,0.588235318660736);
#317=DRAUGHTING_PRE_DEFINED_CURVE_FONT('continuous');
#318=COLOUR_RGB('',0.509803950786591,0.509803950786591,0.588235318660736);
#319=CARTESIAN_POINT('',(-46.0,-3.33725964046271E-017,11.0));
#320=VECTOR('',#430,1.0);
#321=DRAUGHTING_PRE_DEFINED_CURVE_FONT('continuous');
#322=COLOUR_RGB('',0.509803950786591,0.509803950786591,0.588235318660736);
#323=CARTESIAN_POINT('',(46.0,2.69218747980758E-014,11.0));
#324=VECTOR('',#431,1.0);
#325=PRE_DEFINED_MARKER('');
#326=COLOUR_RGB('',0.509803950786591,0.509803950786591,0.588235318660736);
#327=DRAUGHTING_PRE_DEFINED_CURVE_FONT('continuous');
#328=COLOUR_RGB('',0.509803950786591,0.509803950786591,0.588235318660736);
#329=CARTESIAN_POINT('',(-34.5,3.33603332790542E-015,18.2472232502673));
#330=VECTOR('',#432,1.0);
#332=SURFACE_STYLE_FILL_AREA(#433);
#333=ORIENTED_EDGE('',*,*,#117,.T.);
#334=ORIENTED_EDGE('',*,*,#63,.T.);
#335=ORIENTED_EDGE('',*,*,#107,.T.);
#336=ORIENTED_EDGE('',*,*,#91,.F.);
#337=CARTESIAN_POINT('',(0.0,1.34442511008356E-014,7.24722325026734));
#338=DIRECTION('',(0.0,-0.0,1.0));
#339=DIRECTION('',(-1.0,-1.70531184122985E-016,0.0));
#340=CARTESIAN_POINT('',(0.0,1.34442511008356E-014,22.0));
#341=DIRECTION('',(-0.0,0.0,-1.0));
#342=DIRECTION('',(-1.0,-1.70531184122985E-016,0.0));
#343=CARTESIAN_POINT('',(0.0,1.34442511008356E-014,-2.8421709430404E-014));
#344=DIRECTION('',(-0.0,0.0,-1.0));
#345=DIRECTION('',(-1.0,-1.70531184122985E-016,0.0));
#346=CARTESIAN_POINT('',(0.0,1.34442511008356E-014,-2.8421709430404E-014));
#347=DIRECTION('',(-0.0,0.0,-1.0));
#348=DIRECTION('',(-1.0,-1.70531184122985E-016,0.0));
#349=CARTESIAN_POINT('',(0.0,1.34442511008356E-014,22.0));
#350=DIRECTION('',(-0.0,0.0,-1.0));
#351=DIRECTION('',(-1.0,-1.70531184122985E-016,0.0));
#352=SURFACE_STYLE_FILL_AREA(#434);
#353=ORIENTED_EDGE('',*,*,#61,.F.);
#354=ORIENTED_EDGE('',*,*,#69,.F.);
#355=ORIENTED_EDGE('',*,*,#89,.T.);
#356=ORIENTED_EDGE('',*,*,#111,.T.);
#357=CARTESIAN_POINT('',(-43.5,8.11721346170826E-015,22.0));
#358=DIRECTION('',(0.0,0.0,1.0));
#359=DIRECTION('',(-1.0,-1.22460635382238E-016,0.0));
#360=SURFACE_STYLE_FILL_AREA(#435);
#361=ORIENTED_EDGE('',*,*,#117,.F.);
#362=ORIENTED_EDGE('',*,*,#105,.F.);
#363=ORIENTED_EDGE('',*,*,#107,.F.);
#364=ORIENTED_EDGE('',*,*,#85,.T.);
#365=CARTESIAN_POINT('',(0.0,1.34442511008356E-014,7.24722325026734));
#366=DIRECTION('',(0.0,-0.0,1.0));
#367=DIRECTION('',(-1.0,-1.70531184122985E-016,0.0));
#368=SURFACE_STYLE_FILL_AREA(#436);
#369=ORIENTED_EDGE('',*,*,#127,.F.);
#370=ORIENTED_EDGE('',*,*,#111,.F.);
#371=ORIENTED_EDGE('',*,*,#113,.F.);
#372=ORIENTED_EDGE('',*,*,#105,.T.);
#373=CARTESIAN_POINT('',(0.0,1.34442511008356E-014,18.2472232502673));
#374=DIRECTION('',(0.0,-0.0,1.0));
#375=DIRECTION('',(-1.0,-1.70531184122985E-016,0.0));
#376=CARTESIAN_POINT('',(0.0,1.34442511008356E-014,-2.8421709430404E-014));
#377=DIRECTION('',(-0.0,0.0,-1.0));
#378=DIRECTION('',(-1.0,-1.70531184122985E-016,0.0));
#379=CARTESIAN_POINT('',(0.0,1.34442511008356E-014,-2.8421709430404E-014));
#380=DIRECTION('',(-0.0,0.0,-1.0));
#381=DIRECTION('',(-1.0,-1.70531184122985E-016,0.0));
#382=SURFACE_STYLE_FILL_AREA(#437);
#383=ORIENTED_EDGE('',*,*,#121,.T.);
#384=ORIENTED_EDGE('',*,*,#67,.F.);
#385=ORIENTED_EDGE('',*,*,#123,.T.);
#386=ORIENTED_EDGE('',*,*,#69,.T.);
#387=CARTESIAN_POINT('',(0.0,1.34442511008356E-014,11.0));
#388=DIRECTION('',(0.0,-0.0,1.0));
#389=DIRECTION('',(-1.0,-1.70531184122985E-016,0.0));
#390=CARTESIAN_POINT('',(0.0,1.34442511008356E-014,22.0));
#391=DIRECTION('',(-0.0,0.0,-1.0));
#392=DIRECTION('',(-1.0,-1.70531184122985E-016,0.0));
#393=CARTESIAN_POINT('',(0.0,1.34442511008356E-014,14.4944465005347));
#394=DIRECTION('',(-0.0,0.0,-1.0));
#395=DIRECTION('',(-1.0,-1.70531184122985E-016,0.0));
#396=SURFACE_STYLE_FILL_AREA(#438);
#397=ORIENTED_EDGE('',*,*,#121,.F.);
#398=ORIENTED_EDGE('',*,*,#61,.T.);
#399=ORIENTED_EDGE('',*,*,#123,.F.);
#400=ORIENTED_EDGE('',*,*,#79,.F.);
#401=CARTESIAN_POINT('',(0.0,1.34442511008356E-014,11.0));
#402=DIRECTION('',(0.0,-0.0,1.0));
#403=DIRECTION('',(-1.0,-1.70531184122985E-016,0.0));
#404=SURFACE_STYLE_FILL_AREA(#439);
#405=SURFACE_STYLE_FILL_AREA(#440);
#406=ORIENTED_EDGE('',*,*,#127,.T.);
#407=ORIENTED_EDGE('',*,*,#91,.T.);
#408=ORIENTED_EDGE('',*,*,#113,.T.);
#409=ORIENTED_EDGE('',*,*,#89,.F.);
#410=CARTESIAN_POINT('',(0.0,1.34442511008356E-014,18.2472232502673));
#411=DIRECTION('',(0.0,-0.0,1.0));
#412=DIRECTION('',(-1.0,-1.70531184122985E-016,0.0));
#413=CARTESIAN_POINT('',(0.0,1.34442511008356E-014,14.4944465005347));
#414=DIRECTION('',(-0.0,0.0,-1.0));
#415=DIRECTION('',(-1.0,-1.70531184122985E-016,0.0));
#416=DIRECTION('',(0.0,0.0,1.0));
#417=SURFACE_STYLE_FILL_AREA(#441);
#418=ORIENTED_EDGE('',*,*,#63,.F.);
#419=ORIENTED_EDGE('',*,*,#85,.F.);
#420=ORIENTED_EDGE('',*,*,#79,.T.);
#421=ORIENTED_EDGE('',*,*,#67,.T.);
#422=CARTESIAN_POINT('',(-37.0,7.56614060248819E-015,-2.8421709430404E-014));
#423=DIRECTION('',(0.0,0.0,-1.0));
#424=DIRECTION('',(1.0,1.22460635382238E-016,0.0));
#425=CARTESIAN_POINT('',(0.0,1.34442511008356E-014,22.0));
#426=DIRECTION('',(-0.0,0.0,-1.0));
#427=DIRECTION('',(-1.0,-1.70531184122985E-016,0.0));
#428=DIRECTION('',(0.866025403784435,2.53738358792546E-016,0.500000000000007));
#429=DIRECTION('',(0.0,0.0,-1.0));
#430=DIRECTION('',(0.0,0.0,-1.0));
#431=DIRECTION('',(-0.0,-0.0,1.0));
#432=DIRECTION('',(0.866025403784435,2.53738358792546E-016,-0.500000000000007));
#433=FILL_AREA_STYLE('',(#442));
#434=FILL_AREA_STYLE('',(#443));
#435=FILL_AREA_STYLE('',(#444));
#436=FILL_AREA_STYLE('',(#445));
#437=FILL_AREA_STYLE('',(#446));
#438=FILL_AREA_STYLE('',(#447));
#439=FILL_AREA_STYLE('',(#448));
#440=FILL_AREA_STYLE('',(#449));
#441=FILL_AREA_STYLE('',(#450));
#442=FILL_AREA_STYLE_COLOUR('',#451);
#443=FILL_AREA_STYLE_COLOUR('',#452);
#444=FILL_AREA_STYLE_COLOUR('',#453);
#445=FILL_AREA_STYLE_COLOUR('',#454);
#446=FILL_AREA_STYLE_COLOUR('',#455);
#447=FILL_AREA_STYLE_COLOUR('',#456);
#448=FILL_AREA_STYLE_COLOUR('',#457);
#449=FILL_AREA_STYLE_COLOUR('',#458);
#450=FILL_AREA_STYLE_COLOUR('',#459);
#451=COLOUR_RGB('',0.509803950786591,0.509803950786591,0.588235318660736);
#452=COLOUR_RGB('',0.509803950786591,0.509803950786591,0.588235318660736);
#453=COLOUR_RGB('',0.509803950786591,0.509803950786591,0.588235318660736);
#454=COLOUR_RGB('',0.509803950786591,0.509803950786591,0.588235318660736);
#455=COLOUR_RGB('',0.509803950786591,0.509803950786591,0.588235318660736);
#456=COLOUR_RGB('',0.509803950786591,0.509803950786591,0.588235318660736);
#457=COLOUR_RGB('',0.509803950786591,0.509803950786591,0.588235318660736);
#458=COLOUR_RGB('',0.509803950786591,0.509803950786591,0.588235318660736);
#459=COLOUR_RGB('',0.509803950786591,0.509803950786591,0.588235318660736);
ENDSEC;
END-ISO-10303-21;
