ISO-10303-21;
HEADER;
FILE_DESCRIPTION(('STEP AP214'),'1');
FILE_NAME(' ','  ',('TraceParts'),('TraceParts S.A.'),'XStep 1.0',' ',' ');
FILE_SCHEMA(('automotive_design'));
ENDSEC;
DATA;
#1=MECHANICAL_DESIGN_GEOMETRIC_PRESENTATION_REPRESENTATION(' ',(#10,#11,#12,#13,#14,#15,#16,#17,#18,#19,#20,#21,#22,#23,#24,#25,#26,#27,#28,#29,#30,#31,#32,#33,#34,#35,#36),#6);
#2=PRODUCT_DEFINITION_CONTEXT('',#37,'design');
#3=APPLICATION_PROTOCOL_DEFINITION('INTERNATIONAL STANDARD','automotive_design',1994,#37);
#4=PRODUCT_CATEGORY_RELATIONSHIP('NONE','NONE',#38,#39);
#5=SHAPE_DEFINITION_REPRESENTATION(#40,#41);
#6= (GEOMETRIC_REPRESENTATION_CONTEXT(3)GLOBAL_UNCERTAINTY_ASSIGNED_CONTEXT((#44))GLOBAL_UNIT_ASSIGNED_CONTEXT((#46,#47,#48))REPRESENTATION_CONTEXT('NONE','WORKSPACE'));
#10=STYLED_ITEM('',(#50),#51);
#11=STYLED_ITEM('',(#52),#53);
#12=STYLED_ITEM('',(#54),#55);
#13=STYLED_ITEM('',(#56),#57);
#14=STYLED_ITEM('',(#58),#59);
#15=STYLED_ITEM('',(#60),#61);
#16=STYLED_ITEM('',(#62),#63);
#17=STYLED_ITEM('',(#64),#65);
#18=STYLED_ITEM('',(#66),#67);
#19=STYLED_ITEM('',(#68),#69);
#20=STYLED_ITEM('',(#70),#71);
#21=STYLED_ITEM('',(#72),#73);
#22=STYLED_ITEM('',(#74),#75);
#23=STYLED_ITEM('',(#76),#77);
#24=STYLED_ITEM('',(#78),#79);
#25=STYLED_ITEM('',(#80),#81);
#26=STYLED_ITEM('',(#82),#83);
#27=STYLED_ITEM('',(#84),#85);
#28=STYLED_ITEM('',(#86),#87);
#29=STYLED_ITEM('',(#88),#89);
#30=STYLED_ITEM('',(#90),#91);
#31=STYLED_ITEM('',(#92),#93);
#32=STYLED_ITEM('',(#94),#95);
#33=STYLED_ITEM('',(#96),#97);
#34=STYLED_ITEM('',(#98),#99);
#35=STYLED_ITEM('',(#100),#101);
#36=STYLED_ITEM('',(#102),#103);
#37=APPLICATION_CONTEXT(' ');
#38=PRODUCT_CATEGORY('part','NONE');
#39=PRODUCT_RELATED_PRODUCT_CATEGORY('detail',' ',(#104));
#40=PRODUCT_DEFINITION_SHAPE('NONE','NONE',#105);
#41=ADVANCED_BREP_SHAPE_REPRESENTATION('1',(#55,#106),#6);
#44=UNCERTAINTY_MEASURE_WITH_UNIT(LENGTH_MEASURE(1.0E-006),#46,'','');
#46= (CONVERSION_BASED_UNIT('MILLIMETRE',#109)LENGTH_UNIT()NAMED_UNIT(#112));
#47= (NAMED_UNIT(#114)PLANE_ANGLE_UNIT()SI_UNIT($,.RADIAN.));
#48= (NAMED_UNIT(#114)SOLID_ANGLE_UNIT()SI_UNIT($,.STERADIAN.));
#50=PRESENTATION_STYLE_ASSIGNMENT((#120));
#51=VERTEX_POINT('',#121);
#52=PRESENTATION_STYLE_ASSIGNMENT((#122));
#53=EDGE_CURVE('',#87,#51,#123,.T.);
#54=PRESENTATION_STYLE_ASSIGNMENT((#124));
#55=MANIFOLD_SOLID_BREP('1',#125);
#56=PRESENTATION_STYLE_ASSIGNMENT((#126));
#57=VERTEX_POINT('',#127);
#58=PRESENTATION_STYLE_ASSIGNMENT((#128));
#59=EDGE_CURVE('',#97,#63,#129,.T.);
#60=PRESENTATION_STYLE_ASSIGNMENT((#130));
#61=EDGE_CURVE('',#101,#63,#131,.T.);
#62=PRESENTATION_STYLE_ASSIGNMENT((#132));
#63=VERTEX_POINT('',#133);
#64=PRESENTATION_STYLE_ASSIGNMENT((#134));
#65=VERTEX_POINT('',#135);
#66=PRESENTATION_STYLE_ASSIGNMENT((#136));
#67=EDGE_CURVE('',#101,#57,#137,.T.);
#68=PRESENTATION_STYLE_ASSIGNMENT((#138));
#69=ADVANCED_FACE('',(#139,#140),#141,.T.);
#70=PRESENTATION_STYLE_ASSIGNMENT((#142));
#71=VERTEX_POINT('',#143);
#72=PRESENTATION_STYLE_ASSIGNMENT((#144));
#73=EDGE_CURVE('',#65,#71,#145,.T.);
#74=PRESENTATION_STYLE_ASSIGNMENT((#146));
#75=ADVANCED_FACE('',(#147),#148,.T.);
#76=PRESENTATION_STYLE_ASSIGNMENT((#149));
#77=EDGE_CURVE('',#51,#71,#150,.T.);
#78=PRESENTATION_STYLE_ASSIGNMENT((#151));
#79=EDGE_CURVE('',#71,#65,#152,.T.);
#80=PRESENTATION_STYLE_ASSIGNMENT((#153));
#81=EDGE_CURVE('',#57,#101,#154,.T.);
#82=PRESENTATION_STYLE_ASSIGNMENT((#155));
#83=EDGE_CURVE('',#51,#87,#156,.T.);
#84=PRESENTATION_STYLE_ASSIGNMENT((#157));
#85=ADVANCED_FACE('',(#158,#159),#160,.T.);
#86=PRESENTATION_STYLE_ASSIGNMENT((#161));
#87=VERTEX_POINT('',#162);
#88=PRESENTATION_STYLE_ASSIGNMENT((#163));
#89=EDGE_CURVE('',#63,#97,#164,.T.);
#90=PRESENTATION_STYLE_ASSIGNMENT((#165));
#91=ADVANCED_FACE('',(#166),#167,.F.);
#92=PRESENTATION_STYLE_ASSIGNMENT((#168));
#93=EDGE_CURVE('',#97,#57,#169,.T.);
#94=PRESENTATION_STYLE_ASSIGNMENT((#170));
#95=ADVANCED_FACE('',(#171),#172,.F.);
#96=PRESENTATION_STYLE_ASSIGNMENT((#173));
#97=VERTEX_POINT('',#174);
#98=PRESENTATION_STYLE_ASSIGNMENT((#175));
#99=EDGE_CURVE('',#65,#87,#176,.T.);
#100=PRESENTATION_STYLE_ASSIGNMENT((#177));
#101=VERTEX_POINT('',#178);
#102=PRESENTATION_STYLE_ASSIGNMENT((#179));
#103=ADVANCED_FACE('',(#180),#181,.T.);
#104=PRODUCT('1','1','PART-1-DESC',(#182));
#105=PRODUCT_DEFINITION('NONE','NONE',#183,#2);
#106=AXIS2_PLACEMENT_3D('',#184,#185,#186);
#109=LENGTH_MEASURE_WITH_UNIT(LENGTH_MEASURE(1.0),#187);
#112=DIMENSIONAL_EXPONENTS(1.0,0.0,0.0,0.0,0.0,0.0,0.0);
#114=DIMENSIONAL_EXPONENTS(0.0,0.0,0.0,0.0,0.0,0.0,0.0);
#120=POINT_STYLE(' ',#188,POSITIVE_LENGTH_MEASURE(1.0E-006),#189);
#121=CARTESIAN_POINT('',(-7.50000000000003,1.42056943547178E-014,-2.8421709430404E-014));
#122=CURVE_STYLE('',#190,POSITIVE_LENGTH_MEASURE(1.0E-006),#191);
#123=CIRCLE('',#192,7.5);
#124=SURFACE_STYLE_USAGE(.BOTH.,#193);
#125=CLOSED_SHELL('',(#91,#103,#69,#75,#85,#95));
#126=POINT_STYLE(' ',#194,POSITIVE_LENGTH_MEASURE(1.0E-006),#195);
#127=CARTESIAN_POINT('',(-20.0,1.21653113757702E-014,4.99999999999997));
#128=CURVE_STYLE('',#196,POSITIVE_LENGTH_MEASURE(1.0E-006),#197);
#129=CIRCLE('',#198,20.0);
#130=CURVE_STYLE('',#199,POSITIVE_LENGTH_MEASURE(1.0E-006),#200);
#131=LINE('',#201,#202);
#132=POINT_STYLE(' ',#203,POSITIVE_LENGTH_MEASURE(1.0E-006),#204);
#133=CARTESIAN_POINT('',(20.0,1.5736075730542E-014,-2.8421709430404E-014));
#134=POINT_STYLE(' ',#205,POSITIVE_LENGTH_MEASURE(1.0E-006),#206);
#135=CARTESIAN_POINT('',(7.49999999999997,1.54299241420864E-014,4.99999999999997));
#136=CURVE_STYLE('',#207,POSITIVE_LENGTH_MEASURE(1.0E-006),#208);
#137=CIRCLE('',#209,20.0);
#138=SURFACE_STYLE_USAGE(.BOTH.,#210);
#139=FACE_OUTER_BOUND('',#211,.T.);
#140=FACE_BOUND('',#212,.T.);
#141=PLANE('',#213);
#142=POINT_STYLE(' ',#214,POSITIVE_LENGTH_MEASURE(1.0E-006),#215);
#143=CARTESIAN_POINT('',(-7.50000000000003,1.42056943547178E-014,4.99999999999997));
#144=CURVE_STYLE('',#216,POSITIVE_LENGTH_MEASURE(1.0E-006),#217);
#145=CIRCLE('',#218,7.5);
#146=SURFACE_STYLE_USAGE(.BOTH.,#219);
#147=FACE_OUTER_BOUND('',#220,.T.);
#148=CYLINDRICAL_SURFACE('',#221,20.0);
#149=CURVE_STYLE('',#222,POSITIVE_LENGTH_MEASURE(1.0E-006),#223);
#150=LINE('',#224,#225);
#151=CURVE_STYLE('',#226,POSITIVE_LENGTH_MEASURE(1.0E-006),#227);
#152=CIRCLE('',#228,7.5);
#153=CURVE_STYLE('',#229,POSITIVE_LENGTH_MEASURE(1.0E-006),#230);
#154=CIRCLE('',#231,20.0);
#155=CURVE_STYLE('',#232,POSITIVE_LENGTH_MEASURE(1.0E-006),#233);
#156=CIRCLE('',#234,7.5);
#157=SURFACE_STYLE_USAGE(.BOTH.,#235);
#158=FACE_BOUND('',#236,.T.);
#159=FACE_OUTER_BOUND('',#237,.T.);
#160=PLANE('',#238);
#161=POINT_STYLE(' ',#239,POSITIVE_LENGTH_MEASURE(1.0E-006),#240);
#162=CARTESIAN_POINT('',(7.49999999999997,1.5736075730542E-014,-2.8421709430404E-014));
#163=CURVE_STYLE('',#241,POSITIVE_LENGTH_MEASURE(1.0E-006),#242);
#164=CIRCLE('',#243,20.0);
#165=SURFACE_STYLE_USAGE(.BOTH.,#244);
#166=FACE_OUTER_BOUND('',#245,.T.);
#167=CYLINDRICAL_SURFACE('',#246,7.5);
#168=CURVE_STYLE('',#247,POSITIVE_LENGTH_MEASURE(1.0E-006),#248);
#169=LINE('',#249,#250);
#170=SURFACE_STYLE_USAGE(.BOTH.,#251);
#171=FACE_OUTER_BOUND('',#252,.T.);
#172=CYLINDRICAL_SURFACE('',#253,7.5);
#173=POINT_STYLE(' ',#254,POSITIVE_LENGTH_MEASURE(1.0E-006),#255);
#174=CARTESIAN_POINT('',(-20.0,1.21653113757702E-014,-2.8421709430404E-014));
#175=CURVE_STYLE('',#256,POSITIVE_LENGTH_MEASURE(1.0E-006),#257);
#176=LINE('',#258,#259);
#177=POINT_STYLE(' ',#260,POSITIVE_LENGTH_MEASURE(1.0E-006),#261);
#178=CARTESIAN_POINT('',(20.0,1.54299241420864E-014,4.99999999999997));
#179=SURFACE_STYLE_USAGE(.BOTH.,#262);
#180=FACE_OUTER_BOUND('',#263,.T.);
#181=CYLINDRICAL_SURFACE('',#264,20.0);
#182=PRODUCT_CONTEXT('',#37,'mechanical');
#183=PRODUCT_DEFINITION_FORMATION_WITH_SPECIFIED_SOURCE(' ','NONE',#104,.NOT_KNOWN.);
#184=CARTESIAN_POINT('',(0.0,0.0,0.0));
#185=DIRECTION('',(0.0,0.0,1.0));
#186=DIRECTION('',(1.0,0.0,0.0));
#187= (NAMED_UNIT(#112)LENGTH_UNIT()SI_UNIT(.MILLI.,.METRE.));
#188=PRE_DEFINED_MARKER('');
#189=COLOUR_RGB('',0.509803950786591,0.509803950786591,0.588235318660736);
#190=DRAUGHTING_PRE_DEFINED_CURVE_FONT('continuous');
#191=COLOUR_RGB('',0.509803950786591,0.509803950786591,0.588235318660736);
#192=AXIS2_PLACEMENT_3D('',#266,#267,#268);
#193=SURFACE_SIDE_STYLE('',(#269));
#194=PRE_DEFINED_MARKER('');
#195=COLOUR_RGB('',0.509803950786591,0.509803950786591,0.588235318660736);
#196=DRAUGHTING_PRE_DEFINED_CURVE_FONT('continuous');
#197=COLOUR_RGB('',0.509803950786591,0.509803950786591,0.588235318660736);
#198=AXIS2_PLACEMENT_3D('',#270,#271,#272);
#199=DRAUGHTING_PRE_DEFINED_CURVE_FONT('continuous');
#200=COLOUR_RGB('',0.509803950786591,0.509803950786591,0.588235318660736);
#201=CARTESIAN_POINT('',(20.0,1.86945369084026E-014,2.49999999999997));
#202=VECTOR('',#273,1.0);
#203=PRE_DEFINED_MARKER('');
#204=COLOUR_RGB('',0.509803950786591,0.509803950786591,0.588235318660736);
#205=PRE_DEFINED_MARKER('');
#206=COLOUR_RGB('',0.509803950786591,0.509803950786591,0.588235318660736);
#207=DRAUGHTING_PRE_DEFINED_CURVE_FONT('continuous');
#208=COLOUR_RGB('',0.509803950786591,0.509803950786591,0.588235318660736);
#209=AXIS2_PLACEMENT_3D('',#274,#275,#276);
#210=SURFACE_SIDE_STYLE('',(#277));
#211=EDGE_LOOP('',(#278,#279));
#212=EDGE_LOOP('',(#280,#281));
#213=AXIS2_PLACEMENT_3D('',#282,#283,#284);
#214=PRE_DEFINED_MARKER('');
#215=COLOUR_RGB('',0.509803950786591,0.509803950786591,0.588235318660736);
#216=DRAUGHTING_PRE_DEFINED_CURVE_FONT('continuous');
#217=COLOUR_RGB('',0.509803950786591,0.509803950786591,0.588235318660736);
#218=AXIS2_PLACEMENT_3D('',#285,#286,#287);
#219=SURFACE_SIDE_STYLE('',(#288));
#220=EDGE_LOOP('',(#289,#290,#291,#292));
#221=AXIS2_PLACEMENT_3D('',#293,#294,#295);
#222=DRAUGHTING_PRE_DEFINED_CURVE_FONT('continuous');
#223=COLOUR_RGB('',0.509803950786591,0.509803950786591,0.588235318660736);
#224=CARTESIAN_POINT('',(-7.50000000000003,1.42056943547178E-014,2.49999999999997));
#225=VECTOR('',#296,1.0);
#226=DRAUGHTING_PRE_DEFINED_CURVE_FONT('continuous');
#227=COLOUR_RGB('',0.509803950786591,0.509803950786591,0.588235318660736);
#228=AXIS2_PLACEMENT_3D('',#297,#298,#299);
#229=DRAUGHTING_PRE_DEFINED_CURVE_FONT('continuous');
#230=COLOUR_RGB('',0.509803950786591,0.509803950786591,0.588235318660736);
#231=AXIS2_PLACEMENT_3D('',#300,#301,#302);
#232=DRAUGHTING_PRE_DEFINED_CURVE_FONT('continuous');
#233=COLOUR_RGB('',0.509803950786591,0.509803950786591,0.588235318660736);
#234=AXIS2_PLACEMENT_3D('',#303,#304,#305);
#235=SURFACE_SIDE_STYLE('',(#306));
#236=EDGE_LOOP('',(#307,#308));
#237=EDGE_LOOP('',(#309,#310));
#238=AXIS2_PLACEMENT_3D('',#311,#312,#313);
#239=PRE_DEFINED_MARKER('');
#240=COLOUR_RGB('',0.509803950786591,0.509803950786591,0.588235318660736);
#241=DRAUGHTING_PRE_DEFINED_CURVE_FONT('continuous');
#242=COLOUR_RGB('',0.509803950786591,0.509803950786591,0.588235318660736);
#243=AXIS2_PLACEMENT_3D('',#314,#315,#316);
#244=SURFACE_SIDE_STYLE('',(#317));
#245=EDGE_LOOP('',(#318,#319,#320,#321));
#246=AXIS2_PLACEMENT_3D('',#322,#323,#324);
#247=DRAUGHTING_PRE_DEFINED_CURVE_FONT('continuous');
#248=COLOUR_RGB('',0.509803950786591,0.509803950786591,0.588235318660736);
#249=CARTESIAN_POINT('',(-20.0,1.21653113757702E-014,2.49999999999997));
#250=VECTOR('',#325,1.0);
#251=SURFACE_SIDE_STYLE('',(#326));
#252=EDGE_LOOP('',(#327,#328,#329,#330));
#253=AXIS2_PLACEMENT_3D('',#331,#332,#333);
#254=PRE_DEFINED_MARKER('');
#255=COLOUR_RGB('',0.509803950786591,0.509803950786591,0.588235318660736);
#256=DRAUGHTING_PRE_DEFINED_CURVE_FONT('continuous');
#257=COLOUR_RGB('',0.509803950786591,0.509803950786591,0.588235318660736);
#258=CARTESIAN_POINT('',(7.49999999999997,1.66541539294549E-014,2.49999999999997));
#259=VECTOR('',#334,1.0);
#260=PRE_DEFINED_MARKER('');
#261=COLOUR_RGB('',0.509803950786591,0.509803950786591,0.588235318660736);
#262=SURFACE_SIDE_STYLE('',(#335));
#263=EDGE_LOOP('',(#336,#337,#338,#339));
#264=AXIS2_PLACEMENT_3D('',#340,#341,#342);
#266=CARTESIAN_POINT('',(-2.8421709430404E-014,1.54299241420864E-014,-2.8421709430404E-014));
#267=DIRECTION('',(0.0,0.0,-1.0));
#268=DIRECTION('',(1.0,4.07700029335724E-017,0.0));
#269=SURFACE_STYLE_FILL_AREA(#343);
#270=CARTESIAN_POINT('',(-2.8421709430404E-014,1.54299241420864E-014,-2.8421709430404E-014));
#271=DIRECTION('',(0.0,0.0,-1.0));
#272=DIRECTION('',(1.0,4.07700029335724E-017,0.0));
#273=DIRECTION('',(0.0,0.0,-1.0));
#274=CARTESIAN_POINT('',(-2.8421709430404E-014,1.54299241420864E-014,4.99999999999997));
#275=DIRECTION('',(0.0,0.0,-1.0));
#276=DIRECTION('',(1.0,4.07700029335724E-017,0.0));
#277=SURFACE_STYLE_FILL_AREA(#344);
#278=ORIENTED_EDGE('',*,*,#67,.F.);
#279=ORIENTED_EDGE('',*,*,#81,.F.);
#280=ORIENTED_EDGE('',*,*,#73,.T.);
#281=ORIENTED_EDGE('',*,*,#79,.T.);
#282=CARTESIAN_POINT('',(13.75,1.54299241420864E-014,4.99999999999997));
#283=DIRECTION('',(0.0,0.0,1.0));
#284=DIRECTION('',(1.0,0.0,0.0));
#285=CARTESIAN_POINT('',(-2.8421709430404E-014,1.54299241420864E-014,4.99999999999997));
#286=DIRECTION('',(0.0,0.0,-1.0));
#287=DIRECTION('',(1.0,4.07700029335724E-017,0.0));
#288=SURFACE_STYLE_FILL_AREA(#345);
#289=ORIENTED_EDGE('',*,*,#61,.T.);
#290=ORIENTED_EDGE('',*,*,#59,.F.);
#291=ORIENTED_EDGE('',*,*,#93,.T.);
#292=ORIENTED_EDGE('',*,*,#81,.T.);
#293=CARTESIAN_POINT('',(-2.8421709430404E-014,1.54299241420864E-014,2.49999999999997));
#294=DIRECTION('',(-0.0,-0.0,1.0));
#295=DIRECTION('',(1.0,4.07700029335724E-017,0.0));
#296=DIRECTION('',(-0.0,-0.0,1.0));
#297=CARTESIAN_POINT('',(-2.8421709430404E-014,1.54299241420864E-014,4.99999999999997));
#298=DIRECTION('',(0.0,0.0,-1.0));
#299=DIRECTION('',(1.0,4.07700029335724E-017,0.0));
#300=CARTESIAN_POINT('',(-2.8421709430404E-014,1.54299241420864E-014,4.99999999999997));
#301=DIRECTION('',(0.0,0.0,-1.0));
#302=DIRECTION('',(1.0,4.07700029335724E-017,0.0));
#303=CARTESIAN_POINT('',(-2.8421709430404E-014,1.54299241420864E-014,-2.8421709430404E-014));
#304=DIRECTION('',(0.0,0.0,-1.0));
#305=DIRECTION('',(1.0,4.07700029335724E-017,0.0));
#306=SURFACE_STYLE_FILL_AREA(#346);
#307=ORIENTED_EDGE('',*,*,#53,.F.);
#308=ORIENTED_EDGE('',*,*,#83,.F.);
#309=ORIENTED_EDGE('',*,*,#89,.T.);
#310=ORIENTED_EDGE('',*,*,#59,.T.);
#311=CARTESIAN_POINT('',(13.75,1.5736075730542E-014,-2.8421709430404E-014));
#312=DIRECTION('',(0.0,0.0,-1.0));
#313=DIRECTION('',(-1.0,0.0,0.0));
#314=CARTESIAN_POINT('',(-2.8421709430404E-014,1.54299241420864E-014,-2.8421709430404E-014));
#315=DIRECTION('',(0.0,0.0,-1.0));
#316=DIRECTION('',(1.0,4.07700029335724E-017,0.0));
#317=SURFACE_STYLE_FILL_AREA(#347);
#318=ORIENTED_EDGE('',*,*,#99,.F.);
#319=ORIENTED_EDGE('',*,*,#79,.F.);
#320=ORIENTED_EDGE('',*,*,#77,.F.);
#321=ORIENTED_EDGE('',*,*,#83,.T.);
#322=CARTESIAN_POINT('',(-2.8421709430404E-014,1.54299241420864E-014,2.49999999999997));
#323=DIRECTION('',(-0.0,-0.0,1.0));
#324=DIRECTION('',(1.0,4.07700029335724E-017,0.0));
#325=DIRECTION('',(-0.0,-0.0,1.0));
#326=SURFACE_STYLE_FILL_AREA(#348);
#327=ORIENTED_EDGE('',*,*,#99,.T.);
#328=ORIENTED_EDGE('',*,*,#53,.T.);
#329=ORIENTED_EDGE('',*,*,#77,.T.);
#330=ORIENTED_EDGE('',*,*,#73,.F.);
#331=CARTESIAN_POINT('',(-2.8421709430404E-014,1.54299241420864E-014,2.49999999999997));
#332=DIRECTION('',(-0.0,-0.0,1.0));
#333=DIRECTION('',(1.0,4.07700029335724E-017,0.0));
#334=DIRECTION('',(-0.0,-0.0,-1.0));
#335=SURFACE_STYLE_FILL_AREA(#349);
#336=ORIENTED_EDGE('',*,*,#61,.F.);
#337=ORIENTED_EDGE('',*,*,#67,.T.);
#338=ORIENTED_EDGE('',*,*,#93,.F.);
#339=ORIENTED_EDGE('',*,*,#89,.F.);
#340=CARTESIAN_POINT('',(-2.8421709430404E-014,1.54299241420864E-014,2.49999999999997));
#341=DIRECTION('',(-0.0,-0.0,1.0));
#342=DIRECTION('',(1.0,4.07700029335724E-017,0.0));
#343=FILL_AREA_STYLE('',(#350));
#344=FILL_AREA_STYLE('',(#351));
#345=FILL_AREA_STYLE('',(#352));
#346=FILL_AREA_STYLE('',(#353));
#347=FILL_AREA_STYLE('',(#354));
#348=FILL_AREA_STYLE('',(#355));
#349=FILL_AREA_STYLE('',(#356));
#350=FILL_AREA_STYLE_COLOUR('',#357);
#351=FILL_AREA_STYLE_COLOUR('',#358);
#352=FILL_AREA_STYLE_COLOUR('',#359);
#353=FILL_AREA_STYLE_COLOUR('',#360);
#354=FILL_AREA_STYLE_COLOUR('',#361);
#355=FILL_AREA_STYLE_COLOUR('',#362);
#356=FILL_AREA_STYLE_COLOUR('',#363);
#357=COLOUR_RGB('',0.509803950786591,0.509803950786591,0.588235318660736);
#358=COLOUR_RGB('',0.509803950786591,0.509803950786591,0.588235318660736);
#359=COLOUR_RGB('',0.509803950786591,0.509803950786591,0.588235318660736);
#360=COLOUR_RGB('',0.509803950786591,0.509803950786591,0.588235318660736);
#361=COLOUR_RGB('',0.509803950786591,0.509803950786591,0.588235318660736);
#362=COLOUR_RGB('',0.509803950786591,0.509803950786591,0.588235318660736);
#363=COLOUR_RGB('',0.509803950786591,0.509803950786591,0.588235318660736);
ENDSEC;
END-ISO-10303-21;
