ISO-10303-21;
HEADER;
FILE_DESCRIPTION(('STEP AP214'),'1');
FILE_NAME(' ','  ',('TraceParts'),('TraceParts S.A.'),'XStep 1.0',' ',' ');
FILE_SCHEMA(('automotive_design'));
ENDSEC;
DATA;
#1=MECHANICAL_DESIGN_GEOMETRIC_PRESENTATION_REPRESENTATION(' ',(#10,#11,#12,#13,#14,#15,#16,#17,#18,#19,#20,#21,#22,#23,#24,#25,#26,#27,#28,#29,#30,#31,#32,#33,#34,#35,#36),#6);
#2=PRODUCT_DEFINITION_CONTEXT('',#37,'design');
#3=APPLICATION_PROTOCOL_DEFINITION('INTERNATIONAL STANDARD','automotive_design',1994,#37);
#4=PRODUCT_CATEGORY_RELATIONSHIP('NONE','NONE',#38,#39);
#5=SHAPE_DEFINITION_REPRESENTATION(#40,#41);
#6= (GEOMETRIC_REPRESENTATION_CONTEXT(3)GLOBAL_UNCERTAINTY_ASSIGNED_CONTEXT((#44))GLOBAL_UNIT_ASSIGNED_CONTEXT((#46,#47,#48))REPRESENTATION_CONTEXT('NONE','WORKSPACE'));
#10=STYLED_ITEM('',(#50),#51);
#11=STYLED_ITEM('',(#52),#53);
#12=STYLED_ITEM('',(#54),#55);
#13=STYLED_ITEM('',(#56),#57);
#14=STYLED_ITEM('',(#58),#59);
#15=STYLED_ITEM('',(#60),#61);
#16=STYLED_ITEM('',(#62),#63);
#17=STYLED_ITEM('',(#64),#65);
#18=STYLED_ITEM('',(#66),#67);
#19=STYLED_ITEM('',(#68),#69);
#20=STYLED_ITEM('',(#70),#71);
#21=STYLED_ITEM('',(#72),#73);
#22=STYLED_ITEM('',(#74),#75);
#23=STYLED_ITEM('',(#76),#77);
#24=STYLED_ITEM('',(#78),#79);
#25=STYLED_ITEM('',(#80),#81);
#26=STYLED_ITEM('',(#82),#83);
#27=STYLED_ITEM('',(#84),#85);
#28=STYLED_ITEM('',(#86),#87);
#29=STYLED_ITEM('',(#88),#89);
#30=STYLED_ITEM('',(#90),#91);
#31=STYLED_ITEM('',(#92),#93);
#32=STYLED_ITEM('',(#94),#95);
#33=STYLED_ITEM('',(#96),#97);
#34=STYLED_ITEM('',(#98),#99);
#35=STYLED_ITEM('',(#100),#101);
#36=STYLED_ITEM('',(#102),#103);
#37=APPLICATION_CONTEXT(' ');
#38=PRODUCT_CATEGORY('part','NONE');
#39=PRODUCT_RELATED_PRODUCT_CATEGORY('detail',' ',(#104));
#40=PRODUCT_DEFINITION_SHAPE('NONE','NONE',#105);
#41=ADVANCED_BREP_SHAPE_REPRESENTATION('1',(#57,#106),#6);
#44=UNCERTAINTY_MEASURE_WITH_UNIT(LENGTH_MEASURE(1.0E-006),#46,'','');
#46= (CONVERSION_BASED_UNIT('MILLIMETRE',#109)LENGTH_UNIT()NAMED_UNIT(#112));
#47= (NAMED_UNIT(#114)PLANE_ANGLE_UNIT()SI_UNIT($,.RADIAN.));
#48= (NAMED_UNIT(#114)SOLID_ANGLE_UNIT()SI_UNIT($,.STERADIAN.));
#50=PRESENTATION_STYLE_ASSIGNMENT((#120));
#51=VERTEX_POINT('',#121);
#52=PRESENTATION_STYLE_ASSIGNMENT((#122));
#53=VERTEX_POINT('',#123);
#54=PRESENTATION_STYLE_ASSIGNMENT((#124));
#55=EDGE_CURVE('',#51,#103,#125,.T.);
#56=PRESENTATION_STYLE_ASSIGNMENT((#126));
#57=MANIFOLD_SOLID_BREP('1',#127);
#58=PRESENTATION_STYLE_ASSIGNMENT((#128));
#59=ADVANCED_FACE('',(#129),#130,.T.);
#60=PRESENTATION_STYLE_ASSIGNMENT((#131));
#61=EDGE_CURVE('',#101,#95,#132,.T.);
#62=PRESENTATION_STYLE_ASSIGNMENT((#133));
#63=EDGE_CURVE('',#103,#51,#134,.T.);
#64=PRESENTATION_STYLE_ASSIGNMENT((#135));
#65=ADVANCED_FACE('',(#136),#137,.F.);
#66=PRESENTATION_STYLE_ASSIGNMENT((#138));
#67=EDGE_CURVE('',#81,#91,#139,.T.);
#68=PRESENTATION_STYLE_ASSIGNMENT((#140));
#69=ADVANCED_FACE('',(#141,#142),#143,.T.);
#70=PRESENTATION_STYLE_ASSIGNMENT((#144));
#71=EDGE_CURVE('',#81,#51,#145,.T.);
#72=PRESENTATION_STYLE_ASSIGNMENT((#146));
#73=EDGE_CURVE('',#83,#53,#147,.T.);
#74=PRESENTATION_STYLE_ASSIGNMENT((#148));
#75=ADVANCED_FACE('',(#149),#150,.T.);
#76=PRESENTATION_STYLE_ASSIGNMENT((#151));
#77=EDGE_CURVE('',#95,#101,#152,.T.);
#78=PRESENTATION_STYLE_ASSIGNMENT((#153));
#79=EDGE_CURVE('',#53,#83,#154,.T.);
#80=PRESENTATION_STYLE_ASSIGNMENT((#155));
#81=VERTEX_POINT('',#156);
#82=PRESENTATION_STYLE_ASSIGNMENT((#157));
#83=VERTEX_POINT('',#158);
#84=PRESENTATION_STYLE_ASSIGNMENT((#159));
#85=ADVANCED_FACE('',(#160,#161),#162,.T.);
#86=PRESENTATION_STYLE_ASSIGNMENT((#163));
#87=EDGE_CURVE('',#91,#81,#164,.T.);
#88=PRESENTATION_STYLE_ASSIGNMENT((#165));
#89=EDGE_CURVE('',#101,#83,#166,.T.);
#90=PRESENTATION_STYLE_ASSIGNMENT((#167));
#91=VERTEX_POINT('',#168);
#92=PRESENTATION_STYLE_ASSIGNMENT((#169));
#93=EDGE_CURVE('',#103,#91,#170,.T.);
#94=PRESENTATION_STYLE_ASSIGNMENT((#171));
#95=VERTEX_POINT('',#172);
#96=PRESENTATION_STYLE_ASSIGNMENT((#173));
#97=EDGE_CURVE('',#53,#95,#174,.T.);
#98=PRESENTATION_STYLE_ASSIGNMENT((#175));
#99=ADVANCED_FACE('',(#176),#177,.F.);
#100=PRESENTATION_STYLE_ASSIGNMENT((#178));
#101=VERTEX_POINT('',#179);
#102=PRESENTATION_STYLE_ASSIGNMENT((#180));
#103=VERTEX_POINT('',#181);
#104=PRODUCT('1','1','PART-1-DESC',(#182));
#105=PRODUCT_DEFINITION('NONE','NONE',#183,#2);
#106=AXIS2_PLACEMENT_3D('',#184,#185,#186);
#109=LENGTH_MEASURE_WITH_UNIT(LENGTH_MEASURE(1.0),#187);
#112=DIMENSIONAL_EXPONENTS(1.0,0.0,0.0,0.0,0.0,0.0,0.0);
#114=DIMENSIONAL_EXPONENTS(0.0,0.0,0.0,0.0,0.0,0.0,0.0);
#120=POINT_STYLE(' ',#188,POSITIVE_LENGTH_MEASURE(1.0E-006),#189);
#121=CARTESIAN_POINT('',(8.49999999999997,1.59197666836153E-014,-2.8421709430404E-014));
#122=POINT_STYLE(' ',#190,POSITIVE_LENGTH_MEASURE(1.0E-006),#191);
#123=CARTESIAN_POINT('',(22.5,1.55523847774686E-014,5.99999999999997));
#124=CURVE_STYLE('',#192,POSITIVE_LENGTH_MEASURE(1.0E-006),#193);
#125=CIRCLE('',#194,8.5);
#126=SURFACE_STYLE_USAGE(.BOTH.,#195);
#127=CLOSED_SHELL('',(#99,#59,#69,#75,#85,#65));
#128=SURFACE_STYLE_USAGE(.BOTH.,#196);
#129=FACE_OUTER_BOUND('',#197,.T.);
#130=CYLINDRICAL_SURFACE('',#198,22.5);
#131=CURVE_STYLE('',#199,POSITIVE_LENGTH_MEASURE(1.0E-006),#200);
#132=CIRCLE('',#201,22.5);
#133=CURVE_STYLE('',#202,POSITIVE_LENGTH_MEASURE(1.0E-006),#203);
#134=CIRCLE('',#204,8.5);
#135=SURFACE_STYLE_USAGE(.BOTH.,#205);
#136=FACE_OUTER_BOUND('',#206,.T.);
#137=CYLINDRICAL_SURFACE('',#207,8.5);
#138=CURVE_STYLE('',#208,POSITIVE_LENGTH_MEASURE(1.0E-006),#209);
#139=CIRCLE('',#210,8.5);
#140=SURFACE_STYLE_USAGE(.BOTH.,#211);
#141=FACE_OUTER_BOUND('',#212,.T.);
#142=FACE_BOUND('',#213,.T.);
#143=PLANE('',#214);
#144=CURVE_STYLE('',#215,POSITIVE_LENGTH_MEASURE(1.0E-006),#216);
#145=LINE('',#217,#218);
#146=CURVE_STYLE('',#219,POSITIVE_LENGTH_MEASURE(1.0E-006),#220);
#147=CIRCLE('',#221,22.5);
#148=SURFACE_STYLE_USAGE(.BOTH.,#222);
#149=FACE_OUTER_BOUND('',#223,.T.);
#150=CYLINDRICAL_SURFACE('',#224,22.5);
#151=CURVE_STYLE('',#225,POSITIVE_LENGTH_MEASURE(1.0E-006),#226);
#152=CIRCLE('',#227,22.5);
#153=CURVE_STYLE('',#228,POSITIVE_LENGTH_MEASURE(1.0E-006),#229);
#154=CIRCLE('',#230,22.5);
#155=POINT_STYLE(' ',#231,POSITIVE_LENGTH_MEASURE(1.0E-006),#232);
#156=CARTESIAN_POINT('',(8.49999999999997,1.55523847774686E-014,5.99999999999997));
#157=POINT_STYLE(' ',#233,POSITIVE_LENGTH_MEASURE(1.0E-006),#234);
#158=CARTESIAN_POINT('',(-22.5,1.18257351173626E-014,5.99999999999997));
#159=SURFACE_STYLE_USAGE(.BOTH.,#235);
#160=FACE_BOUND('',#236,.T.);
#161=FACE_OUTER_BOUND('',#237,.T.);
#162=PLANE('',#238);
#163=CURVE_STYLE('',#239,POSITIVE_LENGTH_MEASURE(1.0E-006),#240);
#164=CIRCLE('',#241,8.5);
#165=CURVE_STYLE('',#242,POSITIVE_LENGTH_MEASURE(1.0E-006),#243);
#166=LINE('',#244,#245);
#167=POINT_STYLE(' ',#246,POSITIVE_LENGTH_MEASURE(1.0E-006),#247);
#168=CARTESIAN_POINT('',(-8.50000000000003,1.41445393503174E-014,5.99999999999997));
#169=CURVE_STYLE('',#248,POSITIVE_LENGTH_MEASURE(1.0E-006),#249);
#170=LINE('',#250,#251);
#171=POINT_STYLE(' ',#252,POSITIVE_LENGTH_MEASURE(1.0E-006),#253);
#172=CARTESIAN_POINT('',(22.5,1.59197666836153E-014,-2.8421709430404E-014));
#173=CURVE_STYLE('',#254,POSITIVE_LENGTH_MEASURE(1.0E-006),#255);
#174=LINE('',#256,#257);
#175=SURFACE_STYLE_USAGE(.BOTH.,#258);
#176=FACE_OUTER_BOUND('',#259,.T.);
#177=CYLINDRICAL_SURFACE('',#260,8.5);
#178=POINT_STYLE(' ',#261,POSITIVE_LENGTH_MEASURE(1.0E-006),#262);
#179=CARTESIAN_POINT('',(-22.5,1.18257351173626E-014,-2.8421709430404E-014));
#180=POINT_STYLE(' ',#263,POSITIVE_LENGTH_MEASURE(1.0E-006),#264);
#181=CARTESIAN_POINT('',(-8.50000000000003,1.41445393503174E-014,-2.8421709430404E-014));
#182=PRODUCT_CONTEXT('',#37,'mechanical');
#183=PRODUCT_DEFINITION_FORMATION_WITH_SPECIFIED_SOURCE(' ','NONE',#104,.NOT_KNOWN.);
#184=CARTESIAN_POINT('',(0.0,0.0,0.0));
#185=DIRECTION('',(0.0,0.0,1.0));
#186=DIRECTION('',(1.0,0.0,0.0));
#187= (NAMED_UNIT(#112)LENGTH_UNIT()SI_UNIT(.MILLI.,.METRE.));
#188=PRE_DEFINED_MARKER('');
#189=COLOUR_RGB('',0.509803950786591,0.509803950786591,0.588235318660736);
#190=PRE_DEFINED_MARKER('');
#191=COLOUR_RGB('',0.509803950786591,0.509803950786591,0.588235318660736);
#192=DRAUGHTING_PRE_DEFINED_CURVE_FONT('continuous');
#193=COLOUR_RGB('',0.509803950786591,0.509803950786591,0.588235318660736);
#194=AXIS2_PLACEMENT_3D('',#266,#267,#268);
#195=SURFACE_SIDE_STYLE('',(#269));
#196=SURFACE_SIDE_STYLE('',(#270));
#197=EDGE_LOOP('',(#271,#272,#273,#274));
#198=AXIS2_PLACEMENT_3D('',#275,#276,#277);
#199=DRAUGHTING_PRE_DEFINED_CURVE_FONT('continuous');
#200=COLOUR_RGB('',0.509803950786591,0.509803950786591,0.588235318660736);
#201=AXIS2_PLACEMENT_3D('',#278,#279,#280);
#202=DRAUGHTING_PRE_DEFINED_CURVE_FONT('continuous');
#203=COLOUR_RGB('',0.509803950786591,0.509803950786591,0.588235318660736);
#204=AXIS2_PLACEMENT_3D('',#281,#282,#283);
#205=SURFACE_SIDE_STYLE('',(#284));
#206=EDGE_LOOP('',(#285,#286,#287,#288));
#207=AXIS2_PLACEMENT_3D('',#289,#290,#291);
#208=DRAUGHTING_PRE_DEFINED_CURVE_FONT('continuous');
#209=COLOUR_RGB('',0.509803950786591,0.509803950786591,0.588235318660736);
#210=AXIS2_PLACEMENT_3D('',#292,#293,#294);
#211=SURFACE_SIDE_STYLE('',(#295));
#212=EDGE_LOOP('',(#296,#297));
#213=EDGE_LOOP('',(#298,#299));
#214=AXIS2_PLACEMENT_3D('',#300,#301,#302);
#215=DRAUGHTING_PRE_DEFINED_CURVE_FONT('continuous');
#216=COLOUR_RGB('',0.509803950786591,0.509803950786591,0.588235318660736);
#217=CARTESIAN_POINT('',(8.49999999999997,1.69602302046198E-014,2.99999999999997));
#218=VECTOR('',#303,1.0);
#219=DRAUGHTING_PRE_DEFINED_CURVE_FONT('continuous');
#220=COLOUR_RGB('',0.509803950786591,0.509803950786591,0.588235318660736);
#221=AXIS2_PLACEMENT_3D('',#304,#305,#306);
#222=SURFACE_SIDE_STYLE('',(#307));
#223=EDGE_LOOP('',(#308,#309,#310,#311));
#224=AXIS2_PLACEMENT_3D('',#312,#313,#314);
#225=DRAUGHTING_PRE_DEFINED_CURVE_FONT('continuous');
#226=COLOUR_RGB('',0.509803950786591,0.509803950786591,0.588235318660736);
#227=AXIS2_PLACEMENT_3D('',#315,#316,#317);
#228=DRAUGHTING_PRE_DEFINED_CURVE_FONT('continuous');
#229=COLOUR_RGB('',0.509803950786591,0.509803950786591,0.588235318660736);
#230=AXIS2_PLACEMENT_3D('',#318,#319,#320);
#231=PRE_DEFINED_MARKER('');
#232=COLOUR_RGB('',0.509803950786591,0.509803950786591,0.588235318660736);
#233=PRE_DEFINED_MARKER('');
#234=COLOUR_RGB('',0.509803950786591,0.509803950786591,0.588235318660736);
#235=SURFACE_SIDE_STYLE('',(#321));
#236=EDGE_LOOP('',(#322,#323));
#237=EDGE_LOOP('',(#324,#325));
#238=AXIS2_PLACEMENT_3D('',#326,#327,#328);
#239=DRAUGHTING_PRE_DEFINED_CURVE_FONT('continuous');
#240=COLOUR_RGB('',0.509803950786591,0.509803950786591,0.588235318660736);
#241=AXIS2_PLACEMENT_3D('',#329,#330,#331);
#242=DRAUGHTING_PRE_DEFINED_CURVE_FONT('continuous');
#243=COLOUR_RGB('',0.509803950786591,0.509803950786591,0.588235318660736);
#244=CARTESIAN_POINT('',(-22.5,1.18257351173626E-014,2.99999999999997));
#245=VECTOR('',#332,1.0);
#246=PRE_DEFINED_MARKER('');
#247=COLOUR_RGB('',0.509803950786591,0.509803950786591,0.588235318660736);
#248=DRAUGHTING_PRE_DEFINED_CURVE_FONT('continuous');
#249=COLOUR_RGB('',0.509803950786591,0.509803950786591,0.588235318660736);
#250=CARTESIAN_POINT('',(-8.50000000000003,1.41445393503174E-014,2.99999999999997));
#251=VECTOR('',#333,1.0);
#252=PRE_DEFINED_MARKER('');
#253=COLOUR_RGB('',0.509803950786591,0.509803950786591,0.588235318660736);
#254=DRAUGHTING_PRE_DEFINED_CURVE_FONT('continuous');
#255=COLOUR_RGB('',0.509803950786591,0.509803950786591,0.588235318660736);
#256=CARTESIAN_POINT('',(22.5,1.92790344375746E-014,2.99999999999997));
#257=VECTOR('',#334,1.0);
#258=SURFACE_SIDE_STYLE('',(#335));
#259=EDGE_LOOP('',(#336,#337,#338,#339));
#260=AXIS2_PLACEMENT_3D('',#340,#341,#342);
#261=PRE_DEFINED_MARKER('');
#262=COLOUR_RGB('',0.509803950786591,0.509803950786591,0.588235318660736);
#263=PRE_DEFINED_MARKER('');
#264=COLOUR_RGB('',0.509803950786591,0.509803950786591,0.588235318660736);
#266=CARTESIAN_POINT('',(-2.8421709430404E-014,1.55523847774686E-014,-2.8421709430404E-014));
#267=DIRECTION('',(0.0,0.0,-1.0));
#268=DIRECTION('',(1.0,4.31682384002532E-017,0.0));
#269=SURFACE_STYLE_FILL_AREA(#343);
#270=SURFACE_STYLE_FILL_AREA(#344);
#271=ORIENTED_EDGE('',*,*,#97,.F.);
#272=ORIENTED_EDGE('',*,*,#79,.T.);
#273=ORIENTED_EDGE('',*,*,#89,.F.);
#274=ORIENTED_EDGE('',*,*,#77,.F.);
#275=CARTESIAN_POINT('',(-2.8421709430404E-014,1.55523847774686E-014,2.99999999999997));
#276=DIRECTION('',(-0.0,-0.0,1.0));
#277=DIRECTION('',(1.0,4.31682384002532E-017,0.0));
#278=CARTESIAN_POINT('',(-2.8421709430404E-014,1.55523847774686E-014,-2.8421709430404E-014));
#279=DIRECTION('',(0.0,0.0,-1.0));
#280=DIRECTION('',(1.0,4.31682384002532E-017,0.0));
#281=CARTESIAN_POINT('',(-2.8421709430404E-014,1.55523847774686E-014,-2.8421709430404E-014));
#282=DIRECTION('',(0.0,0.0,-1.0));
#283=DIRECTION('',(1.0,4.31682384002532E-017,0.0));
#284=SURFACE_STYLE_FILL_AREA(#345);
#285=ORIENTED_EDGE('',*,*,#71,.T.);
#286=ORIENTED_EDGE('',*,*,#55,.T.);
#287=ORIENTED_EDGE('',*,*,#93,.T.);
#288=ORIENTED_EDGE('',*,*,#67,.F.);
#289=CARTESIAN_POINT('',(-2.8421709430404E-014,1.55523847774686E-014,2.99999999999997));
#290=DIRECTION('',(-0.0,-0.0,1.0));
#291=DIRECTION('',(1.0,4.31682384002532E-017,0.0));
#292=CARTESIAN_POINT('',(-2.8421709430404E-014,1.55523847774686E-014,5.99999999999997));
#293=DIRECTION('',(0.0,0.0,-1.0));
#294=DIRECTION('',(1.0,4.31682384002532E-017,0.0));
#295=SURFACE_STYLE_FILL_AREA(#346);
#296=ORIENTED_EDGE('',*,*,#79,.F.);
#297=ORIENTED_EDGE('',*,*,#73,.F.);
#298=ORIENTED_EDGE('',*,*,#67,.T.);
#299=ORIENTED_EDGE('',*,*,#87,.T.);
#300=CARTESIAN_POINT('',(15.5,1.55523847774686E-014,5.99999999999997));
#301=DIRECTION('',(0.0,0.0,1.0));
#302=DIRECTION('',(1.0,0.0,0.0));
#303=DIRECTION('',(-0.0,-0.0,-1.0));
#304=CARTESIAN_POINT('',(-2.8421709430404E-014,1.55523847774686E-014,5.99999999999997));
#305=DIRECTION('',(0.0,0.0,-1.0));
#306=DIRECTION('',(1.0,4.31682384002532E-017,0.0));
#307=SURFACE_STYLE_FILL_AREA(#347);
#308=ORIENTED_EDGE('',*,*,#97,.T.);
#309=ORIENTED_EDGE('',*,*,#61,.F.);
#310=ORIENTED_EDGE('',*,*,#89,.T.);
#311=ORIENTED_EDGE('',*,*,#73,.T.);
#312=CARTESIAN_POINT('',(-2.8421709430404E-014,1.55523847774686E-014,2.99999999999997));
#313=DIRECTION('',(-0.0,-0.0,1.0));
#314=DIRECTION('',(1.0,4.31682384002532E-017,0.0));
#315=CARTESIAN_POINT('',(-2.8421709430404E-014,1.55523847774686E-014,-2.8421709430404E-014));
#316=DIRECTION('',(0.0,0.0,-1.0));
#317=DIRECTION('',(1.0,4.31682384002532E-017,0.0));
#318=CARTESIAN_POINT('',(-2.8421709430404E-014,1.55523847774686E-014,5.99999999999997));
#319=DIRECTION('',(0.0,0.0,-1.0));
#320=DIRECTION('',(1.0,4.31682384002532E-017,0.0));
#321=SURFACE_STYLE_FILL_AREA(#348);
#322=ORIENTED_EDGE('',*,*,#55,.F.);
#323=ORIENTED_EDGE('',*,*,#63,.F.);
#324=ORIENTED_EDGE('',*,*,#77,.T.);
#325=ORIENTED_EDGE('',*,*,#61,.T.);
#326=CARTESIAN_POINT('',(15.5,1.59197666836153E-014,-2.8421709430404E-014));
#327=DIRECTION('',(0.0,0.0,-1.0));
#328=DIRECTION('',(-1.0,0.0,0.0));
#329=CARTESIAN_POINT('',(-2.8421709430404E-014,1.55523847774686E-014,5.99999999999997));
#330=DIRECTION('',(0.0,0.0,-1.0));
#331=DIRECTION('',(1.0,4.31682384002532E-017,0.0));
#332=DIRECTION('',(-0.0,-0.0,1.0));
#333=DIRECTION('',(-0.0,-0.0,1.0));
#334=DIRECTION('',(0.0,0.0,-1.0));
#335=SURFACE_STYLE_FILL_AREA(#349);
#336=ORIENTED_EDGE('',*,*,#71,.F.);
#337=ORIENTED_EDGE('',*,*,#87,.F.);
#338=ORIENTED_EDGE('',*,*,#93,.F.);
#339=ORIENTED_EDGE('',*,*,#63,.T.);
#340=CARTESIAN_POINT('',(-2.8421709430404E-014,1.55523847774686E-014,2.99999999999997));
#341=DIRECTION('',(-0.0,-0.0,1.0));
#342=DIRECTION('',(1.0,4.31682384002532E-017,0.0));
#343=FILL_AREA_STYLE('',(#350));
#344=FILL_AREA_STYLE('',(#351));
#345=FILL_AREA_STYLE('',(#352));
#346=FILL_AREA_STYLE('',(#353));
#347=FILL_AREA_STYLE('',(#354));
#348=FILL_AREA_STYLE('',(#355));
#349=FILL_AREA_STYLE('',(#356));
#350=FILL_AREA_STYLE_COLOUR('',#357);
#351=FILL_AREA_STYLE_COLOUR('',#358);
#352=FILL_AREA_STYLE_COLOUR('',#359);
#353=FILL_AREA_STYLE_COLOUR('',#360);
#354=FILL_AREA_STYLE_COLOUR('',#361);
#355=FILL_AREA_STYLE_COLOUR('',#362);
#356=FILL_AREA_STYLE_COLOUR('',#363);
#357=COLOUR_RGB('',0.509803950786591,0.509803950786591,0.588235318660736);
#358=COLOUR_RGB('',0.509803950786591,0.509803950786591,0.588235318660736);
#359=COLOUR_RGB('',0.509803950786591,0.509803950786591,0.588235318660736);
#360=COLOUR_RGB('',0.509803950786591,0.509803950786591,0.588235318660736);
#361=COLOUR_RGB('',0.509803950786591,0.509803950786591,0.588235318660736);
#362=COLOUR_RGB('',0.509803950786591,0.509803950786591,0.588235318660736);
#363=COLOUR_RGB('',0.509803950786591,0.509803950786591,0.588235318660736);
ENDSEC;
END-ISO-10303-21;
