ISO-10303-21;
HEADER;
FILE_DESCRIPTION(('STEP AP214'),'1');
FILE_NAME(' ','  ',('TraceParts'),('TraceParts S.A.'),'XStep 1.0',' ',' ');
FILE_SCHEMA(('automotive_design'));
ENDSEC;
DATA;
#1=MECHANICAL_DESIGN_GEOMETRIC_PRESENTATION_REPRESENTATION(' ',(#10,#11,#12,#13,#14,#15,#16,#17,#18,#19,#20,#21,#22,#23,#24,#25,#26,#27,#28,#29,#30,#31,#32,#33,#34,#35,#36),#6);
#2=PRODUCT_DEFINITION_CONTEXT('',#37,'design');
#3=APPLICATION_PROTOCOL_DEFINITION('INTERNATIONAL STANDARD','automotive_design',1994,#37);
#4=PRODUCT_CATEGORY_RELATIONSHIP('NONE','NONE',#38,#39);
#5=SHAPE_DEFINITION_REPRESENTATION(#40,#41);
#6= (GEOMETRIC_REPRESENTATION_CONTEXT(3)GLOBAL_UNCERTAINTY_ASSIGNED_CONTEXT((#44))GLOBAL_UNIT_ASSIGNED_CONTEXT((#46,#47,#48))REPRESENTATION_CONTEXT('NONE','WORKSPACE'));
#10=STYLED_ITEM('',(#50),#51);
#11=STYLED_ITEM('',(#52),#53);
#12=STYLED_ITEM('',(#54),#55);
#13=STYLED_ITEM('',(#56),#57);
#14=STYLED_ITEM('',(#58),#59);
#15=STYLED_ITEM('',(#60),#61);
#16=STYLED_ITEM('',(#62),#63);
#17=STYLED_ITEM('',(#64),#65);
#18=STYLED_ITEM('',(#66),#67);
#19=STYLED_ITEM('',(#68),#69);
#20=STYLED_ITEM('',(#70),#71);
#21=STYLED_ITEM('',(#72),#73);
#22=STYLED_ITEM('',(#74),#75);
#23=STYLED_ITEM('',(#76),#77);
#24=STYLED_ITEM('',(#78),#79);
#25=STYLED_ITEM('',(#80),#81);
#26=STYLED_ITEM('',(#82),#83);
#27=STYLED_ITEM('',(#84),#85);
#28=STYLED_ITEM('',(#86),#87);
#29=STYLED_ITEM('',(#88),#89);
#30=STYLED_ITEM('',(#90),#91);
#31=STYLED_ITEM('',(#92),#93);
#32=STYLED_ITEM('',(#94),#95);
#33=STYLED_ITEM('',(#96),#97);
#34=STYLED_ITEM('',(#98),#99);
#35=STYLED_ITEM('',(#100),#101);
#36=STYLED_ITEM('',(#102),#103);
#37=APPLICATION_CONTEXT(' ');
#38=PRODUCT_CATEGORY('part','NONE');
#39=PRODUCT_RELATED_PRODUCT_CATEGORY('detail',' ',(#104));
#40=PRODUCT_DEFINITION_SHAPE('NONE','NONE',#105);
#41=ADVANCED_BREP_SHAPE_REPRESENTATION('1',(#53,#106),#6);
#44=UNCERTAINTY_MEASURE_WITH_UNIT(LENGTH_MEASURE(1.0E-006),#46,'','');
#46= (CONVERSION_BASED_UNIT('MILLIMETRE',#109)LENGTH_UNIT()NAMED_UNIT(#112));
#47= (NAMED_UNIT(#114)PLANE_ANGLE_UNIT()SI_UNIT($,.RADIAN.));
#48= (NAMED_UNIT(#114)SOLID_ANGLE_UNIT()SI_UNIT($,.STERADIAN.));
#50=PRESENTATION_STYLE_ASSIGNMENT((#120));
#51=ADVANCED_FACE('',(#121),#122,.F.);
#52=PRESENTATION_STYLE_ASSIGNMENT((#123));
#53=MANIFOLD_SOLID_BREP('1',#124);
#54=PRESENTATION_STYLE_ASSIGNMENT((#125));
#55=EDGE_CURVE('',#79,#77,#126,.T.);
#56=PRESENTATION_STYLE_ASSIGNMENT((#127));
#57=ADVANCED_FACE('',(#128),#129,.T.);
#58=PRESENTATION_STYLE_ASSIGNMENT((#130));
#59=VERTEX_POINT('',#131);
#60=PRESENTATION_STYLE_ASSIGNMENT((#132));
#61=EDGE_CURVE('',#95,#75,#133,.T.);
#62=PRESENTATION_STYLE_ASSIGNMENT((#134));
#63=VERTEX_POINT('',#135);
#64=PRESENTATION_STYLE_ASSIGNMENT((#136));
#65=EDGE_CURVE('',#99,#69,#137,.T.);
#66=PRESENTATION_STYLE_ASSIGNMENT((#138));
#67=EDGE_CURVE('',#63,#59,#139,.T.);
#68=PRESENTATION_STYLE_ASSIGNMENT((#140));
#69=VERTEX_POINT('',#141);
#70=PRESENTATION_STYLE_ASSIGNMENT((#142));
#71=EDGE_CURVE('',#77,#59,#143,.T.);
#72=PRESENTATION_STYLE_ASSIGNMENT((#144));
#73=EDGE_CURVE('',#75,#95,#145,.T.);
#74=PRESENTATION_STYLE_ASSIGNMENT((#146));
#75=VERTEX_POINT('',#147);
#76=PRESENTATION_STYLE_ASSIGNMENT((#148));
#77=VERTEX_POINT('',#149);
#78=PRESENTATION_STYLE_ASSIGNMENT((#150));
#79=VERTEX_POINT('',#151);
#80=PRESENTATION_STYLE_ASSIGNMENT((#152));
#81=ADVANCED_FACE('',(#153),#154,.F.);
#82=PRESENTATION_STYLE_ASSIGNMENT((#155));
#83=ADVANCED_FACE('',(#156),#157,.T.);
#84=PRESENTATION_STYLE_ASSIGNMENT((#158));
#85=EDGE_CURVE('',#59,#63,#159,.T.);
#86=PRESENTATION_STYLE_ASSIGNMENT((#160));
#87=ADVANCED_FACE('',(#161,#162),#163,.T.);
#88=PRESENTATION_STYLE_ASSIGNMENT((#164));
#89=EDGE_CURVE('',#69,#99,#165,.T.);
#90=PRESENTATION_STYLE_ASSIGNMENT((#166));
#91=EDGE_CURVE('',#63,#79,#167,.T.);
#92=PRESENTATION_STYLE_ASSIGNMENT((#168));
#93=ADVANCED_FACE('',(#169,#170),#171,.T.);
#94=PRESENTATION_STYLE_ASSIGNMENT((#172));
#95=VERTEX_POINT('',#173);
#96=PRESENTATION_STYLE_ASSIGNMENT((#174));
#97=EDGE_CURVE('',#95,#69,#175,.T.);
#98=PRESENTATION_STYLE_ASSIGNMENT((#176));
#99=VERTEX_POINT('',#177);
#100=PRESENTATION_STYLE_ASSIGNMENT((#178));
#101=EDGE_CURVE('',#99,#75,#179,.T.);
#102=PRESENTATION_STYLE_ASSIGNMENT((#180));
#103=EDGE_CURVE('',#77,#79,#181,.T.);
#104=PRODUCT('1','1','PART-1-DESC',(#182));
#105=PRODUCT_DEFINITION('NONE','NONE',#183,#2);
#106=AXIS2_PLACEMENT_3D('',#184,#185,#186);
#109=LENGTH_MEASURE_WITH_UNIT(LENGTH_MEASURE(1.0),#187);
#112=DIMENSIONAL_EXPONENTS(1.0,0.0,0.0,0.0,0.0,0.0,0.0);
#114=DIMENSIONAL_EXPONENTS(0.0,0.0,0.0,0.0,0.0,0.0,0.0);
#120=SURFACE_STYLE_USAGE(.BOTH.,#188);
#121=FACE_OUTER_BOUND('',#189,.T.);
#122=CYLINDRICAL_SURFACE('',#190,15.5);
#123=SURFACE_STYLE_USAGE(.BOTH.,#191);
#124=CLOSED_SHELL('',(#51,#83,#93,#57,#87,#81));
#125=CURVE_STYLE('',#192,POSITIVE_LENGTH_MEASURE(1.0E-006),#193);
#126=CIRCLE('',#194,15.5);
#127=SURFACE_STYLE_USAGE(.BOTH.,#195);
#128=FACE_OUTER_BOUND('',#196,.T.);
#129=CYLINDRICAL_SURFACE('',#197,34.0);
#130=POINT_STYLE(' ',#198,POSITIVE_LENGTH_MEASURE(1.0E-006),#199);
#131=CARTESIAN_POINT('',(-15.5,1.35325374265693E-014,9.99999999999997));
#132=CURVE_STYLE('',#200,POSITIVE_LENGTH_MEASURE(1.0E-006),#201);
#133=CIRCLE('',#202,34.0);
#134=POINT_STYLE(' ',#203,POSITIVE_LENGTH_MEASURE(1.0E-006),#204);
#135=CARTESIAN_POINT('',(15.5,1.60422273189976E-014,9.99999999999997));
#136=CURVE_STYLE('',#205,POSITIVE_LENGTH_MEASURE(1.0E-006),#206);
#137=CIRCLE('',#207,34.0);
#138=CURVE_STYLE('',#208,POSITIVE_LENGTH_MEASURE(1.0E-006),#209);
#139=CIRCLE('',#210,15.5);
#140=POINT_STYLE(' ',#211,POSITIVE_LENGTH_MEASURE(1.0E-006),#212);
#141=CARTESIAN_POINT('',(34.0,1.66545304959087E-014,-2.8421709430404E-014));
#142=CURVE_STYLE('',#213,POSITIVE_LENGTH_MEASURE(1.0E-006),#214);
#143=LINE('',#215,#216);
#144=CURVE_STYLE('',#217,POSITIVE_LENGTH_MEASURE(1.0E-006),#218);
#145=CIRCLE('',#219,34.0);
#146=POINT_STYLE(' ',#220,POSITIVE_LENGTH_MEASURE(1.0E-006),#221);
#147=CARTESIAN_POINT('',(-34.0,1.05371011033484E-014,9.99999999999997));
#148=POINT_STYLE(' ',#222,POSITIVE_LENGTH_MEASURE(1.0E-006),#223);
#149=CARTESIAN_POINT('',(-15.5,1.35325374265693E-014,-2.8421709430404E-014));
#150=POINT_STYLE(' ',#224,POSITIVE_LENGTH_MEASURE(1.0E-006),#225);
#151=CARTESIAN_POINT('',(15.5,1.66545304959087E-014,-2.8421709430404E-014));
#152=SURFACE_STYLE_USAGE(.BOTH.,#226);
#153=FACE_OUTER_BOUND('',#227,.T.);
#154=CYLINDRICAL_SURFACE('',#228,15.5);
#155=SURFACE_STYLE_USAGE(.BOTH.,#229);
#156=FACE_OUTER_BOUND('',#230,.T.);
#157=CYLINDRICAL_SURFACE('',#231,34.0);
#158=CURVE_STYLE('',#232,POSITIVE_LENGTH_MEASURE(1.0E-006),#233);
#159=CIRCLE('',#234,15.5);
#160=SURFACE_STYLE_USAGE(.BOTH.,#235);
#161=FACE_BOUND('',#236,.T.);
#162=FACE_OUTER_BOUND('',#237,.T.);
#163=PLANE('',#238);
#164=CURVE_STYLE('',#239,POSITIVE_LENGTH_MEASURE(1.0E-006),#240);
#165=CIRCLE('',#241,34.0);
#166=CURVE_STYLE('',#242,POSITIVE_LENGTH_MEASURE(1.0E-006),#243);
#167=LINE('',#244,#245);
#168=SURFACE_STYLE_USAGE(.BOTH.,#246);
#169=FACE_OUTER_BOUND('',#247,.T.);
#170=FACE_BOUND('',#248,.T.);
#171=PLANE('',#249);
#172=POINT_STYLE(' ',#250,POSITIVE_LENGTH_MEASURE(1.0E-006),#251);
#173=CARTESIAN_POINT('',(34.0,1.60422273189976E-014,9.99999999999997));
#174=CURVE_STYLE('',#252,POSITIVE_LENGTH_MEASURE(1.0E-006),#253);
#175=LINE('',#254,#255);
#176=POINT_STYLE(' ',#256,POSITIVE_LENGTH_MEASURE(1.0E-006),#257);
#177=CARTESIAN_POINT('',(-34.0,1.05371011033484E-014,-2.8421709430404E-014));
#178=CURVE_STYLE('',#258,POSITIVE_LENGTH_MEASURE(1.0E-006),#259);
#179=LINE('',#260,#261);
#180=CURVE_STYLE('',#262,POSITIVE_LENGTH_MEASURE(1.0E-006),#263);
#181=CIRCLE('',#264,15.5);
#182=PRODUCT_CONTEXT('',#37,'mechanical');
#183=PRODUCT_DEFINITION_FORMATION_WITH_SPECIFIED_SOURCE(' ','NONE',#104,.NOT_KNOWN.);
#184=CARTESIAN_POINT('',(0.0,0.0,0.0));
#185=DIRECTION('',(0.0,0.0,1.0));
#186=DIRECTION('',(1.0,0.0,0.0));
#187= (NAMED_UNIT(#112)LENGTH_UNIT()SI_UNIT(.MILLI.,.METRE.));
#188=SURFACE_SIDE_STYLE('',(#266));
#189=EDGE_LOOP('',(#267,#268,#269,#270));
#190=AXIS2_PLACEMENT_3D('',#271,#272,#273);
#191=SURFACE_SIDE_STYLE('',(#274));
#192=DRAUGHTING_PRE_DEFINED_CURVE_FONT('continuous');
#193=COLOUR_RGB('',0.509803950786591,0.509803950786591,0.588235318660736);
#194=AXIS2_PLACEMENT_3D('',#275,#276,#277);
#195=SURFACE_SIDE_STYLE('',(#278));
#196=EDGE_LOOP('',(#279,#280,#281,#282));
#197=AXIS2_PLACEMENT_3D('',#283,#284,#285);
#198=PRE_DEFINED_MARKER('');
#199=COLOUR_RGB('',0.509803950786591,0.509803950786591,0.588235318660736);
#200=DRAUGHTING_PRE_DEFINED_CURVE_FONT('continuous');
#201=COLOUR_RGB('',0.509803950786591,0.509803950786591,0.588235318660736);
#202=AXIS2_PLACEMENT_3D('',#286,#287,#288);
#203=PRE_DEFINED_MARKER('');
#204=COLOUR_RGB('',0.509803950786591,0.509803950786591,0.588235318660736);
#205=DRAUGHTING_PRE_DEFINED_CURVE_FONT('continuous');
#206=COLOUR_RGB('',0.509803950786591,0.509803950786591,0.588235318660736);
#207=AXIS2_PLACEMENT_3D('',#289,#290,#291);
#208=DRAUGHTING_PRE_DEFINED_CURVE_FONT('continuous');
#209=COLOUR_RGB('',0.509803950786591,0.509803950786591,0.588235318660736);
#210=AXIS2_PLACEMENT_3D('',#292,#293,#294);
#211=PRE_DEFINED_MARKER('');
#212=COLOUR_RGB('',0.509803950786591,0.509803950786591,0.588235318660736);
#213=DRAUGHTING_PRE_DEFINED_CURVE_FONT('continuous');
#214=COLOUR_RGB('',0.509803950786591,0.509803950786591,0.588235318660736);
#215=CARTESIAN_POINT('',(-15.5,1.35325374265693E-014,4.99999999999997));
#216=VECTOR('',#295,1.0);
#217=DRAUGHTING_PRE_DEFINED_CURVE_FONT('continuous');
#218=COLOUR_RGB('',0.509803950786591,0.509803950786591,0.588235318660736);
#219=AXIS2_PLACEMENT_3D('',#296,#297,#298);
#220=PRE_DEFINED_MARKER('');
#221=COLOUR_RGB('',0.509803950786591,0.509803950786591,0.588235318660736);
#222=PRE_DEFINED_MARKER('');
#223=COLOUR_RGB('',0.509803950786591,0.509803950786591,0.588235318660736);
#224=PRE_DEFINED_MARKER('');
#225=COLOUR_RGB('',0.509803950786591,0.509803950786591,0.588235318660736);
#226=SURFACE_SIDE_STYLE('',(#299));
#227=EDGE_LOOP('',(#300,#301,#302,#303));
#228=AXIS2_PLACEMENT_3D('',#304,#305,#306);
#229=SURFACE_SIDE_STYLE('',(#307));
#230=EDGE_LOOP('',(#308,#309,#310,#311));
#231=AXIS2_PLACEMENT_3D('',#312,#313,#314);
#232=DRAUGHTING_PRE_DEFINED_CURVE_FONT('continuous');
#233=COLOUR_RGB('',0.509803950786591,0.509803950786591,0.588235318660736);
#234=AXIS2_PLACEMENT_3D('',#315,#316,#317);
#235=SURFACE_SIDE_STYLE('',(#318));
#236=EDGE_LOOP('',(#319,#320));
#237=EDGE_LOOP('',(#321,#322));
#238=AXIS2_PLACEMENT_3D('',#323,#324,#325);
#239=DRAUGHTING_PRE_DEFINED_CURVE_FONT('continuous');
#240=COLOUR_RGB('',0.509803950786591,0.509803950786591,0.588235318660736);
#241=AXIS2_PLACEMENT_3D('',#326,#327,#328);
#242=DRAUGHTING_PRE_DEFINED_CURVE_FONT('continuous');
#243=COLOUR_RGB('',0.509803950786591,0.509803950786591,0.588235318660736);
#244=CARTESIAN_POINT('',(15.5,1.85519172114258E-014,4.99999999999997));
#245=VECTOR('',#329,1.0);
#246=SURFACE_SIDE_STYLE('',(#330));
#247=EDGE_LOOP('',(#331,#332));
#248=EDGE_LOOP('',(#333,#334));
#249=AXIS2_PLACEMENT_3D('',#335,#336,#337);
#250=PRE_DEFINED_MARKER('');
#251=COLOUR_RGB('',0.509803950786591,0.509803950786591,0.588235318660736);
#252=DRAUGHTING_PRE_DEFINED_CURVE_FONT('continuous');
#253=COLOUR_RGB('',0.509803950786591,0.509803950786591,0.588235318660736);
#254=CARTESIAN_POINT('',(34.0,2.15473535346467E-014,4.99999999999997));
#255=VECTOR('',#338,1.0);
#256=PRE_DEFINED_MARKER('');
#257=COLOUR_RGB('',0.509803950786591,0.509803950786591,0.588235318660736);
#258=DRAUGHTING_PRE_DEFINED_CURVE_FONT('continuous');
#259=COLOUR_RGB('',0.509803950786591,0.509803950786591,0.588235318660736);
#260=CARTESIAN_POINT('',(-34.0,1.05371011033484E-014,4.99999999999997));
#261=VECTOR('',#339,1.0);
#262=DRAUGHTING_PRE_DEFINED_CURVE_FONT('continuous');
#263=COLOUR_RGB('',0.509803950786591,0.509803950786591,0.588235318660736);
#264=AXIS2_PLACEMENT_3D('',#340,#341,#342);
#266=SURFACE_STYLE_FILL_AREA(#343);
#267=ORIENTED_EDGE('',*,*,#91,.F.);
#268=ORIENTED_EDGE('',*,*,#85,.F.);
#269=ORIENTED_EDGE('',*,*,#71,.F.);
#270=ORIENTED_EDGE('',*,*,#103,.T.);
#271=CARTESIAN_POINT('',(-2.8421709430404E-014,1.60422273189976E-014,4.99999999999997));
#272=DIRECTION('',(-0.0,-0.0,1.0));
#273=DIRECTION('',(1.0,3.94548415486186E-017,0.0));
#274=SURFACE_STYLE_FILL_AREA(#344);
#275=CARTESIAN_POINT('',(-2.8421709430404E-014,1.60422273189976E-014,-2.8421709430404E-014));
#276=DIRECTION('',(0.0,0.0,-1.0));
#277=DIRECTION('',(1.0,3.94548415486186E-017,0.0));
#278=SURFACE_STYLE_FILL_AREA(#345);
#279=ORIENTED_EDGE('',*,*,#97,.T.);
#280=ORIENTED_EDGE('',*,*,#65,.F.);
#281=ORIENTED_EDGE('',*,*,#101,.T.);
#282=ORIENTED_EDGE('',*,*,#73,.T.);
#283=CARTESIAN_POINT('',(-2.8421709430404E-014,1.60422273189976E-014,4.99999999999997));
#284=DIRECTION('',(-0.0,-0.0,1.0));
#285=DIRECTION('',(1.0,3.94548415486186E-017,0.0));
#286=CARTESIAN_POINT('',(-2.8421709430404E-014,1.60422273189976E-014,9.99999999999997));
#287=DIRECTION('',(0.0,0.0,-1.0));
#288=DIRECTION('',(1.0,3.94548415486186E-017,0.0));
#289=CARTESIAN_POINT('',(-2.8421709430404E-014,1.60422273189976E-014,-2.8421709430404E-014));
#290=DIRECTION('',(0.0,0.0,-1.0));
#291=DIRECTION('',(1.0,3.94548415486186E-017,0.0));
#292=CARTESIAN_POINT('',(-2.8421709430404E-014,1.60422273189976E-014,9.99999999999997));
#293=DIRECTION('',(0.0,0.0,-1.0));
#294=DIRECTION('',(1.0,3.94548415486186E-017,0.0));
#295=DIRECTION('',(-0.0,-0.0,1.0));
#296=CARTESIAN_POINT('',(-2.8421709430404E-014,1.60422273189976E-014,9.99999999999997));
#297=DIRECTION('',(0.0,0.0,-1.0));
#298=DIRECTION('',(1.0,3.94548415486186E-017,0.0));
#299=SURFACE_STYLE_FILL_AREA(#346);
#300=ORIENTED_EDGE('',*,*,#91,.T.);
#301=ORIENTED_EDGE('',*,*,#55,.T.);
#302=ORIENTED_EDGE('',*,*,#71,.T.);
#303=ORIENTED_EDGE('',*,*,#67,.F.);
#304=CARTESIAN_POINT('',(-2.8421709430404E-014,1.60422273189976E-014,4.99999999999997));
#305=DIRECTION('',(-0.0,-0.0,1.0));
#306=DIRECTION('',(1.0,3.94548415486186E-017,0.0));
#307=SURFACE_STYLE_FILL_AREA(#347);
#308=ORIENTED_EDGE('',*,*,#97,.F.);
#309=ORIENTED_EDGE('',*,*,#61,.T.);
#310=ORIENTED_EDGE('',*,*,#101,.F.);
#311=ORIENTED_EDGE('',*,*,#89,.F.);
#312=CARTESIAN_POINT('',(-2.8421709430404E-014,1.60422273189976E-014,4.99999999999997));
#313=DIRECTION('',(-0.0,-0.0,1.0));
#314=DIRECTION('',(1.0,3.94548415486186E-017,0.0));
#315=CARTESIAN_POINT('',(-2.8421709430404E-014,1.60422273189976E-014,9.99999999999997));
#316=DIRECTION('',(0.0,0.0,-1.0));
#317=DIRECTION('',(1.0,3.94548415486186E-017,0.0));
#318=SURFACE_STYLE_FILL_AREA(#348);
#319=ORIENTED_EDGE('',*,*,#55,.F.);
#320=ORIENTED_EDGE('',*,*,#103,.F.);
#321=ORIENTED_EDGE('',*,*,#89,.T.);
#322=ORIENTED_EDGE('',*,*,#65,.T.);
#323=CARTESIAN_POINT('',(24.75,1.66545304959087E-014,-2.8421709430404E-014));
#324=DIRECTION('',(0.0,0.0,-1.0));
#325=DIRECTION('',(-1.0,0.0,0.0));
#326=CARTESIAN_POINT('',(-2.8421709430404E-014,1.60422273189976E-014,-2.8421709430404E-014));
#327=DIRECTION('',(0.0,0.0,-1.0));
#328=DIRECTION('',(1.0,3.94548415486186E-017,0.0));
#329=DIRECTION('',(-0.0,-0.0,-1.0));
#330=SURFACE_STYLE_FILL_AREA(#349);
#331=ORIENTED_EDGE('',*,*,#61,.F.);
#332=ORIENTED_EDGE('',*,*,#73,.F.);
#333=ORIENTED_EDGE('',*,*,#67,.T.);
#334=ORIENTED_EDGE('',*,*,#85,.T.);
#335=CARTESIAN_POINT('',(24.75,1.60422273189976E-014,9.99999999999997));
#336=DIRECTION('',(0.0,0.0,1.0));
#337=DIRECTION('',(1.0,0.0,0.0));
#338=DIRECTION('',(0.0,0.0,-1.0));
#339=DIRECTION('',(-0.0,-0.0,1.0));
#340=CARTESIAN_POINT('',(-2.8421709430404E-014,1.60422273189976E-014,-2.8421709430404E-014));
#341=DIRECTION('',(0.0,0.0,-1.0));
#342=DIRECTION('',(1.0,3.94548415486186E-017,0.0));
#343=FILL_AREA_STYLE('',(#350));
#344=FILL_AREA_STYLE('',(#351));
#345=FILL_AREA_STYLE('',(#352));
#346=FILL_AREA_STYLE('',(#353));
#347=FILL_AREA_STYLE('',(#354));
#348=FILL_AREA_STYLE('',(#355));
#349=FILL_AREA_STYLE('',(#356));
#350=FILL_AREA_STYLE_COLOUR('',#357);
#351=FILL_AREA_STYLE_COLOUR('',#358);
#352=FILL_AREA_STYLE_COLOUR('',#359);
#353=FILL_AREA_STYLE_COLOUR('',#360);
#354=FILL_AREA_STYLE_COLOUR('',#361);
#355=FILL_AREA_STYLE_COLOUR('',#362);
#356=FILL_AREA_STYLE_COLOUR('',#363);
#357=COLOUR_RGB('',0.509803950786591,0.509803950786591,0.588235318660736);
#358=COLOUR_RGB('',0.509803950786591,0.509803950786591,0.588235318660736);
#359=COLOUR_RGB('',0.509803950786591,0.509803950786591,0.588235318660736);
#360=COLOUR_RGB('',0.509803950786591,0.509803950786591,0.588235318660736);
#361=COLOUR_RGB('',0.509803950786591,0.509803950786591,0.588235318660736);
#362=COLOUR_RGB('',0.509803950786591,0.509803950786591,0.588235318660736);
#363=COLOUR_RGB('',0.509803950786591,0.509803950786591,0.588235318660736);
ENDSEC;
END-ISO-10303-21;
