ISO-10303-21;
HEADER;
FILE_DESCRIPTION(('STEP AP214'),'1');
FILE_NAME('C:/Temp/output/halder/CAD/Temp/HALDERN_EH_23111_0702.stp','2015-05-04T09:25:15',('TraceParts'),('TraceParts S.A.'),'Spatial InterOp 3D',' ',' ');
FILE_SCHEMA(('automotive_design'));
ENDSEC;
DATA;
#1=MECHANICAL_DESIGN_GEOMETRIC_PRESENTATION_REPRESENTATION(' ',(#10,#11,#12,#13,#14,#15,#16,#17,#18,#19,#20,#21,#22,#23),#6);
#2=PRODUCT_DEFINITION_CONTEXT('',#24,'design');
#3=APPLICATION_PROTOCOL_DEFINITION('INTERNATIONAL STANDARD','automotive_design',1994,#24);
#4=PRODUCT_CATEGORY_RELATIONSHIP('NONE','NONE',#25,#26);
#5=SHAPE_DEFINITION_REPRESENTATION(#27,#28);
#6= (GEOMETRIC_REPRESENTATION_CONTEXT(3)GLOBAL_UNCERTAINTY_ASSIGNED_CONTEXT((#31))GLOBAL_UNIT_ASSIGNED_CONTEXT((#33,#34,#35))REPRESENTATION_CONTEXT('NONE','WORKSPACE'));
#10=STYLED_ITEM('',(#37),#38);
#11=STYLED_ITEM('',(#39),#40);
#12=STYLED_ITEM('',(#41),#42);
#13=STYLED_ITEM('',(#43),#44);
#14=STYLED_ITEM('',(#45),#46);
#15=STYLED_ITEM('',(#47),#48);
#16=STYLED_ITEM('',(#49),#50);
#17=STYLED_ITEM('',(#51),#52);
#18=STYLED_ITEM('',(#53),#54);
#19=STYLED_ITEM('',(#55),#56);
#20=STYLED_ITEM('',(#57),#58);
#21=STYLED_ITEM('',(#59),#60);
#22=STYLED_ITEM('',(#61),#62);
#23=STYLED_ITEM('',(#63),#64);
#24=APPLICATION_CONTEXT(' ');
#25=PRODUCT_CATEGORY('part','NONE');
#26=PRODUCT_RELATED_PRODUCT_CATEGORY('detail',' ',(#65));
#27=PRODUCT_DEFINITION_SHAPE('NONE','NONE',#66);
#28=ADVANCED_BREP_SHAPE_REPRESENTATION('1',(#67,#68),#6);
#31=UNCERTAINTY_MEASURE_WITH_UNIT(LENGTH_MEASURE(1.0E-006),#33,'','');
#33= (CONVERSION_BASED_UNIT('MILLIMETRE',#71)LENGTH_UNIT()NAMED_UNIT(#74));
#34= (NAMED_UNIT(#76)PLANE_ANGLE_UNIT()SI_UNIT($,.RADIAN.));
#35= (NAMED_UNIT(#76)SOLID_ANGLE_UNIT()SI_UNIT($,.STERADIAN.));
#37=PRESENTATION_STYLE_ASSIGNMENT((#82));
#38=ADVANCED_FACE('',(#83,#84),#85,.T.);
#39=PRESENTATION_STYLE_ASSIGNMENT((#86));
#40=ADVANCED_FACE('',(#87,#88),#89,.T.);
#41=PRESENTATION_STYLE_ASSIGNMENT((#90));
#42=ADVANCED_FACE('',(#91),#92,.F.);
#43=PRESENTATION_STYLE_ASSIGNMENT((#93));
#44=ADVANCED_FACE('',(#94),#95,.F.);
#45=PRESENTATION_STYLE_ASSIGNMENT((#96));
#46=ADVANCED_FACE('',(#97),#98,.F.);
#47=PRESENTATION_STYLE_ASSIGNMENT((#99));
#48=ADVANCED_FACE('',(#100),#101,.T.);
#49=PRESENTATION_STYLE_ASSIGNMENT((#102));
#50=ADVANCED_FACE('',(#103),#104,.F.);
#51=PRESENTATION_STYLE_ASSIGNMENT((#105));
#52=ADVANCED_FACE('',(#106),#107,.T.);
#53=PRESENTATION_STYLE_ASSIGNMENT((#108));
#54=ADVANCED_FACE('',(#109),#110,.F.);
#55=PRESENTATION_STYLE_ASSIGNMENT((#111));
#56=ADVANCED_FACE('',(#112),#113,.F.);
#57=PRESENTATION_STYLE_ASSIGNMENT((#114));
#58=ADVANCED_FACE('',(#115),#116,.T.);
#59=PRESENTATION_STYLE_ASSIGNMENT((#117));
#60=ADVANCED_FACE('',(#118),#119,.T.);
#61=PRESENTATION_STYLE_ASSIGNMENT((#120));
#62=ADVANCED_FACE('',(#121),#122,.T.);
#63=PRESENTATION_STYLE_ASSIGNMENT((#123));
#64=ADVANCED_FACE('',(#124),#125,.T.);
#65=PRODUCT('1','1','PART-1-DESC',(#126));
#66=PRODUCT_DEFINITION('NONE','NONE',#127,#2);
#67=MANIFOLD_SOLID_BREP('1',#128);
#68=AXIS2_PLACEMENT_3D('',#129,#130,#131);
#71=LENGTH_MEASURE_WITH_UNIT(LENGTH_MEASURE(1.0),#132);
#74=DIMENSIONAL_EXPONENTS(1.0,0.0,0.0,0.0,0.0,0.0,0.0);
#76=DIMENSIONAL_EXPONENTS(0.0,0.0,0.0,0.0,0.0,0.0,0.0);
#82=SURFACE_STYLE_USAGE(.BOTH.,#133);
#83=FACE_BOUND('',#134,.T.);
#84=FACE_OUTER_BOUND('',#135,.T.);
#85=PLANE('',#136);
#86=SURFACE_STYLE_USAGE(.BOTH.,#137);
#87=FACE_BOUND('',#138,.T.);
#88=FACE_OUTER_BOUND('',#139,.T.);
#89=PLANE('',#140);
#90=SURFACE_STYLE_USAGE(.BOTH.,#141);
#91=FACE_OUTER_BOUND('',#142,.T.);
#92=CONICAL_SURFACE('',#143,8.16,0.785398163397449);
#93=SURFACE_STYLE_USAGE(.BOTH.,#144);
#94=FACE_OUTER_BOUND('',#145,.T.);
#95=CYLINDRICAL_SURFACE('',#146,8.0);
#96=SURFACE_STYLE_USAGE(.BOTH.,#147);
#97=FACE_OUTER_BOUND('',#148,.T.);
#98=CONICAL_SURFACE('',#149,8.16,0.785398163397448);
#99=SURFACE_STYLE_USAGE(.BOTH.,#150);
#100=FACE_OUTER_BOUND('',#151,.T.);
#101=CYLINDRICAL_SURFACE('',#152,12.5);
#102=SURFACE_STYLE_USAGE(.BOTH.,#153);
#103=FACE_OUTER_BOUND('',#154,.T.);
#104=CONICAL_SURFACE('',#155,8.16,0.785398163397448);
#105=SURFACE_STYLE_USAGE(.BOTH.,#156);
#106=FACE_OUTER_BOUND('',#157,.T.);
#107=CONICAL_SURFACE('',#158,12.25,0.785398163397448);
#108=SURFACE_STYLE_USAGE(.BOTH.,#159);
#109=FACE_OUTER_BOUND('',#160,.T.);
#110=CONICAL_SURFACE('',#161,8.16,0.785398163397449);
#111=SURFACE_STYLE_USAGE(.BOTH.,#162);
#112=FACE_OUTER_BOUND('',#163,.T.);
#113=CYLINDRICAL_SURFACE('',#164,8.0);
#114=SURFACE_STYLE_USAGE(.BOTH.,#165);
#115=FACE_OUTER_BOUND('',#166,.T.);
#116=CONICAL_SURFACE('',#167,12.25,0.785398163397448);
#117=SURFACE_STYLE_USAGE(.BOTH.,#168);
#118=FACE_OUTER_BOUND('',#169,.T.);
#119=CYLINDRICAL_SURFACE('',#170,12.5);
#120=SURFACE_STYLE_USAGE(.BOTH.,#171);
#121=FACE_OUTER_BOUND('',#172,.T.);
#122=CONICAL_SURFACE('',#173,12.25,0.785398163397448);
#123=SURFACE_STYLE_USAGE(.BOTH.,#174);
#124=FACE_OUTER_BOUND('',#175,.T.);
#125=CONICAL_SURFACE('',#176,12.25,0.785398163397448);
#126=PRODUCT_CONTEXT('',#24,'mechanical');
#127=PRODUCT_DEFINITION_FORMATION_WITH_SPECIFIED_SOURCE(' ','NONE',#65,.NOT_KNOWN.);
#128=CLOSED_SHELL('',(#48,#58,#52,#50,#56,#54,#42,#44,#46,#62,#64,#60,#38,#40));
#129=CARTESIAN_POINT('',(0.0,0.0,0.0));
#130=DIRECTION('',(0.0,0.0,1.0));
#131=DIRECTION('',(1.0,0.0,0.0));
#132= (NAMED_UNIT(#74)LENGTH_UNIT()SI_UNIT(.MILLI.,.METRE.));
#133=SURFACE_SIDE_STYLE('',(#178));
#134=EDGE_LOOP('',(#179,#180));
#135=EDGE_LOOP('',(#181,#182));
#136=AXIS2_PLACEMENT_3D('',#183,#184,#185);
#137=SURFACE_SIDE_STYLE('',(#186));
#138=EDGE_LOOP('',(#187,#188));
#139=EDGE_LOOP('',(#189,#190));
#140=AXIS2_PLACEMENT_3D('',#191,#192,#193);
#141=SURFACE_SIDE_STYLE('',(#194));
#142=EDGE_LOOP('',(#195,#196,#197,#198));
#143=AXIS2_PLACEMENT_3D('',#199,#200,#201);
#144=SURFACE_SIDE_STYLE('',(#202));
#145=EDGE_LOOP('',(#203,#204,#205,#206));
#146=AXIS2_PLACEMENT_3D('',#207,#208,#209);
#147=SURFACE_SIDE_STYLE('',(#210));
#148=EDGE_LOOP('',(#211,#212,#213,#214));
#149=AXIS2_PLACEMENT_3D('',#215,#216,#217);
#150=SURFACE_SIDE_STYLE('',(#218));
#151=EDGE_LOOP('',(#219,#220,#221,#222,#223,#224));
#152=AXIS2_PLACEMENT_3D('',#225,#226,#227);
#153=SURFACE_SIDE_STYLE('',(#228));
#154=EDGE_LOOP('',(#229,#230,#231,#232));
#155=AXIS2_PLACEMENT_3D('',#233,#234,#235);
#156=SURFACE_SIDE_STYLE('',(#236));
#157=EDGE_LOOP('',(#237,#238,#239,#240,#241));
#158=AXIS2_PLACEMENT_3D('',#242,#243,#244);
#159=SURFACE_SIDE_STYLE('',(#245));
#160=EDGE_LOOP('',(#246,#247,#248,#249));
#161=AXIS2_PLACEMENT_3D('',#250,#251,#252);
#162=SURFACE_SIDE_STYLE('',(#253));
#163=EDGE_LOOP('',(#254,#255,#256,#257));
#164=AXIS2_PLACEMENT_3D('',#258,#259,#260);
#165=SURFACE_SIDE_STYLE('',(#261));
#166=EDGE_LOOP('',(#262,#263,#264,#265,#266));
#167=AXIS2_PLACEMENT_3D('',#267,#268,#269);
#168=SURFACE_SIDE_STYLE('',(#270));
#169=EDGE_LOOP('',(#271,#272,#273,#274,#275,#276));
#170=AXIS2_PLACEMENT_3D('',#277,#278,#279);
#171=SURFACE_SIDE_STYLE('',(#280));
#172=EDGE_LOOP('',(#281,#282,#283,#284,#285));
#173=AXIS2_PLACEMENT_3D('',#286,#287,#288);
#174=SURFACE_SIDE_STYLE('',(#289));
#175=EDGE_LOOP('',(#290,#291,#292,#293,#294));
#176=AXIS2_PLACEMENT_3D('',#295,#296,#297);
#178=SURFACE_STYLE_FILL_AREA(#298);
#179=ORIENTED_EDGE('',*,*,#299,.T.);
#180=ORIENTED_EDGE('',*,*,#300,.T.);
#181=ORIENTED_EDGE('',*,*,#301,.T.);
#182=ORIENTED_EDGE('',*,*,#302,.T.);
#183=CARTESIAN_POINT('',(0.0,0.0,0.0));
#184=DIRECTION('',(-1.0,0.0,0.0));
#185=DIRECTION('',(0.0,0.0,1.0));
#186=SURFACE_STYLE_FILL_AREA(#303);
#187=ORIENTED_EDGE('',*,*,#304,.T.);
#188=ORIENTED_EDGE('',*,*,#305,.T.);
#189=ORIENTED_EDGE('',*,*,#306,.T.);
#190=ORIENTED_EDGE('',*,*,#307,.T.);
#191=CARTESIAN_POINT('',(20.0,0.0,0.0));
#192=DIRECTION('',(1.0,0.0,0.0));
#193=DIRECTION('',(0.0,0.0,-1.0));
#194=SURFACE_STYLE_FILL_AREA(#308);
#195=ORIENTED_EDGE('',*,*,#309,.T.);
#196=ORIENTED_EDGE('',*,*,#300,.F.);
#197=ORIENTED_EDGE('',*,*,#310,.T.);
#198=ORIENTED_EDGE('',*,*,#311,.T.);
#199=CARTESIAN_POINT('',(0.16,0.0,0.0));
#200=DIRECTION('',(-1.0,-0.0,-0.0));
#201=DIRECTION('',(0.0,1.0,0.0));
#202=SURFACE_STYLE_FILL_AREA(#312);
#203=ORIENTED_EDGE('',*,*,#313,.T.);
#204=ORIENTED_EDGE('',*,*,#311,.F.);
#205=ORIENTED_EDGE('',*,*,#314,.T.);
#206=ORIENTED_EDGE('',*,*,#315,.T.);
#207=CARTESIAN_POINT('',(10.0,0.0,0.0));
#208=DIRECTION('',(1.0,0.0,0.0));
#209=DIRECTION('',(0.0,1.0,0.0));
#210=SURFACE_STYLE_FILL_AREA(#316);
#211=ORIENTED_EDGE('',*,*,#317,.T.);
#212=ORIENTED_EDGE('',*,*,#315,.F.);
#213=ORIENTED_EDGE('',*,*,#318,.T.);
#214=ORIENTED_EDGE('',*,*,#304,.F.);
#215=CARTESIAN_POINT('',(19.84,0.0,0.0));
#216=DIRECTION('',(1.0,-0.0,-0.0));
#217=DIRECTION('',(0.0,1.0,0.0));
#218=SURFACE_STYLE_FILL_AREA(#319);
#219=ORIENTED_EDGE('',*,*,#320,.F.);
#220=ORIENTED_EDGE('',*,*,#321,.T.);
#221=ORIENTED_EDGE('',*,*,#322,.T.);
#222=ORIENTED_EDGE('',*,*,#323,.F.);
#223=ORIENTED_EDGE('',*,*,#324,.T.);
#224=ORIENTED_EDGE('',*,*,#325,.T.);
#225=CARTESIAN_POINT('',(10.0,0.0,0.0));
#226=DIRECTION('',(1.0,0.0,0.0));
#227=DIRECTION('',(0.0,0.0,-1.0));
#228=SURFACE_STYLE_FILL_AREA(#326);
#229=ORIENTED_EDGE('',*,*,#317,.F.);
#230=ORIENTED_EDGE('',*,*,#305,.F.);
#231=ORIENTED_EDGE('',*,*,#318,.F.);
#232=ORIENTED_EDGE('',*,*,#327,.F.);
#233=CARTESIAN_POINT('',(19.84,0.0,0.0));
#234=DIRECTION('',(1.0,-0.0,-0.0));
#235=DIRECTION('',(0.0,1.0,0.0));
#236=SURFACE_STYLE_FILL_AREA(#328);
#237=ORIENTED_EDGE('',*,*,#329,.F.);
#238=ORIENTED_EDGE('',*,*,#307,.F.);
#239=ORIENTED_EDGE('',*,*,#330,.F.);
#240=ORIENTED_EDGE('',*,*,#331,.F.);
#241=ORIENTED_EDGE('',*,*,#325,.F.);
#242=CARTESIAN_POINT('',(19.75,0.0,-6.12303176911189E-017));
#243=DIRECTION('',(-1.0,0.0,-2.44921270764475E-016));
#244=DIRECTION('',(0.0,1.0,0.0));
#245=SURFACE_STYLE_FILL_AREA(#332);
#246=ORIENTED_EDGE('',*,*,#309,.F.);
#247=ORIENTED_EDGE('',*,*,#333,.T.);
#248=ORIENTED_EDGE('',*,*,#310,.F.);
#249=ORIENTED_EDGE('',*,*,#299,.F.);
#250=CARTESIAN_POINT('',(0.16,0.0,0.0));
#251=DIRECTION('',(-1.0,-0.0,-0.0));
#252=DIRECTION('',(0.0,1.0,0.0));
#253=SURFACE_STYLE_FILL_AREA(#334);
#254=ORIENTED_EDGE('',*,*,#313,.F.);
#255=ORIENTED_EDGE('',*,*,#327,.T.);
#256=ORIENTED_EDGE('',*,*,#314,.F.);
#257=ORIENTED_EDGE('',*,*,#333,.F.);
#258=CARTESIAN_POINT('',(10.0,0.0,0.0));
#259=DIRECTION('',(1.0,0.0,0.0));
#260=DIRECTION('',(0.0,1.0,0.0));
#261=SURFACE_STYLE_FILL_AREA(#335);
#262=ORIENTED_EDGE('',*,*,#336,.F.);
#263=ORIENTED_EDGE('',*,*,#302,.F.);
#264=ORIENTED_EDGE('',*,*,#337,.F.);
#265=ORIENTED_EDGE('',*,*,#338,.F.);
#266=ORIENTED_EDGE('',*,*,#322,.F.);
#267=CARTESIAN_POINT('',(0.25,0.0,3.06151588455594E-017));
#268=DIRECTION('',(1.0,-0.0,1.22460635382238E-016));
#269=DIRECTION('',(0.0,1.0,0.0));
#270=SURFACE_STYLE_FILL_AREA(#339);
#271=ORIENTED_EDGE('',*,*,#320,.T.);
#272=ORIENTED_EDGE('',*,*,#331,.T.);
#273=ORIENTED_EDGE('',*,*,#340,.T.);
#274=ORIENTED_EDGE('',*,*,#323,.T.);
#275=ORIENTED_EDGE('',*,*,#338,.T.);
#276=ORIENTED_EDGE('',*,*,#341,.T.);
#277=CARTESIAN_POINT('',(10.0,0.0,0.0));
#278=DIRECTION('',(1.0,0.0,0.0));
#279=DIRECTION('',(0.0,0.0,-1.0));
#280=SURFACE_STYLE_FILL_AREA(#342);
#281=ORIENTED_EDGE('',*,*,#329,.T.);
#282=ORIENTED_EDGE('',*,*,#324,.F.);
#283=ORIENTED_EDGE('',*,*,#340,.F.);
#284=ORIENTED_EDGE('',*,*,#330,.T.);
#285=ORIENTED_EDGE('',*,*,#306,.F.);
#286=CARTESIAN_POINT('',(19.75,0.0,-6.12303176911189E-017));
#287=DIRECTION('',(-1.0,0.0,-2.44921270764475E-016));
#288=DIRECTION('',(0.0,1.0,0.0));
#289=SURFACE_STYLE_FILL_AREA(#343);
#290=ORIENTED_EDGE('',*,*,#336,.T.);
#291=ORIENTED_EDGE('',*,*,#321,.F.);
#292=ORIENTED_EDGE('',*,*,#341,.F.);
#293=ORIENTED_EDGE('',*,*,#337,.T.);
#294=ORIENTED_EDGE('',*,*,#301,.F.);
#295=CARTESIAN_POINT('',(0.25,0.0,3.06151588455594E-017));
#296=DIRECTION('',(1.0,-0.0,1.22460635382238E-016));
#297=DIRECTION('',(0.0,1.0,0.0));
#298=FILL_AREA_STYLE('',(#344));
#299=EDGE_CURVE('',#345,#346,#347,.T.);
#300=EDGE_CURVE('',#346,#345,#348,.T.);
#301=EDGE_CURVE('',#349,#350,#351,.T.);
#302=EDGE_CURVE('',#350,#349,#352,.T.);
#303=FILL_AREA_STYLE('',(#353));
#304=EDGE_CURVE('',#354,#355,#356,.T.);
#305=EDGE_CURVE('',#355,#354,#357,.T.);
#306=EDGE_CURVE('',#358,#359,#360,.T.);
#307=EDGE_CURVE('',#359,#358,#361,.T.);
#308=FILL_AREA_STYLE('',(#362));
#309=EDGE_CURVE('',#363,#345,#364,.T.);
#310=EDGE_CURVE('',#346,#365,#366,.T.);
#311=EDGE_CURVE('',#365,#363,#367,.T.);
#312=FILL_AREA_STYLE('',(#368));
#313=EDGE_CURVE('',#369,#363,#370,.T.);
#314=EDGE_CURVE('',#365,#371,#372,.T.);
#315=EDGE_CURVE('',#371,#369,#373,.T.);
#316=FILL_AREA_STYLE('',(#374));
#317=EDGE_CURVE('',#354,#369,#375,.T.);
#318=EDGE_CURVE('',#371,#355,#376,.T.);
#319=FILL_AREA_STYLE('',(#377));
#320=EDGE_CURVE('',#378,#379,#380,.T.);
#321=EDGE_CURVE('',#378,#381,#382,.T.);
#322=EDGE_CURVE('',#381,#383,#384,.T.);
#323=EDGE_CURVE('',#385,#383,#386,.T.);
#324=EDGE_CURVE('',#385,#387,#388,.T.);
#325=EDGE_CURVE('',#387,#379,#389,.T.);
#326=FILL_AREA_STYLE('',(#390));
#327=EDGE_CURVE('',#369,#371,#391,.T.);
#328=FILL_AREA_STYLE('',(#392));
#329=EDGE_CURVE('',#358,#387,#393,.T.);
#330=EDGE_CURVE('',#394,#359,#395,.T.);
#331=EDGE_CURVE('',#379,#394,#396,.T.);
#332=FILL_AREA_STYLE('',(#397));
#333=EDGE_CURVE('',#363,#365,#398,.T.);
#334=FILL_AREA_STYLE('',(#399));
#335=FILL_AREA_STYLE('',(#400));
#336=EDGE_CURVE('',#349,#381,#401,.T.);
#337=EDGE_CURVE('',#402,#350,#403,.T.);
#338=EDGE_CURVE('',#383,#402,#404,.T.);
#339=FILL_AREA_STYLE('',(#405));
#340=EDGE_CURVE('',#394,#385,#406,.T.);
#341=EDGE_CURVE('',#402,#378,#407,.T.);
#342=FILL_AREA_STYLE('',(#408));
#343=FILL_AREA_STYLE('',(#409));
#344=FILL_AREA_STYLE_COLOUR('',#410);
#345=VERTEX_POINT('',#411);
#346=VERTEX_POINT('',#412);
#347=CIRCLE('',#413,8.32);
#348=CIRCLE('',#414,8.32);
#349=VERTEX_POINT('',#415);
#350=VERTEX_POINT('',#416);
#351=CIRCLE('',#417,12.0);
#352=CIRCLE('',#418,12.0);
#353=FILL_AREA_STYLE_COLOUR('',#419);
#354=VERTEX_POINT('',#420);
#355=VERTEX_POINT('',#421);
#356=CIRCLE('',#422,8.32);
#357=CIRCLE('',#423,8.32);
#358=VERTEX_POINT('',#424);
#359=VERTEX_POINT('',#425);
#360=CIRCLE('',#426,12.0);
#361=CIRCLE('',#427,12.0);
#362=FILL_AREA_STYLE_COLOUR('',#428);
#363=VERTEX_POINT('',#429);
#364=LINE('',#430,#431);
#365=VERTEX_POINT('',#432);
#366=LINE('',#433,#434);
#367=CIRCLE('',#435,8.0);
#368=FILL_AREA_STYLE_COLOUR('',#436);
#369=VERTEX_POINT('',#437);
#370=LINE('',#438,#439);
#371=VERTEX_POINT('',#440);
#372=LINE('',#441,#442);
#373=CIRCLE('',#443,8.0);
#374=FILL_AREA_STYLE_COLOUR('',#444);
#375=LINE('',#445,#446);
#376=LINE('',#447,#448);
#377=FILL_AREA_STYLE_COLOUR('',#449);
#378=VERTEX_POINT('',#450);
#379=VERTEX_POINT('',#451);
#380=LINE('',#452,#453);
#381=VERTEX_POINT('',#454);
#382=CIRCLE('',#455,12.5);
#383=VERTEX_POINT('',#456);
#384=CIRCLE('',#457,12.5);
#385=VERTEX_POINT('',#458);
#386=LINE('',#459,#460);
#387=VERTEX_POINT('',#461);
#388=CIRCLE('',#462,12.5);
#389=CIRCLE('',#463,12.5);
#390=FILL_AREA_STYLE_COLOUR('',#464);
#391=CIRCLE('',#465,8.0);
#392=FILL_AREA_STYLE_COLOUR('',#466);
#393=LINE('',#467,#468);
#394=VERTEX_POINT('',#469);
#395=LINE('',#470,#471);
#396=CIRCLE('',#472,12.5);
#397=FILL_AREA_STYLE_COLOUR('',#473);
#398=CIRCLE('',#474,8.0);
#399=FILL_AREA_STYLE_COLOUR('',#475);
#400=FILL_AREA_STYLE_COLOUR('',#476);
#401=LINE('',#477,#478);
#402=VERTEX_POINT('',#479);
#403=LINE('',#480,#481);
#404=CIRCLE('',#482,12.5);
#405=FILL_AREA_STYLE_COLOUR('',#483);
#406=CIRCLE('',#484,12.5);
#407=CIRCLE('',#485,12.5);
#408=FILL_AREA_STYLE_COLOUR('',#486);
#409=FILL_AREA_STYLE_COLOUR('',#487);
#410=COLOUR_RGB('',0.752941191196442,0.752941191196442,0.752941191196442);
#411=CARTESIAN_POINT('',(0.0,8.32,0.0));
#412=CARTESIAN_POINT('',(0.0,-8.32,1.01887248638022E-015));
#413=AXIS2_PLACEMENT_3D('',#488,#489,#490);
#414=AXIS2_PLACEMENT_3D('',#491,#492,#493);
#415=CARTESIAN_POINT('',(0.0,12.0,0.0));
#416=CARTESIAN_POINT('',(0.0,-12.0,-1.46952762458685E-015));
#417=AXIS2_PLACEMENT_3D('',#494,#495,#496);
#418=AXIS2_PLACEMENT_3D('',#497,#498,#499);
#419=COLOUR_RGB('',0.752941191196442,0.752941191196442,0.752941191196442);
#420=CARTESIAN_POINT('',(20.0,8.32,0.0));
#421=CARTESIAN_POINT('',(20.0,-8.32,1.01887248638022E-015));
#422=AXIS2_PLACEMENT_3D('',#500,#501,#502);
#423=AXIS2_PLACEMENT_3D('',#503,#504,#505);
#424=CARTESIAN_POINT('',(20.0,12.0,0.0));
#425=CARTESIAN_POINT('',(20.0,-12.0,1.46952762458685E-015));
#426=AXIS2_PLACEMENT_3D('',#506,#507,#508);
#427=AXIS2_PLACEMENT_3D('',#509,#510,#511);
#428=COLOUR_RGB('',0.752941191196442,0.752941191196442,0.752941191196442);
#429=CARTESIAN_POINT('',(0.32,8.0,0.0));
#430=CARTESIAN_POINT('',(0.16,8.16,-9.9927878471906E-016));
#431=VECTOR('',#512,1.0);
#432=CARTESIAN_POINT('',(0.32,-8.0,9.79685083057902E-016));
#433=CARTESIAN_POINT('',(0.16,-8.16,9.9927878471906E-016));
#434=VECTOR('',#513,1.0);
#435=AXIS2_PLACEMENT_3D('',#514,#515,#516);
#436=COLOUR_RGB('',0.752941191196442,0.752941191196442,0.752941191196442);
#437=CARTESIAN_POINT('',(19.68,8.0,0.0));
#438=CARTESIAN_POINT('',(10.0,8.0,-9.79685083057902E-016));
#439=VECTOR('',#517,1.0);
#440=CARTESIAN_POINT('',(19.68,-8.0,9.79685083057902E-016));
#441=CARTESIAN_POINT('',(10.0,-8.0,9.79685083057902E-016));
#442=VECTOR('',#518,1.0);
#443=AXIS2_PLACEMENT_3D('',#519,#520,#521);
#444=COLOUR_RGB('',0.752941191196442,0.752941191196442,0.752941191196442);
#445=CARTESIAN_POINT('',(19.84,8.16,-9.9927878471906E-016));
#446=VECTOR('',#522,1.0);
#447=CARTESIAN_POINT('',(19.84,-8.16,9.9927878471906E-016));
#448=VECTOR('',#523,1.0);
#449=COLOUR_RGB('',0.752941191196442,0.752941191196442,0.752941191196442);
#450=CARTESIAN_POINT('',(0.500000000000002,-1.53075794227797E-015,-12.5));
#451=CARTESIAN_POINT('',(19.5,-1.53075794227797E-015,-12.5));
#452=CARTESIAN_POINT('',(10.0,-1.53075794227797E-015,-12.5));
#453=VECTOR('',#524,1.0);
#454=CARTESIAN_POINT('',(0.5,12.5,6.12303176911189E-017));
#455=AXIS2_PLACEMENT_3D('',#525,#526,#527);
#456=CARTESIAN_POINT('',(0.499999999999998,1.53075794227797E-015,12.5));
#457=AXIS2_PLACEMENT_3D('',#528,#529,#530);
#458=CARTESIAN_POINT('',(19.5,1.53075794227797E-015,12.5));
#459=CARTESIAN_POINT('',(10.0,1.53075794227797E-015,12.5));
#460=VECTOR('',#531,1.0);
#461=CARTESIAN_POINT('',(19.5,12.5,-1.22460635382238E-016));
#462=AXIS2_PLACEMENT_3D('',#532,#533,#534);
#463=AXIS2_PLACEMENT_3D('',#535,#536,#537);
#464=COLOUR_RGB('',0.752941191196442,0.752941191196442,0.752941191196442);
#465=AXIS2_PLACEMENT_3D('',#538,#539,#540);
#466=COLOUR_RGB('',0.752941191196442,0.752941191196442,0.752941191196442);
#467=CARTESIAN_POINT('',(19.75,12.25,-1.56137310112353E-015));
#468=VECTOR('',#541,1.0);
#469=CARTESIAN_POINT('',(19.5,-12.5,1.40829730689573E-015));
#470=CARTESIAN_POINT('',(19.75,-12.25,1.43891246574129E-015));
#471=VECTOR('',#542,1.0);
#472=AXIS2_PLACEMENT_3D('',#543,#544,#545);
#473=COLOUR_RGB('',0.752941191196442,0.752941191196442,0.752941191196442);
#474=AXIS2_PLACEMENT_3D('',#546,#547,#548);
#475=COLOUR_RGB('',0.752941191196442,0.752941191196442,0.752941191196442);
#476=COLOUR_RGB('',0.752941191196442,0.752941191196442,0.752941191196442);
#477=CARTESIAN_POINT('',(0.25,12.25,1.53075794227797E-015));
#478=VECTOR('',#549,1.0);
#479=CARTESIAN_POINT('',(0.5,-12.5,-1.46952762458685E-015));
#480=CARTESIAN_POINT('',(0.25,-12.25,-1.46952762458685E-015));
#481=VECTOR('',#550,1.0);
#482=AXIS2_PLACEMENT_3D('',#551,#552,#553);
#483=COLOUR_RGB('',0.752941191196442,0.752941191196442,0.752941191196442);
#484=AXIS2_PLACEMENT_3D('',#554,#555,#556);
#485=AXIS2_PLACEMENT_3D('',#557,#558,#559);
#486=COLOUR_RGB('',0.752941191196442,0.752941191196442,0.752941191196442);
#487=COLOUR_RGB('',0.752941191196442,0.752941191196442,0.752941191196442);
#488=CARTESIAN_POINT('',(0.0,0.0,0.0));
#489=DIRECTION('',(1.0,0.0,0.0));
#490=DIRECTION('',(0.0,1.0,0.0));
#491=CARTESIAN_POINT('',(0.0,0.0,0.0));
#492=DIRECTION('',(1.0,0.0,0.0));
#493=DIRECTION('',(0.0,1.0,0.0));
#494=CARTESIAN_POINT('',(0.0,0.0,6.16297582203915E-033));
#495=DIRECTION('',(-1.0,0.0,0.0));
#496=DIRECTION('',(0.0,1.0,0.0));
#497=CARTESIAN_POINT('',(0.0,0.0,6.16297582203915E-033));
#498=DIRECTION('',(-1.0,0.0,0.0));
#499=DIRECTION('',(0.0,1.0,0.0));
#500=CARTESIAN_POINT('',(20.0,0.0,0.0));
#501=DIRECTION('',(-1.0,0.0,0.0));
#502=DIRECTION('',(0.0,1.0,0.0));
#503=CARTESIAN_POINT('',(20.0,0.0,0.0));
#504=DIRECTION('',(-1.0,0.0,0.0));
#505=DIRECTION('',(0.0,1.0,0.0));
#506=CARTESIAN_POINT('',(20.0,0.0,-1.23259516440783E-032));
#507=DIRECTION('',(1.0,0.0,0.0));
#508=DIRECTION('',(0.0,1.0,0.0));
#509=CARTESIAN_POINT('',(20.0,0.0,-1.23259516440783E-032));
#510=DIRECTION('',(1.0,0.0,0.0));
#511=DIRECTION('',(0.0,1.0,0.0));
#512=DIRECTION('',(-0.707106781186547,0.707106781186548,-8.65927457071936E-017));
#513=DIRECTION('',(0.707106781186547,0.707106781186548,-8.65927457071936E-017));
#514=CARTESIAN_POINT('',(0.32,0.0,0.0));
#515=DIRECTION('',(1.0,0.0,0.0));
#516=DIRECTION('',(0.0,1.0,0.0));
#517=DIRECTION('',(-1.0,-0.0,0.0));
#518=DIRECTION('',(1.0,-0.0,0.0));
#519=CARTESIAN_POINT('',(19.68,0.0,0.0));
#520=DIRECTION('',(1.0,0.0,0.0));
#521=DIRECTION('',(0.0,1.0,0.0));
#522=DIRECTION('',(-0.707106781186547,-0.707106781186548,8.65927457071935E-017));
#523=DIRECTION('',(0.707106781186547,-0.707106781186548,8.65927457071935E-017));
#524=DIRECTION('',(1.0,0.0,0.0));
#525=CARTESIAN_POINT('',(0.5,0.0,0.0));
#526=DIRECTION('',(1.0,0.0,1.22460635382238E-016));
#527=DIRECTION('',(1.22460635382238E-016,0.0,-1.0));
#528=CARTESIAN_POINT('',(0.5,0.0,0.0));
#529=DIRECTION('',(1.0,0.0,1.22460635382238E-016));
#530=DIRECTION('',(1.22460635382238E-016,0.0,-1.0));
#531=DIRECTION('',(-1.0,-0.0,-0.0));
#532=CARTESIAN_POINT('',(19.5,0.0,0.0));
#533=DIRECTION('',(-1.0,0.0,-2.44921270764475E-016));
#534=DIRECTION('',(2.44921270764475E-016,0.0,-1.0));
#535=CARTESIAN_POINT('',(19.5,0.0,0.0));
#536=DIRECTION('',(-1.0,0.0,-2.44921270764475E-016));
#537=DIRECTION('',(2.44921270764475E-016,0.0,-1.0));
#538=CARTESIAN_POINT('',(19.68,0.0,0.0));
#539=DIRECTION('',(1.0,0.0,0.0));
#540=DIRECTION('',(0.0,1.0,0.0));
#541=DIRECTION('',(-0.707106781186548,0.707106781186547,-2.59778237121581E-016));
#542=DIRECTION('',(0.707106781186548,0.707106781186547,8.65927457071935E-017));
#543=CARTESIAN_POINT('',(19.5,0.0,0.0));
#544=DIRECTION('',(-1.0,0.0,-2.44921270764475E-016));
#545=DIRECTION('',(2.44921270764475E-016,0.0,-1.0));
#546=CARTESIAN_POINT('',(0.32,0.0,0.0));
#547=DIRECTION('',(1.0,0.0,0.0));
#548=DIRECTION('',(0.0,1.0,0.0));
#549=DIRECTION('',(0.707106781186548,0.707106781186547,1.73185491414387E-016));
#550=DIRECTION('',(-0.707106781186548,0.707106781186547,1.60992021473676E-032));
#551=CARTESIAN_POINT('',(0.5,0.0,0.0));
#552=DIRECTION('',(1.0,0.0,1.22460635382238E-016));
#553=DIRECTION('',(1.22460635382238E-016,0.0,-1.0));
#554=CARTESIAN_POINT('',(19.5,0.0,0.0));
#555=DIRECTION('',(-1.0,0.0,-2.44921270764475E-016));
#556=DIRECTION('',(2.44921270764475E-016,0.0,-1.0));
#557=CARTESIAN_POINT('',(0.5,0.0,0.0));
#558=DIRECTION('',(1.0,0.0,1.22460635382238E-016));
#559=DIRECTION('',(1.22460635382238E-016,0.0,-1.0));
ENDSEC;
END-ISO-10303-21;
