ISO-10303-21;
HEADER;
FILE_DESCRIPTION(('STEP AP214'),'1');
FILE_NAME('C:/Temp/output/halder/CAD/Temp/HALDERN_EH_23111_0708.stp','2015-05-04T09:25:15',('TraceParts'),('TraceParts S.A.'),'Spatial InterOp 3D',' ',' ');
FILE_SCHEMA(('automotive_design'));
ENDSEC;
DATA;
#1=MECHANICAL_DESIGN_GEOMETRIC_PRESENTATION_REPRESENTATION(' ',(#10,#11,#12,#13,#14,#15,#16,#17,#18,#19,#20,#21,#22,#23),#6);
#2=PRODUCT_DEFINITION_CONTEXT('',#24,'design');
#3=APPLICATION_PROTOCOL_DEFINITION('INTERNATIONAL STANDARD','automotive_design',1994,#24);
#4=PRODUCT_CATEGORY_RELATIONSHIP('NONE','NONE',#25,#26);
#5=SHAPE_DEFINITION_REPRESENTATION(#27,#28);
#6= (GEOMETRIC_REPRESENTATION_CONTEXT(3)GLOBAL_UNCERTAINTY_ASSIGNED_CONTEXT((#31))GLOBAL_UNIT_ASSIGNED_CONTEXT((#33,#34,#35))REPRESENTATION_CONTEXT('NONE','WORKSPACE'));
#10=STYLED_ITEM('',(#37),#38);
#11=STYLED_ITEM('',(#39),#40);
#12=STYLED_ITEM('',(#41),#42);
#13=STYLED_ITEM('',(#43),#44);
#14=STYLED_ITEM('',(#45),#46);
#15=STYLED_ITEM('',(#47),#48);
#16=STYLED_ITEM('',(#49),#50);
#17=STYLED_ITEM('',(#51),#52);
#18=STYLED_ITEM('',(#53),#54);
#19=STYLED_ITEM('',(#55),#56);
#20=STYLED_ITEM('',(#57),#58);
#21=STYLED_ITEM('',(#59),#60);
#22=STYLED_ITEM('',(#61),#62);
#23=STYLED_ITEM('',(#63),#64);
#24=APPLICATION_CONTEXT(' ');
#25=PRODUCT_CATEGORY('part','NONE');
#26=PRODUCT_RELATED_PRODUCT_CATEGORY('detail',' ',(#65));
#27=PRODUCT_DEFINITION_SHAPE('NONE','NONE',#66);
#28=ADVANCED_BREP_SHAPE_REPRESENTATION('1',(#67,#68),#6);
#31=UNCERTAINTY_MEASURE_WITH_UNIT(LENGTH_MEASURE(1.0E-006),#33,'','');
#33= (CONVERSION_BASED_UNIT('MILLIMETRE',#71)LENGTH_UNIT()NAMED_UNIT(#74));
#34= (NAMED_UNIT(#76)PLANE_ANGLE_UNIT()SI_UNIT($,.RADIAN.));
#35= (NAMED_UNIT(#76)SOLID_ANGLE_UNIT()SI_UNIT($,.STERADIAN.));
#37=PRESENTATION_STYLE_ASSIGNMENT((#82));
#38=ADVANCED_FACE('',(#83),#84,.T.);
#39=PRESENTATION_STYLE_ASSIGNMENT((#85));
#40=ADVANCED_FACE('',(#86),#87,.T.);
#41=PRESENTATION_STYLE_ASSIGNMENT((#88));
#42=ADVANCED_FACE('',(#89),#90,.F.);
#43=PRESENTATION_STYLE_ASSIGNMENT((#91));
#44=ADVANCED_FACE('',(#92),#93,.T.);
#45=PRESENTATION_STYLE_ASSIGNMENT((#94));
#46=ADVANCED_FACE('',(#95),#96,.T.);
#47=PRESENTATION_STYLE_ASSIGNMENT((#97));
#48=ADVANCED_FACE('',(#98),#99,.F.);
#49=PRESENTATION_STYLE_ASSIGNMENT((#100));
#50=ADVANCED_FACE('',(#101,#102),#103,.T.);
#51=PRESENTATION_STYLE_ASSIGNMENT((#104));
#52=ADVANCED_FACE('',(#105),#106,.T.);
#53=PRESENTATION_STYLE_ASSIGNMENT((#107));
#54=ADVANCED_FACE('',(#108),#109,.F.);
#55=PRESENTATION_STYLE_ASSIGNMENT((#110));
#56=ADVANCED_FACE('',(#111,#112),#113,.T.);
#57=PRESENTATION_STYLE_ASSIGNMENT((#114));
#58=ADVANCED_FACE('',(#115),#116,.F.);
#59=PRESENTATION_STYLE_ASSIGNMENT((#117));
#60=ADVANCED_FACE('',(#118),#119,.T.);
#61=PRESENTATION_STYLE_ASSIGNMENT((#120));
#62=ADVANCED_FACE('',(#121),#122,.F.);
#63=PRESENTATION_STYLE_ASSIGNMENT((#123));
#64=ADVANCED_FACE('',(#124),#125,.F.);
#65=PRODUCT('1','1','PART-1-DESC',(#126));
#66=PRODUCT_DEFINITION('NONE','NONE',#127,#2);
#67=MANIFOLD_SOLID_BREP('1',#128);
#68=AXIS2_PLACEMENT_3D('',#129,#130,#131);
#71=LENGTH_MEASURE_WITH_UNIT(LENGTH_MEASURE(1.0),#132);
#74=DIMENSIONAL_EXPONENTS(1.0,0.0,0.0,0.0,0.0,0.0,0.0);
#76=DIMENSIONAL_EXPONENTS(0.0,0.0,0.0,0.0,0.0,0.0,0.0);
#82=SURFACE_STYLE_USAGE(.BOTH.,#133);
#83=FACE_OUTER_BOUND('',#134,.T.);
#84=CYLINDRICAL_SURFACE('',#135,17.5);
#85=SURFACE_STYLE_USAGE(.BOTH.,#136);
#86=FACE_OUTER_BOUND('',#137,.T.);
#87=CONICAL_SURFACE('',#138,17.15,0.785398163397448);
#88=SURFACE_STYLE_USAGE(.BOTH.,#139);
#89=FACE_OUTER_BOUND('',#140,.T.);
#90=CYLINDRICAL_SURFACE('',#141,10.0);
#91=SURFACE_STYLE_USAGE(.BOTH.,#142);
#92=FACE_OUTER_BOUND('',#143,.T.);
#93=CONICAL_SURFACE('',#144,17.15,0.785398163397448);
#94=SURFACE_STYLE_USAGE(.BOTH.,#145);
#95=FACE_OUTER_BOUND('',#146,.T.);
#96=CYLINDRICAL_SURFACE('',#147,17.5);
#97=SURFACE_STYLE_USAGE(.BOTH.,#148);
#98=FACE_OUTER_BOUND('',#149,.T.);
#99=CYLINDRICAL_SURFACE('',#150,10.0);
#100=SURFACE_STYLE_USAGE(.BOTH.,#151);
#101=FACE_BOUND('',#152,.T.);
#102=FACE_OUTER_BOUND('',#153,.T.);
#103=PLANE('',#154);
#104=SURFACE_STYLE_USAGE(.BOTH.,#155);
#105=FACE_OUTER_BOUND('',#156,.T.);
#106=CONICAL_SURFACE('',#157,17.15,0.785398163397448);
#107=SURFACE_STYLE_USAGE(.BOTH.,#158);
#108=FACE_OUTER_BOUND('',#159,.T.);
#109=CONICAL_SURFACE('',#160,10.2,0.785398163397449);
#110=SURFACE_STYLE_USAGE(.BOTH.,#161);
#111=FACE_BOUND('',#162,.T.);
#112=FACE_OUTER_BOUND('',#163,.T.);
#113=PLANE('',#164);
#114=SURFACE_STYLE_USAGE(.BOTH.,#165);
#115=FACE_OUTER_BOUND('',#166,.T.);
#116=CONICAL_SURFACE('',#167,10.2,0.78539816339745);
#117=SURFACE_STYLE_USAGE(.BOTH.,#168);
#118=FACE_OUTER_BOUND('',#169,.T.);
#119=CONICAL_SURFACE('',#170,17.15,0.785398163397448);
#120=SURFACE_STYLE_USAGE(.BOTH.,#171);
#121=FACE_OUTER_BOUND('',#172,.T.);
#122=CONICAL_SURFACE('',#173,10.2,0.785398163397449);
#123=SURFACE_STYLE_USAGE(.BOTH.,#174);
#124=FACE_OUTER_BOUND('',#175,.T.);
#125=CONICAL_SURFACE('',#176,10.2,0.78539816339745);
#126=PRODUCT_CONTEXT('',#24,'mechanical');
#127=PRODUCT_DEFINITION_FORMATION_WITH_SPECIFIED_SOURCE(' ','NONE',#65,.NOT_KNOWN.);
#128=CLOSED_SHELL('',(#38,#52,#40,#64,#42,#54,#62,#48,#58,#60,#44,#46,#56,#50));
#129=CARTESIAN_POINT('',(0.0,0.0,0.0));
#130=DIRECTION('',(0.0,0.0,1.0));
#131=DIRECTION('',(1.0,0.0,0.0));
#132= (NAMED_UNIT(#74)LENGTH_UNIT()SI_UNIT(.MILLI.,.METRE.));
#133=SURFACE_SIDE_STYLE('',(#178));
#134=EDGE_LOOP('',(#179,#180,#181,#182,#183,#184));
#135=AXIS2_PLACEMENT_3D('',#185,#186,#187);
#136=SURFACE_SIDE_STYLE('',(#188));
#137=EDGE_LOOP('',(#189,#190,#191,#192,#193));
#138=AXIS2_PLACEMENT_3D('',#194,#195,#196);
#139=SURFACE_SIDE_STYLE('',(#197));
#140=EDGE_LOOP('',(#198,#199,#200,#201));
#141=AXIS2_PLACEMENT_3D('',#202,#203,#204);
#142=SURFACE_SIDE_STYLE('',(#205));
#143=EDGE_LOOP('',(#206,#207,#208,#209,#210));
#144=AXIS2_PLACEMENT_3D('',#211,#212,#213);
#145=SURFACE_SIDE_STYLE('',(#214));
#146=EDGE_LOOP('',(#215,#216,#217,#218,#219,#220));
#147=AXIS2_PLACEMENT_3D('',#221,#222,#223);
#148=SURFACE_SIDE_STYLE('',(#224));
#149=EDGE_LOOP('',(#225,#226,#227,#228));
#150=AXIS2_PLACEMENT_3D('',#229,#230,#231);
#151=SURFACE_SIDE_STYLE('',(#232));
#152=EDGE_LOOP('',(#233,#234));
#153=EDGE_LOOP('',(#235,#236));
#154=AXIS2_PLACEMENT_3D('',#237,#238,#239);
#155=SURFACE_SIDE_STYLE('',(#240));
#156=EDGE_LOOP('',(#241,#242,#243,#244,#245));
#157=AXIS2_PLACEMENT_3D('',#246,#247,#248);
#158=SURFACE_SIDE_STYLE('',(#249));
#159=EDGE_LOOP('',(#250,#251,#252,#253));
#160=AXIS2_PLACEMENT_3D('',#254,#255,#256);
#161=SURFACE_SIDE_STYLE('',(#257));
#162=EDGE_LOOP('',(#258,#259));
#163=EDGE_LOOP('',(#260,#261));
#164=AXIS2_PLACEMENT_3D('',#262,#263,#264);
#165=SURFACE_SIDE_STYLE('',(#265));
#166=EDGE_LOOP('',(#266,#267,#268,#269));
#167=AXIS2_PLACEMENT_3D('',#270,#271,#272);
#168=SURFACE_SIDE_STYLE('',(#273));
#169=EDGE_LOOP('',(#274,#275,#276,#277,#278));
#170=AXIS2_PLACEMENT_3D('',#279,#280,#281);
#171=SURFACE_SIDE_STYLE('',(#282));
#172=EDGE_LOOP('',(#283,#284,#285,#286));
#173=AXIS2_PLACEMENT_3D('',#287,#288,#289);
#174=SURFACE_SIDE_STYLE('',(#290));
#175=EDGE_LOOP('',(#291,#292,#293,#294));
#176=AXIS2_PLACEMENT_3D('',#295,#296,#297);
#178=SURFACE_STYLE_FILL_AREA(#298);
#179=ORIENTED_EDGE('',*,*,#299,.F.);
#180=ORIENTED_EDGE('',*,*,#300,.T.);
#181=ORIENTED_EDGE('',*,*,#301,.T.);
#182=ORIENTED_EDGE('',*,*,#302,.F.);
#183=ORIENTED_EDGE('',*,*,#303,.T.);
#184=ORIENTED_EDGE('',*,*,#304,.T.);
#185=CARTESIAN_POINT('',(12.5,0.0,0.0));
#186=DIRECTION('',(1.0,0.0,0.0));
#187=DIRECTION('',(0.0,0.0,-1.0));
#188=SURFACE_STYLE_FILL_AREA(#305);
#189=ORIENTED_EDGE('',*,*,#306,.F.);
#190=ORIENTED_EDGE('',*,*,#307,.F.);
#191=ORIENTED_EDGE('',*,*,#308,.F.);
#192=ORIENTED_EDGE('',*,*,#309,.F.);
#193=ORIENTED_EDGE('',*,*,#304,.F.);
#194=CARTESIAN_POINT('',(24.65,0.0,-8.57224447675664E-017));
#195=DIRECTION('',(-1.0,0.0,-2.44921270764475E-016));
#196=DIRECTION('',(0.0,1.0,0.0));
#197=SURFACE_STYLE_FILL_AREA(#310);
#198=ORIENTED_EDGE('',*,*,#311,.F.);
#199=ORIENTED_EDGE('',*,*,#312,.T.);
#200=ORIENTED_EDGE('',*,*,#313,.F.);
#201=ORIENTED_EDGE('',*,*,#314,.F.);
#202=CARTESIAN_POINT('',(12.5,0.0,0.0));
#203=DIRECTION('',(1.0,0.0,0.0));
#204=DIRECTION('',(0.0,1.0,0.0));
#205=SURFACE_STYLE_FILL_AREA(#315);
#206=ORIENTED_EDGE('',*,*,#316,.T.);
#207=ORIENTED_EDGE('',*,*,#300,.F.);
#208=ORIENTED_EDGE('',*,*,#317,.F.);
#209=ORIENTED_EDGE('',*,*,#318,.T.);
#210=ORIENTED_EDGE('',*,*,#319,.F.);
#211=CARTESIAN_POINT('',(0.35,0.0,4.28612223837832E-017));
#212=DIRECTION('',(1.0,-0.0,1.22460635382238E-016));
#213=DIRECTION('',(0.0,1.0,0.0));
#214=SURFACE_STYLE_FILL_AREA(#320);
#215=ORIENTED_EDGE('',*,*,#299,.T.);
#216=ORIENTED_EDGE('',*,*,#309,.T.);
#217=ORIENTED_EDGE('',*,*,#321,.T.);
#218=ORIENTED_EDGE('',*,*,#302,.T.);
#219=ORIENTED_EDGE('',*,*,#322,.T.);
#220=ORIENTED_EDGE('',*,*,#317,.T.);
#221=CARTESIAN_POINT('',(12.5,0.0,0.0));
#222=DIRECTION('',(1.0,0.0,0.0));
#223=DIRECTION('',(0.0,0.0,-1.0));
#224=SURFACE_STYLE_FILL_AREA(#323);
#225=ORIENTED_EDGE('',*,*,#311,.T.);
#226=ORIENTED_EDGE('',*,*,#324,.F.);
#227=ORIENTED_EDGE('',*,*,#313,.T.);
#228=ORIENTED_EDGE('',*,*,#325,.T.);
#229=CARTESIAN_POINT('',(12.5,0.0,0.0));
#230=DIRECTION('',(1.0,0.0,0.0));
#231=DIRECTION('',(0.0,1.0,0.0));
#232=SURFACE_STYLE_FILL_AREA(#326);
#233=ORIENTED_EDGE('',*,*,#327,.T.);
#234=ORIENTED_EDGE('',*,*,#328,.T.);
#235=ORIENTED_EDGE('',*,*,#329,.T.);
#236=ORIENTED_EDGE('',*,*,#307,.T.);
#237=CARTESIAN_POINT('',(25.0,0.0,0.0));
#238=DIRECTION('',(1.0,0.0,0.0));
#239=DIRECTION('',(0.0,0.0,-1.0));
#240=SURFACE_STYLE_FILL_AREA(#330);
#241=ORIENTED_EDGE('',*,*,#316,.F.);
#242=ORIENTED_EDGE('',*,*,#331,.F.);
#243=ORIENTED_EDGE('',*,*,#318,.F.);
#244=ORIENTED_EDGE('',*,*,#322,.F.);
#245=ORIENTED_EDGE('',*,*,#301,.F.);
#246=CARTESIAN_POINT('',(0.35,0.0,4.28612223837832E-017));
#247=DIRECTION('',(1.0,-0.0,1.22460635382238E-016));
#248=DIRECTION('',(0.0,1.0,0.0));
#249=SURFACE_STYLE_FILL_AREA(#332);
#250=ORIENTED_EDGE('',*,*,#333,.F.);
#251=ORIENTED_EDGE('',*,*,#314,.T.);
#252=ORIENTED_EDGE('',*,*,#334,.F.);
#253=ORIENTED_EDGE('',*,*,#335,.F.);
#254=CARTESIAN_POINT('',(0.199999999999999,0.0,0.0));
#255=DIRECTION('',(-1.0,-0.0,-0.0));
#256=DIRECTION('',(0.0,1.0,0.0));
#257=SURFACE_STYLE_FILL_AREA(#336);
#258=ORIENTED_EDGE('',*,*,#335,.T.);
#259=ORIENTED_EDGE('',*,*,#337,.T.);
#260=ORIENTED_EDGE('',*,*,#319,.T.);
#261=ORIENTED_EDGE('',*,*,#331,.T.);
#262=CARTESIAN_POINT('',(0.0,0.0,0.0));
#263=DIRECTION('',(-1.0,0.0,0.0));
#264=DIRECTION('',(0.0,0.0,1.0));
#265=SURFACE_STYLE_FILL_AREA(#338);
#266=ORIENTED_EDGE('',*,*,#339,.T.);
#267=ORIENTED_EDGE('',*,*,#325,.F.);
#268=ORIENTED_EDGE('',*,*,#340,.T.);
#269=ORIENTED_EDGE('',*,*,#327,.F.);
#270=CARTESIAN_POINT('',(24.8,0.0,0.0));
#271=DIRECTION('',(1.0,-0.0,-0.0));
#272=DIRECTION('',(0.0,1.0,0.0));
#273=SURFACE_STYLE_FILL_AREA(#341);
#274=ORIENTED_EDGE('',*,*,#306,.T.);
#275=ORIENTED_EDGE('',*,*,#303,.F.);
#276=ORIENTED_EDGE('',*,*,#321,.F.);
#277=ORIENTED_EDGE('',*,*,#308,.T.);
#278=ORIENTED_EDGE('',*,*,#329,.F.);
#279=CARTESIAN_POINT('',(24.65,0.0,-8.57224447675664E-017));
#280=DIRECTION('',(-1.0,0.0,-2.44921270764475E-016));
#281=DIRECTION('',(0.0,1.0,0.0));
#282=SURFACE_STYLE_FILL_AREA(#342);
#283=ORIENTED_EDGE('',*,*,#333,.T.);
#284=ORIENTED_EDGE('',*,*,#337,.F.);
#285=ORIENTED_EDGE('',*,*,#334,.T.);
#286=ORIENTED_EDGE('',*,*,#324,.T.);
#287=CARTESIAN_POINT('',(0.199999999999999,0.0,0.0));
#288=DIRECTION('',(-1.0,-0.0,-0.0));
#289=DIRECTION('',(0.0,1.0,0.0));
#290=SURFACE_STYLE_FILL_AREA(#343);
#291=ORIENTED_EDGE('',*,*,#339,.F.);
#292=ORIENTED_EDGE('',*,*,#328,.F.);
#293=ORIENTED_EDGE('',*,*,#340,.F.);
#294=ORIENTED_EDGE('',*,*,#312,.F.);
#295=CARTESIAN_POINT('',(24.8,0.0,0.0));
#296=DIRECTION('',(1.0,-0.0,-0.0));
#297=DIRECTION('',(0.0,1.0,0.0));
#298=FILL_AREA_STYLE('',(#344));
#299=EDGE_CURVE('',#345,#346,#347,.T.);
#300=EDGE_CURVE('',#345,#348,#349,.T.);
#301=EDGE_CURVE('',#348,#350,#351,.T.);
#302=EDGE_CURVE('',#352,#350,#353,.T.);
#303=EDGE_CURVE('',#352,#354,#355,.T.);
#304=EDGE_CURVE('',#354,#346,#356,.T.);
#305=FILL_AREA_STYLE('',(#357));
#306=EDGE_CURVE('',#358,#354,#359,.T.);
#307=EDGE_CURVE('',#360,#358,#361,.T.);
#308=EDGE_CURVE('',#362,#360,#363,.T.);
#309=EDGE_CURVE('',#346,#362,#364,.T.);
#310=FILL_AREA_STYLE('',(#365));
#311=EDGE_CURVE('',#366,#367,#368,.T.);
#312=EDGE_CURVE('',#366,#369,#370,.T.);
#313=EDGE_CURVE('',#371,#369,#372,.T.);
#314=EDGE_CURVE('',#367,#371,#373,.T.);
#315=FILL_AREA_STYLE('',(#374));
#316=EDGE_CURVE('',#375,#348,#376,.T.);
#317=EDGE_CURVE('',#377,#345,#378,.T.);
#318=EDGE_CURVE('',#377,#379,#380,.T.);
#319=EDGE_CURVE('',#375,#379,#381,.T.);
#320=FILL_AREA_STYLE('',(#382));
#321=EDGE_CURVE('',#362,#352,#383,.T.);
#322=EDGE_CURVE('',#350,#377,#384,.T.);
#323=FILL_AREA_STYLE('',(#385));
#324=EDGE_CURVE('',#371,#367,#386,.T.);
#325=EDGE_CURVE('',#369,#366,#387,.T.);
#326=FILL_AREA_STYLE('',(#388));
#327=EDGE_CURVE('',#389,#390,#391,.T.);
#328=EDGE_CURVE('',#390,#389,#392,.T.);
#329=EDGE_CURVE('',#358,#360,#393,.T.);
#330=FILL_AREA_STYLE('',(#394));
#331=EDGE_CURVE('',#379,#375,#395,.T.);
#332=FILL_AREA_STYLE('',(#396));
#333=EDGE_CURVE('',#367,#397,#398,.T.);
#334=EDGE_CURVE('',#399,#371,#400,.T.);
#335=EDGE_CURVE('',#397,#399,#401,.T.);
#336=FILL_AREA_STYLE('',(#402));
#337=EDGE_CURVE('',#399,#397,#403,.T.);
#338=FILL_AREA_STYLE('',(#404));
#339=EDGE_CURVE('',#389,#366,#405,.T.);
#340=EDGE_CURVE('',#369,#390,#406,.T.);
#341=FILL_AREA_STYLE('',(#407));
#342=FILL_AREA_STYLE('',(#408));
#343=FILL_AREA_STYLE('',(#409));
#344=FILL_AREA_STYLE_COLOUR('',#410);
#345=VERTEX_POINT('',#411);
#346=VERTEX_POINT('',#412);
#347=LINE('',#413,#414);
#348=VERTEX_POINT('',#415);
#349=CIRCLE('',#416,17.5);
#350=VERTEX_POINT('',#417);
#351=CIRCLE('',#418,17.5);
#352=VERTEX_POINT('',#419);
#353=LINE('',#420,#421);
#354=VERTEX_POINT('',#422);
#355=CIRCLE('',#423,17.5);
#356=CIRCLE('',#424,17.5);
#357=FILL_AREA_STYLE_COLOUR('',#425);
#358=VERTEX_POINT('',#426);
#359=LINE('',#427,#428);
#360=VERTEX_POINT('',#429);
#361=CIRCLE('',#430,16.8);
#362=VERTEX_POINT('',#431);
#363=LINE('',#432,#433);
#364=CIRCLE('',#434,17.5);
#365=FILL_AREA_STYLE_COLOUR('',#435);
#366=VERTEX_POINT('',#436);
#367=VERTEX_POINT('',#437);
#368=LINE('',#438,#439);
#369=VERTEX_POINT('',#440);
#370=CIRCLE('',#441,10.0);
#371=VERTEX_POINT('',#442);
#372=LINE('',#443,#444);
#373=CIRCLE('',#445,10.0);
#374=FILL_AREA_STYLE_COLOUR('',#446);
#375=VERTEX_POINT('',#447);
#376=LINE('',#448,#449);
#377=VERTEX_POINT('',#450);
#378=CIRCLE('',#451,17.5);
#379=VERTEX_POINT('',#452);
#380=LINE('',#453,#454);
#381=CIRCLE('',#455,16.8);
#382=FILL_AREA_STYLE_COLOUR('',#456);
#383=CIRCLE('',#457,17.5);
#384=CIRCLE('',#458,17.5);
#385=FILL_AREA_STYLE_COLOUR('',#459);
#386=CIRCLE('',#460,10.0);
#387=CIRCLE('',#461,10.0);
#388=FILL_AREA_STYLE_COLOUR('',#462);
#389=VERTEX_POINT('',#463);
#390=VERTEX_POINT('',#464);
#391=CIRCLE('',#465,10.4);
#392=CIRCLE('',#466,10.4);
#393=CIRCLE('',#467,16.8);
#394=FILL_AREA_STYLE_COLOUR('',#468);
#395=CIRCLE('',#469,16.8);
#396=FILL_AREA_STYLE_COLOUR('',#470);
#397=VERTEX_POINT('',#471);
#398=LINE('',#472,#473);
#399=VERTEX_POINT('',#474);
#400=LINE('',#475,#476);
#401=CIRCLE('',#477,10.4);
#402=FILL_AREA_STYLE_COLOUR('',#478);
#403=CIRCLE('',#479,10.4);
#404=FILL_AREA_STYLE_COLOUR('',#480);
#405=LINE('',#481,#482);
#406=LINE('',#483,#484);
#407=FILL_AREA_STYLE_COLOUR('',#485);
#408=FILL_AREA_STYLE_COLOUR('',#486);
#409=FILL_AREA_STYLE_COLOUR('',#487);
#410=COLOUR_RGB('',0.752941191196442,0.752941191196442,0.752941191196442);
#411=CARTESIAN_POINT('',(0.700000000000001,-2.14306111918916E-015,-17.5));
#412=CARTESIAN_POINT('',(24.3,-2.14306111918916E-015,-17.5));
#413=CARTESIAN_POINT('',(12.5,-2.14306111918916E-015,-17.5));
#414=VECTOR('',#488,1.0);
#415=CARTESIAN_POINT('',(0.699999999999999,17.5,8.57224447675664E-017));
#416=AXIS2_PLACEMENT_3D('',#489,#490,#491);
#417=CARTESIAN_POINT('',(0.699999999999997,2.14306111918916E-015,17.5));
#418=AXIS2_PLACEMENT_3D('',#492,#493,#494);
#419=CARTESIAN_POINT('',(24.3,2.14306111918916E-015,17.5));
#420=CARTESIAN_POINT('',(12.5,2.14306111918916E-015,17.5));
#421=VECTOR('',#495,1.0);
#422=CARTESIAN_POINT('',(24.3,17.5,-1.71444889535133E-016));
#423=AXIS2_PLACEMENT_3D('',#496,#497,#498);
#424=AXIS2_PLACEMENT_3D('',#499,#500,#501);
#425=COLOUR_RGB('',0.752941191196442,0.752941191196442,0.752941191196442);
#426=CARTESIAN_POINT('',(25.0,16.8,0.0));
#427=CARTESIAN_POINT('',(24.65,17.15,-2.18592234157294E-015));
#428=VECTOR('',#502,1.0);
#429=CARTESIAN_POINT('',(25.0,-16.8,2.05733867442159E-015));
#430=AXIS2_PLACEMENT_3D('',#503,#504,#505);
#431=CARTESIAN_POINT('',(24.3,-17.5,1.97161622965403E-015));
#432=CARTESIAN_POINT('',(24.65,-17.15,2.01447745203781E-015));
#433=VECTOR('',#506,1.0);
#434=AXIS2_PLACEMENT_3D('',#507,#508,#509);
#435=COLOUR_RGB('',0.752941191196442,0.752941191196442,0.752941191196442);
#436=CARTESIAN_POINT('',(24.6,10.0,0.0));
#437=CARTESIAN_POINT('',(0.399999999999999,10.0,0.0));
#438=CARTESIAN_POINT('',(12.5,10.0,-1.22460635382238E-015));
#439=VECTOR('',#510,1.0);
#440=CARTESIAN_POINT('',(24.6,-10.0,1.22460635382238E-015));
#441=AXIS2_PLACEMENT_3D('',#511,#512,#513);
#442=CARTESIAN_POINT('',(0.399999999999999,-10.0,1.22460635382238E-015));
#443=CARTESIAN_POINT('',(12.5,-10.0,1.22460635382238E-015));
#444=VECTOR('',#514,1.0);
#445=AXIS2_PLACEMENT_3D('',#515,#516,#517);
#446=COLOUR_RGB('',0.752941191196442,0.752941191196442,0.752941191196442);
#447=CARTESIAN_POINT('',(0.0,16.8,0.0));
#448=CARTESIAN_POINT('',(0.35,17.15,2.14306111918916E-015));
#449=VECTOR('',#518,1.0);
#450=CARTESIAN_POINT('',(0.699999999999999,-17.5,-2.05733867442159E-015));
#451=AXIS2_PLACEMENT_3D('',#519,#520,#521);
#452=CARTESIAN_POINT('',(0.0,-16.8,-2.05733867442159E-015));
#453=CARTESIAN_POINT('',(0.35,-17.15,-2.05733867442159E-015));
#454=VECTOR('',#522,1.0);
#455=AXIS2_PLACEMENT_3D('',#523,#524,#525);
#456=COLOUR_RGB('',0.752941191196442,0.752941191196442,0.752941191196442);
#457=AXIS2_PLACEMENT_3D('',#526,#527,#528);
#458=AXIS2_PLACEMENT_3D('',#529,#530,#531);
#459=COLOUR_RGB('',0.752941191196442,0.752941191196442,0.752941191196442);
#460=AXIS2_PLACEMENT_3D('',#532,#533,#534);
#461=AXIS2_PLACEMENT_3D('',#535,#536,#537);
#462=COLOUR_RGB('',0.752941191196442,0.752941191196442,0.752941191196442);
#463=CARTESIAN_POINT('',(25.0,10.4,0.0));
#464=CARTESIAN_POINT('',(25.0,-10.4,1.27359060797527E-015));
#465=AXIS2_PLACEMENT_3D('',#538,#539,#540);
#466=AXIS2_PLACEMENT_3D('',#541,#542,#543);
#467=AXIS2_PLACEMENT_3D('',#544,#545,#546);
#468=COLOUR_RGB('',0.752941191196442,0.752941191196442,0.752941191196442);
#469=AXIS2_PLACEMENT_3D('',#547,#548,#549);
#470=COLOUR_RGB('',0.752941191196442,0.752941191196442,0.752941191196442);
#471=CARTESIAN_POINT('',(0.0,10.4,0.0));
#472=CARTESIAN_POINT('',(0.199999999999999,10.2,-1.24909848089882E-015));
#473=VECTOR('',#550,1.0);
#474=CARTESIAN_POINT('',(0.0,-10.4,1.27359060797527E-015));
#475=CARTESIAN_POINT('',(0.199999999999999,-10.2,1.24909848089883E-015));
#476=VECTOR('',#551,1.0);
#477=AXIS2_PLACEMENT_3D('',#552,#553,#554);
#478=COLOUR_RGB('',0.752941191196442,0.752941191196442,0.752941191196442);
#479=AXIS2_PLACEMENT_3D('',#555,#556,#557);
#480=COLOUR_RGB('',0.752941191196442,0.752941191196442,0.752941191196442);
#481=CARTESIAN_POINT('',(24.8,10.2,-1.24909848089883E-015));
#482=VECTOR('',#558,1.0);
#483=CARTESIAN_POINT('',(24.8,-10.2,1.24909848089883E-015));
#484=VECTOR('',#559,1.0);
#485=COLOUR_RGB('',0.752941191196442,0.752941191196442,0.752941191196442);
#486=COLOUR_RGB('',0.752941191196442,0.752941191196442,0.752941191196442);
#487=COLOUR_RGB('',0.752941191196442,0.752941191196442,0.752941191196442);
#488=DIRECTION('',(1.0,0.0,0.0));
#489=CARTESIAN_POINT('',(0.699999999999999,0.0,0.0));
#490=DIRECTION('',(1.0,0.0,1.22460635382238E-016));
#491=DIRECTION('',(1.22460635382238E-016,0.0,-1.0));
#492=CARTESIAN_POINT('',(0.699999999999999,0.0,0.0));
#493=DIRECTION('',(1.0,0.0,1.22460635382238E-016));
#494=DIRECTION('',(1.22460635382238E-016,0.0,-1.0));
#495=DIRECTION('',(-1.0,-0.0,-0.0));
#496=CARTESIAN_POINT('',(24.3,0.0,0.0));
#497=DIRECTION('',(-1.0,0.0,-2.44921270764475E-016));
#498=DIRECTION('',(2.44921270764475E-016,0.0,-1.0));
#499=CARTESIAN_POINT('',(24.3,0.0,0.0));
#500=DIRECTION('',(-1.0,0.0,-2.44921270764475E-016));
#501=DIRECTION('',(2.44921270764475E-016,0.0,-1.0));
#502=DIRECTION('',(-0.707106781186548,0.707106781186547,-2.59778237121581E-016));
#503=CARTESIAN_POINT('',(25.0,0.0,-3.45126646034193E-031));
#504=DIRECTION('',(1.0,0.0,0.0));
#505=DIRECTION('',(0.0,1.0,0.0));
#506=DIRECTION('',(0.707106781186548,0.707106781186547,8.65927457071936E-017));
#507=CARTESIAN_POINT('',(24.3,0.0,0.0));
#508=DIRECTION('',(-1.0,0.0,-2.44921270764475E-016));
#509=DIRECTION('',(2.44921270764475E-016,0.0,-1.0));
#510=DIRECTION('',(-1.0,-0.0,0.0));
#511=CARTESIAN_POINT('',(24.6,0.0,0.0));
#512=DIRECTION('',(1.0,0.0,0.0));
#513=DIRECTION('',(0.0,1.0,0.0));
#514=DIRECTION('',(1.0,-0.0,0.0));
#515=CARTESIAN_POINT('',(0.399999999999999,0.0,0.0));
#516=DIRECTION('',(1.0,0.0,0.0));
#517=DIRECTION('',(0.0,1.0,0.0));
#518=DIRECTION('',(0.707106781186548,0.707106781186547,1.73185491414387E-016));
#519=CARTESIAN_POINT('',(0.699999999999999,0.0,0.0));
#520=DIRECTION('',(1.0,0.0,1.22460635382238E-016));
#521=DIRECTION('',(1.22460635382238E-016,0.0,-1.0));
#522=DIRECTION('',(-0.707106781186548,0.707106781186547,0.0));
#523=CARTESIAN_POINT('',(0.0,0.0,-4.31408307542741E-032));
#524=DIRECTION('',(-1.0,0.0,0.0));
#525=DIRECTION('',(0.0,1.0,0.0));
#526=CARTESIAN_POINT('',(24.3,0.0,0.0));
#527=DIRECTION('',(-1.0,0.0,-2.44921270764475E-016));
#528=DIRECTION('',(2.44921270764475E-016,0.0,-1.0));
#529=CARTESIAN_POINT('',(0.699999999999999,0.0,0.0));
#530=DIRECTION('',(1.0,0.0,1.22460635382238E-016));
#531=DIRECTION('',(1.22460635382238E-016,0.0,-1.0));
#532=CARTESIAN_POINT('',(0.399999999999999,0.0,0.0));
#533=DIRECTION('',(1.0,0.0,0.0));
#534=DIRECTION('',(0.0,1.0,0.0));
#535=CARTESIAN_POINT('',(24.6,0.0,0.0));
#536=DIRECTION('',(1.0,0.0,0.0));
#537=DIRECTION('',(0.0,1.0,0.0));
#538=CARTESIAN_POINT('',(25.0,0.0,0.0));
#539=DIRECTION('',(-1.0,0.0,0.0));
#540=DIRECTION('',(0.0,1.0,0.0));
#541=CARTESIAN_POINT('',(25.0,0.0,0.0));
#542=DIRECTION('',(-1.0,0.0,0.0));
#543=DIRECTION('',(0.0,1.0,0.0));
#544=CARTESIAN_POINT('',(25.0,0.0,-3.45126646034193E-031));
#545=DIRECTION('',(1.0,0.0,0.0));
#546=DIRECTION('',(0.0,1.0,0.0));
#547=CARTESIAN_POINT('',(0.0,0.0,-4.31408307542741E-032));
#548=DIRECTION('',(-1.0,0.0,0.0));
#549=DIRECTION('',(0.0,1.0,0.0));
#550=DIRECTION('',(-0.707106781186547,0.707106781186548,-8.65927457071936E-017));
#551=DIRECTION('',(0.707106781186547,0.707106781186548,-8.65927457071936E-017));
#552=CARTESIAN_POINT('',(0.0,0.0,0.0));
#553=DIRECTION('',(1.0,0.0,0.0));
#554=DIRECTION('',(0.0,1.0,0.0));
#555=CARTESIAN_POINT('',(0.0,0.0,0.0));
#556=DIRECTION('',(1.0,0.0,0.0));
#557=DIRECTION('',(0.0,1.0,0.0));
#558=DIRECTION('',(-0.707106781186546,-0.707106781186549,8.65927457071938E-017));
#559=DIRECTION('',(0.707106781186546,-0.707106781186549,8.65927457071938E-017));
ENDSEC;
END-ISO-10303-21;
