ISO-10303-21;
HEADER;
FILE_DESCRIPTION(('STEP AP214'),'1');
FILE_NAME('C:/Temp/output/halder/CAD/Temp/HALDERN_EH_23111_0816.stp','2015-05-04T09:25:16',('TraceParts'),('TraceParts S.A.'),'Spatial InterOp 3D',' ',' ');
FILE_SCHEMA(('automotive_design'));
ENDSEC;
DATA;
#1=MECHANICAL_DESIGN_GEOMETRIC_PRESENTATION_REPRESENTATION(' ',(#10,#11,#12,#13,#14,#15,#16,#17,#18,#19,#20,#21,#22,#23),#6);
#2=PRODUCT_DEFINITION_CONTEXT('',#24,'design');
#3=APPLICATION_PROTOCOL_DEFINITION('INTERNATIONAL STANDARD','automotive_design',1994,#24);
#4=PRODUCT_CATEGORY_RELATIONSHIP('NONE','NONE',#25,#26);
#5=SHAPE_DEFINITION_REPRESENTATION(#27,#28);
#6= (GEOMETRIC_REPRESENTATION_CONTEXT(3)GLOBAL_UNCERTAINTY_ASSIGNED_CONTEXT((#31))GLOBAL_UNIT_ASSIGNED_CONTEXT((#33,#34,#35))REPRESENTATION_CONTEXT('NONE','WORKSPACE'));
#10=STYLED_ITEM('',(#37),#38);
#11=STYLED_ITEM('',(#39),#40);
#12=STYLED_ITEM('',(#41),#42);
#13=STYLED_ITEM('',(#43),#44);
#14=STYLED_ITEM('',(#45),#46);
#15=STYLED_ITEM('',(#47),#48);
#16=STYLED_ITEM('',(#49),#50);
#17=STYLED_ITEM('',(#51),#52);
#18=STYLED_ITEM('',(#53),#54);
#19=STYLED_ITEM('',(#55),#56);
#20=STYLED_ITEM('',(#57),#58);
#21=STYLED_ITEM('',(#59),#60);
#22=STYLED_ITEM('',(#61),#62);
#23=STYLED_ITEM('',(#63),#64);
#24=APPLICATION_CONTEXT(' ');
#25=PRODUCT_CATEGORY('part','NONE');
#26=PRODUCT_RELATED_PRODUCT_CATEGORY('detail',' ',(#65));
#27=PRODUCT_DEFINITION_SHAPE('NONE','NONE',#66);
#28=ADVANCED_BREP_SHAPE_REPRESENTATION('1',(#67,#68),#6);
#31=UNCERTAINTY_MEASURE_WITH_UNIT(LENGTH_MEASURE(1.0E-006),#33,'','');
#33= (CONVERSION_BASED_UNIT('MILLIMETRE',#71)LENGTH_UNIT()NAMED_UNIT(#74));
#34= (NAMED_UNIT(#76)PLANE_ANGLE_UNIT()SI_UNIT($,.RADIAN.));
#35= (NAMED_UNIT(#76)SOLID_ANGLE_UNIT()SI_UNIT($,.STERADIAN.));
#37=PRESENTATION_STYLE_ASSIGNMENT((#82));
#38=ADVANCED_FACE('',(#83,#84),#85,.T.);
#39=PRESENTATION_STYLE_ASSIGNMENT((#86));
#40=ADVANCED_FACE('',(#87),#88,.T.);
#41=PRESENTATION_STYLE_ASSIGNMENT((#89));
#42=ADVANCED_FACE('',(#90),#91,.T.);
#43=PRESENTATION_STYLE_ASSIGNMENT((#92));
#44=ADVANCED_FACE('',(#93),#94,.F.);
#45=PRESENTATION_STYLE_ASSIGNMENT((#95));
#46=ADVANCED_FACE('',(#96),#97,.F.);
#47=PRESENTATION_STYLE_ASSIGNMENT((#98));
#48=ADVANCED_FACE('',(#99),#100,.F.);
#49=PRESENTATION_STYLE_ASSIGNMENT((#101));
#50=ADVANCED_FACE('',(#102),#103,.F.);
#51=PRESENTATION_STYLE_ASSIGNMENT((#104));
#52=ADVANCED_FACE('',(#105),#106,.T.);
#53=PRESENTATION_STYLE_ASSIGNMENT((#107));
#54=ADVANCED_FACE('',(#108),#109,.F.);
#55=PRESENTATION_STYLE_ASSIGNMENT((#110));
#56=ADVANCED_FACE('',(#111),#112,.F.);
#57=PRESENTATION_STYLE_ASSIGNMENT((#113));
#58=ADVANCED_FACE('',(#114),#115,.T.);
#59=PRESENTATION_STYLE_ASSIGNMENT((#116));
#60=ADVANCED_FACE('',(#117),#118,.T.);
#61=PRESENTATION_STYLE_ASSIGNMENT((#119));
#62=ADVANCED_FACE('',(#120,#121),#122,.T.);
#63=PRESENTATION_STYLE_ASSIGNMENT((#123));
#64=ADVANCED_FACE('',(#124),#125,.T.);
#65=PRODUCT('1','1','PART-1-DESC',(#126));
#66=PRODUCT_DEFINITION('NONE','NONE',#127,#2);
#67=MANIFOLD_SOLID_BREP('1',#128);
#68=AXIS2_PLACEMENT_3D('',#129,#130,#131);
#71=LENGTH_MEASURE_WITH_UNIT(LENGTH_MEASURE(1.0),#132);
#74=DIMENSIONAL_EXPONENTS(1.0,0.0,0.0,0.0,0.0,0.0,0.0);
#76=DIMENSIONAL_EXPONENTS(0.0,0.0,0.0,0.0,0.0,0.0,0.0);
#82=SURFACE_STYLE_USAGE(.BOTH.,#133);
#83=FACE_BOUND('',#134,.T.);
#84=FACE_OUTER_BOUND('',#135,.T.);
#85=PLANE('',#136);
#86=SURFACE_STYLE_USAGE(.BOTH.,#137);
#87=FACE_OUTER_BOUND('',#138,.T.);
#88=CONICAL_SURFACE('',#139,22.05,0.785398163397448);
#89=SURFACE_STYLE_USAGE(.BOTH.,#140);
#90=FACE_OUTER_BOUND('',#141,.T.);
#91=CYLINDRICAL_SURFACE('',#142,22.5);
#92=SURFACE_STYLE_USAGE(.BOTH.,#143);
#93=FACE_OUTER_BOUND('',#144,.T.);
#94=CONICAL_SURFACE('',#145,15.3,0.785398163397447);
#95=SURFACE_STYLE_USAGE(.BOTH.,#146);
#96=FACE_OUTER_BOUND('',#147,.T.);
#97=CONICAL_SURFACE('',#148,15.3,0.785398163397448);
#98=SURFACE_STYLE_USAGE(.BOTH.,#149);
#99=FACE_OUTER_BOUND('',#150,.T.);
#100=CONICAL_SURFACE('',#151,15.3,0.785398163397448);
#101=SURFACE_STYLE_USAGE(.BOTH.,#152);
#102=FACE_OUTER_BOUND('',#153,.T.);
#103=CYLINDRICAL_SURFACE('',#154,15.0);
#104=SURFACE_STYLE_USAGE(.BOTH.,#155);
#105=FACE_OUTER_BOUND('',#156,.T.);
#106=CONICAL_SURFACE('',#157,22.05,0.785398163397448);
#107=SURFACE_STYLE_USAGE(.BOTH.,#158);
#108=FACE_OUTER_BOUND('',#159,.T.);
#109=CONICAL_SURFACE('',#160,15.3,0.785398163397447);
#110=SURFACE_STYLE_USAGE(.BOTH.,#161);
#111=FACE_OUTER_BOUND('',#162,.T.);
#112=CYLINDRICAL_SURFACE('',#163,15.0);
#113=SURFACE_STYLE_USAGE(.BOTH.,#164);
#114=FACE_OUTER_BOUND('',#165,.T.);
#115=CYLINDRICAL_SURFACE('',#166,22.5);
#116=SURFACE_STYLE_USAGE(.BOTH.,#167);
#117=FACE_OUTER_BOUND('',#168,.T.);
#118=CONICAL_SURFACE('',#169,22.05,0.785398163397448);
#119=SURFACE_STYLE_USAGE(.BOTH.,#170);
#120=FACE_BOUND('',#171,.T.);
#121=FACE_OUTER_BOUND('',#172,.T.);
#122=PLANE('',#173);
#123=SURFACE_STYLE_USAGE(.BOTH.,#174);
#124=FACE_OUTER_BOUND('',#175,.T.);
#125=CONICAL_SURFACE('',#176,22.05,0.785398163397448);
#126=PRODUCT_CONTEXT('',#24,'mechanical');
#127=PRODUCT_DEFINITION_FORMATION_WITH_SPECIFIED_SOURCE(' ','NONE',#65,.NOT_KNOWN.);
#128=CLOSED_SHELL('',(#42,#64,#40,#54,#56,#46,#48,#50,#44,#60,#52,#58,#38,#62));
#129=CARTESIAN_POINT('',(0.0,0.0,0.0));
#130=DIRECTION('',(0.0,0.0,1.0));
#131=DIRECTION('',(1.0,0.0,0.0));
#132= (NAMED_UNIT(#74)LENGTH_UNIT()SI_UNIT(.MILLI.,.METRE.));
#133=SURFACE_SIDE_STYLE('',(#178));
#134=EDGE_LOOP('',(#179,#180));
#135=EDGE_LOOP('',(#181,#182));
#136=AXIS2_PLACEMENT_3D('',#183,#184,#185);
#137=SURFACE_SIDE_STYLE('',(#186));
#138=EDGE_LOOP('',(#187,#188,#189,#190,#191));
#139=AXIS2_PLACEMENT_3D('',#192,#193,#194);
#140=SURFACE_SIDE_STYLE('',(#195));
#141=EDGE_LOOP('',(#196,#197,#198,#199,#200,#201));
#142=AXIS2_PLACEMENT_3D('',#202,#203,#204);
#143=SURFACE_SIDE_STYLE('',(#205));
#144=EDGE_LOOP('',(#206,#207,#208,#209));
#145=AXIS2_PLACEMENT_3D('',#210,#211,#212);
#146=SURFACE_SIDE_STYLE('',(#213));
#147=EDGE_LOOP('',(#214,#215,#216,#217));
#148=AXIS2_PLACEMENT_3D('',#218,#219,#220);
#149=SURFACE_SIDE_STYLE('',(#221));
#150=EDGE_LOOP('',(#222,#223,#224,#225));
#151=AXIS2_PLACEMENT_3D('',#226,#227,#228);
#152=SURFACE_SIDE_STYLE('',(#229));
#153=EDGE_LOOP('',(#230,#231,#232,#233));
#154=AXIS2_PLACEMENT_3D('',#234,#235,#236);
#155=SURFACE_SIDE_STYLE('',(#237));
#156=EDGE_LOOP('',(#238,#239,#240,#241,#242));
#157=AXIS2_PLACEMENT_3D('',#243,#244,#245);
#158=SURFACE_SIDE_STYLE('',(#246));
#159=EDGE_LOOP('',(#247,#248,#249,#250));
#160=AXIS2_PLACEMENT_3D('',#251,#252,#253);
#161=SURFACE_SIDE_STYLE('',(#254));
#162=EDGE_LOOP('',(#255,#256,#257,#258));
#163=AXIS2_PLACEMENT_3D('',#259,#260,#261);
#164=SURFACE_SIDE_STYLE('',(#262));
#165=EDGE_LOOP('',(#263,#264,#265,#266,#267,#268));
#166=AXIS2_PLACEMENT_3D('',#269,#270,#271);
#167=SURFACE_SIDE_STYLE('',(#272));
#168=EDGE_LOOP('',(#273,#274,#275,#276,#277));
#169=AXIS2_PLACEMENT_3D('',#278,#279,#280);
#170=SURFACE_SIDE_STYLE('',(#281));
#171=EDGE_LOOP('',(#282,#283));
#172=EDGE_LOOP('',(#284,#285));
#173=AXIS2_PLACEMENT_3D('',#286,#287,#288);
#174=SURFACE_SIDE_STYLE('',(#289));
#175=EDGE_LOOP('',(#290,#291,#292,#293,#294));
#176=AXIS2_PLACEMENT_3D('',#295,#296,#297);
#178=SURFACE_STYLE_FILL_AREA(#298);
#179=ORIENTED_EDGE('',*,*,#299,.T.);
#180=ORIENTED_EDGE('',*,*,#300,.T.);
#181=ORIENTED_EDGE('',*,*,#301,.T.);
#182=ORIENTED_EDGE('',*,*,#302,.T.);
#183=CARTESIAN_POINT('',(0.0,0.0,0.0));
#184=DIRECTION('',(-1.0,0.0,0.0));
#185=DIRECTION('',(0.0,0.0,1.0));
#186=SURFACE_STYLE_FILL_AREA(#303);
#187=ORIENTED_EDGE('',*,*,#304,.F.);
#188=ORIENTED_EDGE('',*,*,#305,.F.);
#189=ORIENTED_EDGE('',*,*,#306,.F.);
#190=ORIENTED_EDGE('',*,*,#307,.F.);
#191=ORIENTED_EDGE('',*,*,#308,.F.);
#192=CARTESIAN_POINT('',(24.55,0.0,-1.10214571844014E-016));
#193=DIRECTION('',(-1.0,0.0,-2.44921270764476E-016));
#194=DIRECTION('',(0.0,1.0,0.0));
#195=SURFACE_STYLE_FILL_AREA(#309);
#196=ORIENTED_EDGE('',*,*,#310,.F.);
#197=ORIENTED_EDGE('',*,*,#311,.T.);
#198=ORIENTED_EDGE('',*,*,#312,.T.);
#199=ORIENTED_EDGE('',*,*,#313,.F.);
#200=ORIENTED_EDGE('',*,*,#314,.T.);
#201=ORIENTED_EDGE('',*,*,#308,.T.);
#202=CARTESIAN_POINT('',(12.5,0.0,0.0));
#203=DIRECTION('',(1.0,0.0,0.0));
#204=DIRECTION('',(0.0,0.0,-1.0));
#205=SURFACE_STYLE_FILL_AREA(#315);
#206=ORIENTED_EDGE('',*,*,#316,.T.);
#207=ORIENTED_EDGE('',*,*,#317,.F.);
#208=ORIENTED_EDGE('',*,*,#318,.T.);
#209=ORIENTED_EDGE('',*,*,#319,.F.);
#210=CARTESIAN_POINT('',(24.7,0.0,0.0));
#211=DIRECTION('',(1.0,-0.0,-0.0));
#212=DIRECTION('',(0.0,1.0,0.0));
#213=SURFACE_STYLE_FILL_AREA(#320);
#214=ORIENTED_EDGE('',*,*,#321,.F.);
#215=ORIENTED_EDGE('',*,*,#322,.T.);
#216=ORIENTED_EDGE('',*,*,#323,.F.);
#217=ORIENTED_EDGE('',*,*,#299,.F.);
#218=CARTESIAN_POINT('',(0.300000000000001,0.0,0.0));
#219=DIRECTION('',(-1.0,-0.0,-0.0));
#220=DIRECTION('',(0.0,1.0,0.0));
#221=SURFACE_STYLE_FILL_AREA(#324);
#222=ORIENTED_EDGE('',*,*,#321,.T.);
#223=ORIENTED_EDGE('',*,*,#300,.F.);
#224=ORIENTED_EDGE('',*,*,#323,.T.);
#225=ORIENTED_EDGE('',*,*,#325,.T.);
#226=CARTESIAN_POINT('',(0.300000000000001,0.0,0.0));
#227=DIRECTION('',(-1.0,-0.0,-0.0));
#228=DIRECTION('',(0.0,1.0,0.0));
#229=SURFACE_STYLE_FILL_AREA(#326);
#230=ORIENTED_EDGE('',*,*,#327,.T.);
#231=ORIENTED_EDGE('',*,*,#325,.F.);
#232=ORIENTED_EDGE('',*,*,#328,.T.);
#233=ORIENTED_EDGE('',*,*,#317,.T.);
#234=CARTESIAN_POINT('',(12.5,0.0,0.0));
#235=DIRECTION('',(1.0,0.0,0.0));
#236=DIRECTION('',(0.0,1.0,0.0));
#237=SURFACE_STYLE_FILL_AREA(#329);
#238=ORIENTED_EDGE('',*,*,#330,.T.);
#239=ORIENTED_EDGE('',*,*,#311,.F.);
#240=ORIENTED_EDGE('',*,*,#331,.F.);
#241=ORIENTED_EDGE('',*,*,#332,.T.);
#242=ORIENTED_EDGE('',*,*,#301,.F.);
#243=CARTESIAN_POINT('',(0.449999999999999,0.0,5.5107285922007E-017));
#244=DIRECTION('',(1.0,-0.0,1.22460635382238E-016));
#245=DIRECTION('',(0.0,1.0,0.0));
#246=SURFACE_STYLE_FILL_AREA(#333);
#247=ORIENTED_EDGE('',*,*,#316,.F.);
#248=ORIENTED_EDGE('',*,*,#334,.F.);
#249=ORIENTED_EDGE('',*,*,#318,.F.);
#250=ORIENTED_EDGE('',*,*,#335,.F.);
#251=CARTESIAN_POINT('',(24.7,0.0,0.0));
#252=DIRECTION('',(1.0,-0.0,-0.0));
#253=DIRECTION('',(0.0,1.0,0.0));
#254=SURFACE_STYLE_FILL_AREA(#336);
#255=ORIENTED_EDGE('',*,*,#327,.F.);
#256=ORIENTED_EDGE('',*,*,#335,.T.);
#257=ORIENTED_EDGE('',*,*,#328,.F.);
#258=ORIENTED_EDGE('',*,*,#322,.F.);
#259=CARTESIAN_POINT('',(12.5,0.0,0.0));
#260=DIRECTION('',(1.0,0.0,0.0));
#261=DIRECTION('',(0.0,1.0,0.0));
#262=SURFACE_STYLE_FILL_AREA(#337);
#263=ORIENTED_EDGE('',*,*,#310,.T.);
#264=ORIENTED_EDGE('',*,*,#307,.T.);
#265=ORIENTED_EDGE('',*,*,#338,.T.);
#266=ORIENTED_EDGE('',*,*,#313,.T.);
#267=ORIENTED_EDGE('',*,*,#339,.T.);
#268=ORIENTED_EDGE('',*,*,#331,.T.);
#269=CARTESIAN_POINT('',(12.5,0.0,0.0));
#270=DIRECTION('',(1.0,0.0,0.0));
#271=DIRECTION('',(0.0,0.0,-1.0));
#272=SURFACE_STYLE_FILL_AREA(#340);
#273=ORIENTED_EDGE('',*,*,#304,.T.);
#274=ORIENTED_EDGE('',*,*,#314,.F.);
#275=ORIENTED_EDGE('',*,*,#338,.F.);
#276=ORIENTED_EDGE('',*,*,#306,.T.);
#277=ORIENTED_EDGE('',*,*,#341,.F.);
#278=CARTESIAN_POINT('',(24.55,0.0,-1.10214571844014E-016));
#279=DIRECTION('',(-1.0,0.0,-2.44921270764476E-016));
#280=DIRECTION('',(0.0,1.0,0.0));
#281=SURFACE_STYLE_FILL_AREA(#342);
#282=ORIENTED_EDGE('',*,*,#319,.T.);
#283=ORIENTED_EDGE('',*,*,#334,.T.);
#284=ORIENTED_EDGE('',*,*,#341,.T.);
#285=ORIENTED_EDGE('',*,*,#305,.T.);
#286=CARTESIAN_POINT('',(25.0,0.0,0.0));
#287=DIRECTION('',(1.0,0.0,0.0));
#288=DIRECTION('',(0.0,0.0,-1.0));
#289=SURFACE_STYLE_FILL_AREA(#343);
#290=ORIENTED_EDGE('',*,*,#330,.F.);
#291=ORIENTED_EDGE('',*,*,#302,.F.);
#292=ORIENTED_EDGE('',*,*,#332,.F.);
#293=ORIENTED_EDGE('',*,*,#339,.F.);
#294=ORIENTED_EDGE('',*,*,#312,.F.);
#295=CARTESIAN_POINT('',(0.449999999999999,0.0,5.5107285922007E-017));
#296=DIRECTION('',(1.0,-0.0,1.22460635382238E-016));
#297=DIRECTION('',(0.0,1.0,0.0));
#298=FILL_AREA_STYLE('',(#344));
#299=EDGE_CURVE('',#345,#346,#347,.T.);
#300=EDGE_CURVE('',#346,#345,#348,.T.);
#301=EDGE_CURVE('',#349,#350,#351,.T.);
#302=EDGE_CURVE('',#350,#349,#352,.T.);
#303=FILL_AREA_STYLE('',(#353));
#304=EDGE_CURVE('',#354,#355,#356,.T.);
#305=EDGE_CURVE('',#357,#354,#358,.T.);
#306=EDGE_CURVE('',#359,#357,#360,.T.);
#307=EDGE_CURVE('',#361,#359,#362,.T.);
#308=EDGE_CURVE('',#355,#361,#363,.T.);
#309=FILL_AREA_STYLE('',(#364));
#310=EDGE_CURVE('',#365,#361,#366,.T.);
#311=EDGE_CURVE('',#365,#367,#368,.T.);
#312=EDGE_CURVE('',#367,#369,#370,.T.);
#313=EDGE_CURVE('',#371,#369,#372,.T.);
#314=EDGE_CURVE('',#371,#355,#373,.T.);
#315=FILL_AREA_STYLE('',(#374));
#316=EDGE_CURVE('',#375,#376,#377,.T.);
#317=EDGE_CURVE('',#378,#376,#379,.T.);
#318=EDGE_CURVE('',#378,#380,#381,.T.);
#319=EDGE_CURVE('',#375,#380,#382,.T.);
#320=FILL_AREA_STYLE('',(#383));
#321=EDGE_CURVE('',#384,#345,#385,.T.);
#322=EDGE_CURVE('',#384,#386,#387,.T.);
#323=EDGE_CURVE('',#346,#386,#388,.T.);
#324=FILL_AREA_STYLE('',(#389));
#325=EDGE_CURVE('',#386,#384,#390,.T.);
#326=FILL_AREA_STYLE('',(#391));
#327=EDGE_CURVE('',#376,#384,#392,.T.);
#328=EDGE_CURVE('',#386,#378,#393,.T.);
#329=FILL_AREA_STYLE('',(#394));
#330=EDGE_CURVE('',#349,#367,#395,.T.);
#331=EDGE_CURVE('',#396,#365,#397,.T.);
#332=EDGE_CURVE('',#396,#350,#398,.T.);
#333=FILL_AREA_STYLE('',(#399));
#334=EDGE_CURVE('',#380,#375,#400,.T.);
#335=EDGE_CURVE('',#376,#378,#401,.T.);
#336=FILL_AREA_STYLE('',(#402));
#337=FILL_AREA_STYLE('',(#403));
#338=EDGE_CURVE('',#359,#371,#404,.T.);
#339=EDGE_CURVE('',#369,#396,#405,.T.);
#340=FILL_AREA_STYLE('',(#406));
#341=EDGE_CURVE('',#354,#357,#407,.T.);
#342=FILL_AREA_STYLE('',(#408));
#343=FILL_AREA_STYLE('',(#409));
#344=FILL_AREA_STYLE_COLOUR('',#410);
#345=VERTEX_POINT('',#411);
#346=VERTEX_POINT('',#412);
#347=CIRCLE('',#413,15.6);
#348=CIRCLE('',#414,15.6);
#349=VERTEX_POINT('',#415);
#350=VERTEX_POINT('',#416);
#351=CIRCLE('',#417,21.6);
#352=CIRCLE('',#418,21.6);
#353=FILL_AREA_STYLE_COLOUR('',#419);
#354=VERTEX_POINT('',#420);
#355=VERTEX_POINT('',#421);
#356=LINE('',#422,#423);
#357=VERTEX_POINT('',#424);
#358=CIRCLE('',#425,21.6);
#359=VERTEX_POINT('',#426);
#360=LINE('',#427,#428);
#361=VERTEX_POINT('',#429);
#362=CIRCLE('',#430,22.5);
#363=CIRCLE('',#431,22.5);
#364=FILL_AREA_STYLE_COLOUR('',#432);
#365=VERTEX_POINT('',#433);
#366=LINE('',#434,#435);
#367=VERTEX_POINT('',#436);
#368=CIRCLE('',#437,22.5);
#369=VERTEX_POINT('',#438);
#370=CIRCLE('',#439,22.5);
#371=VERTEX_POINT('',#440);
#372=LINE('',#441,#442);
#373=CIRCLE('',#443,22.5);
#374=FILL_AREA_STYLE_COLOUR('',#444);
#375=VERTEX_POINT('',#445);
#376=VERTEX_POINT('',#446);
#377=LINE('',#447,#448);
#378=VERTEX_POINT('',#449);
#379=CIRCLE('',#450,15.0);
#380=VERTEX_POINT('',#451);
#381=LINE('',#452,#453);
#382=CIRCLE('',#454,15.6);
#383=FILL_AREA_STYLE_COLOUR('',#455);
#384=VERTEX_POINT('',#456);
#385=LINE('',#457,#458);
#386=VERTEX_POINT('',#459);
#387=CIRCLE('',#460,15.0);
#388=LINE('',#461,#462);
#389=FILL_AREA_STYLE_COLOUR('',#463);
#390=CIRCLE('',#464,15.0);
#391=FILL_AREA_STYLE_COLOUR('',#465);
#392=LINE('',#466,#467);
#393=LINE('',#468,#469);
#394=FILL_AREA_STYLE_COLOUR('',#470);
#395=LINE('',#471,#472);
#396=VERTEX_POINT('',#473);
#397=CIRCLE('',#474,22.5);
#398=LINE('',#475,#476);
#399=FILL_AREA_STYLE_COLOUR('',#477);
#400=CIRCLE('',#478,15.6);
#401=CIRCLE('',#479,15.0);
#402=FILL_AREA_STYLE_COLOUR('',#480);
#403=FILL_AREA_STYLE_COLOUR('',#481);
#404=CIRCLE('',#482,22.5);
#405=CIRCLE('',#483,22.5);
#406=FILL_AREA_STYLE_COLOUR('',#484);
#407=CIRCLE('',#485,21.6);
#408=FILL_AREA_STYLE_COLOUR('',#486);
#409=FILL_AREA_STYLE_COLOUR('',#487);
#410=COLOUR_RGB('',0.752941191196442,0.752941191196442,0.752941191196442);
#411=CARTESIAN_POINT('',(0.0,15.6,0.0));
#412=CARTESIAN_POINT('',(0.0,-15.6,1.91038591196291E-015));
#413=AXIS2_PLACEMENT_3D('',#488,#489,#490);
#414=AXIS2_PLACEMENT_3D('',#491,#492,#493);
#415=CARTESIAN_POINT('',(0.0,21.6,0.0));
#416=CARTESIAN_POINT('',(0.0,-21.6,-2.64514972425634E-015));
#417=AXIS2_PLACEMENT_3D('',#494,#495,#496);
#418=AXIS2_PLACEMENT_3D('',#497,#498,#499);
#419=COLOUR_RGB('',0.752941191196442,0.752941191196442,0.752941191196442);
#420=CARTESIAN_POINT('',(25.0,21.6,0.0));
#421=CARTESIAN_POINT('',(24.1,22.5,-2.20429143688028E-016));
#422=CARTESIAN_POINT('',(24.55,22.05,-2.81047158202236E-015));
#423=VECTOR('',#500,1.0);
#424=CARTESIAN_POINT('',(25.0,-21.6,2.64514972425634E-015));
#425=AXIS2_PLACEMENT_3D('',#501,#502,#503);
#426=CARTESIAN_POINT('',(24.1,-22.5,2.53493515241232E-015));
#427=CARTESIAN_POINT('',(24.55,-22.05,2.59004243833433E-015));
#428=VECTOR('',#504,1.0);
#429=CARTESIAN_POINT('',(24.1,-2.75536429610035E-015,-22.5));
#430=AXIS2_PLACEMENT_3D('',#505,#506,#507);
#431=AXIS2_PLACEMENT_3D('',#508,#509,#510);
#432=COLOUR_RGB('',0.752941191196442,0.752941191196442,0.752941191196442);
#433=CARTESIAN_POINT('',(0.900000000000003,-2.75536429610035E-015,-22.5));
#434=CARTESIAN_POINT('',(12.5,-2.75536429610035E-015,-22.5));
#435=VECTOR('',#511,1.0);
#436=CARTESIAN_POINT('',(0.9,22.5,1.10214571844014E-016));
#437=AXIS2_PLACEMENT_3D('',#512,#513,#514);
#438=CARTESIAN_POINT('',(0.899999999999998,2.75536429610035E-015,22.5));
#439=AXIS2_PLACEMENT_3D('',#515,#516,#517);
#440=CARTESIAN_POINT('',(24.1,2.75536429610035E-015,22.5));
#441=CARTESIAN_POINT('',(12.5,2.75536429610035E-015,22.5));
#442=VECTOR('',#518,1.0);
#443=AXIS2_PLACEMENT_3D('',#519,#520,#521);
#444=COLOUR_RGB('',0.752941191196442,0.752941191196442,0.752941191196442);
#445=CARTESIAN_POINT('',(25.0,15.6,0.0));
#446=CARTESIAN_POINT('',(24.4,15.0,0.0));
#447=CARTESIAN_POINT('',(24.7,15.3,-1.87364772134824E-015));
#448=VECTOR('',#522,1.0);
#449=CARTESIAN_POINT('',(24.4,-15.0,1.83690953073357E-015));
#450=AXIS2_PLACEMENT_3D('',#523,#524,#525);
#451=CARTESIAN_POINT('',(25.0,-15.6,1.91038591196291E-015));
#452=CARTESIAN_POINT('',(24.7,-15.3,1.87364772134824E-015));
#453=VECTOR('',#526,1.0);
#454=AXIS2_PLACEMENT_3D('',#527,#528,#529);
#455=COLOUR_RGB('',0.752941191196442,0.752941191196442,0.752941191196442);
#456=CARTESIAN_POINT('',(0.600000000000001,15.0,0.0));
#457=CARTESIAN_POINT('',(0.300000000000001,15.3,-1.87364772134824E-015));
#458=VECTOR('',#530,1.0);
#459=CARTESIAN_POINT('',(0.600000000000001,-15.0,1.83690953073357E-015));
#460=AXIS2_PLACEMENT_3D('',#531,#532,#533);
#461=CARTESIAN_POINT('',(0.300000000000001,-15.3,1.87364772134824E-015));
#462=VECTOR('',#534,1.0);
#463=COLOUR_RGB('',0.752941191196442,0.752941191196442,0.752941191196442);
#464=AXIS2_PLACEMENT_3D('',#535,#536,#537);
#465=COLOUR_RGB('',0.752941191196442,0.752941191196442,0.752941191196442);
#466=CARTESIAN_POINT('',(12.5,15.0,-1.83690953073357E-015));
#467=VECTOR('',#538,1.0);
#468=CARTESIAN_POINT('',(12.5,-15.0,1.83690953073357E-015));
#469=VECTOR('',#539,1.0);
#470=COLOUR_RGB('',0.752941191196442,0.752941191196442,0.752941191196442);
#471=CARTESIAN_POINT('',(0.449999999999999,22.05,2.75536429610035E-015));
#472=VECTOR('',#540,1.0);
#473=CARTESIAN_POINT('',(0.9,-22.5,-2.64514972425633E-015));
#474=AXIS2_PLACEMENT_3D('',#541,#542,#543);
#475=CARTESIAN_POINT('',(0.449999999999999,-22.05,-2.64514972425634E-015));
#476=VECTOR('',#544,1.0);
#477=COLOUR_RGB('',0.752941191196442,0.752941191196442,0.752941191196442);
#478=AXIS2_PLACEMENT_3D('',#545,#546,#547);
#479=AXIS2_PLACEMENT_3D('',#548,#549,#550);
#480=COLOUR_RGB('',0.752941191196442,0.752941191196442,0.752941191196442);
#481=COLOUR_RGB('',0.752941191196442,0.752941191196442,0.752941191196442);
#482=AXIS2_PLACEMENT_3D('',#551,#552,#553);
#483=AXIS2_PLACEMENT_3D('',#554,#555,#556);
#484=COLOUR_RGB('',0.752941191196442,0.752941191196442,0.752941191196442);
#485=AXIS2_PLACEMENT_3D('',#557,#558,#559);
#486=COLOUR_RGB('',0.752941191196442,0.752941191196442,0.752941191196442);
#487=COLOUR_RGB('',0.752941191196442,0.752941191196442,0.752941191196442);
#488=CARTESIAN_POINT('',(0.0,0.0,0.0));
#489=DIRECTION('',(1.0,0.0,0.0));
#490=DIRECTION('',(0.0,1.0,0.0));
#491=CARTESIAN_POINT('',(0.0,0.0,0.0));
#492=DIRECTION('',(1.0,0.0,0.0));
#493=DIRECTION('',(0.0,1.0,0.0));
#494=CARTESIAN_POINT('',(0.0,0.0,-9.86076131526265E-032));
#495=DIRECTION('',(-1.0,0.0,0.0));
#496=DIRECTION('',(0.0,1.0,0.0));
#497=CARTESIAN_POINT('',(0.0,0.0,-9.86076131526265E-032));
#498=DIRECTION('',(-1.0,0.0,0.0));
#499=DIRECTION('',(0.0,1.0,0.0));
#500=DIRECTION('',(-0.707106781186548,0.707106781186547,-2.59778237121581E-016));
#501=CARTESIAN_POINT('',(25.0,0.0,1.97215226305253E-031));
#502=DIRECTION('',(1.0,0.0,0.0));
#503=DIRECTION('',(0.0,1.0,0.0));
#504=DIRECTION('',(0.707106781186548,0.707106781186547,8.65927457071936E-017));
#505=CARTESIAN_POINT('',(24.1,0.0,0.0));
#506=DIRECTION('',(-1.0,0.0,-2.44921270764475E-016));
#507=DIRECTION('',(2.44921270764475E-016,0.0,-1.0));
#508=CARTESIAN_POINT('',(24.1,0.0,0.0));
#509=DIRECTION('',(-1.0,0.0,-2.44921270764475E-016));
#510=DIRECTION('',(2.44921270764475E-016,0.0,-1.0));
#511=DIRECTION('',(1.0,0.0,0.0));
#512=CARTESIAN_POINT('',(0.9,0.0,0.0));
#513=DIRECTION('',(1.0,0.0,1.22460635382238E-016));
#514=DIRECTION('',(1.22460635382238E-016,0.0,-1.0));
#515=CARTESIAN_POINT('',(0.9,0.0,0.0));
#516=DIRECTION('',(1.0,0.0,1.22460635382238E-016));
#517=DIRECTION('',(1.22460635382238E-016,0.0,-1.0));
#518=DIRECTION('',(-1.0,-0.0,-0.0));
#519=CARTESIAN_POINT('',(24.1,0.0,0.0));
#520=DIRECTION('',(-1.0,0.0,-2.44921270764475E-016));
#521=DIRECTION('',(2.44921270764475E-016,0.0,-1.0));
#522=DIRECTION('',(-0.707106781186549,-0.707106781186547,8.65927457071934E-017));
#523=CARTESIAN_POINT('',(24.4,0.0,0.0));
#524=DIRECTION('',(1.0,0.0,0.0));
#525=DIRECTION('',(0.0,1.0,0.0));
#526=DIRECTION('',(0.707106781186549,-0.707106781186547,8.65927457071934E-017));
#527=CARTESIAN_POINT('',(25.0,0.0,0.0));
#528=DIRECTION('',(-1.0,0.0,0.0));
#529=DIRECTION('',(0.0,1.0,0.0));
#530=DIRECTION('',(-0.707106781186548,0.707106781186547,-8.65927457071935E-017));
#531=CARTESIAN_POINT('',(0.600000000000001,0.0,0.0));
#532=DIRECTION('',(1.0,0.0,0.0));
#533=DIRECTION('',(0.0,1.0,0.0));
#534=DIRECTION('',(0.707106781186548,0.707106781186547,-8.65927457071935E-017));
#535=CARTESIAN_POINT('',(0.600000000000001,0.0,0.0));
#536=DIRECTION('',(1.0,0.0,0.0));
#537=DIRECTION('',(0.0,1.0,0.0));
#538=DIRECTION('',(-1.0,-0.0,0.0));
#539=DIRECTION('',(1.0,-0.0,0.0));
#540=DIRECTION('',(0.707106781186548,0.707106781186547,1.73185491414387E-016));
#541=CARTESIAN_POINT('',(0.9,0.0,0.0));
#542=DIRECTION('',(1.0,0.0,1.22460635382238E-016));
#543=DIRECTION('',(1.22460635382238E-016,0.0,-1.0));
#544=DIRECTION('',(-0.707106781186548,0.707106781186547,-1.7888002385964E-032));
#545=CARTESIAN_POINT('',(25.0,0.0,0.0));
#546=DIRECTION('',(-1.0,0.0,0.0));
#547=DIRECTION('',(0.0,1.0,0.0));
#548=CARTESIAN_POINT('',(24.4,0.0,0.0));
#549=DIRECTION('',(1.0,0.0,0.0));
#550=DIRECTION('',(0.0,1.0,0.0));
#551=CARTESIAN_POINT('',(24.1,0.0,0.0));
#552=DIRECTION('',(-1.0,0.0,-2.44921270764475E-016));
#553=DIRECTION('',(2.44921270764475E-016,0.0,-1.0));
#554=CARTESIAN_POINT('',(0.9,0.0,0.0));
#555=DIRECTION('',(1.0,0.0,1.22460635382238E-016));
#556=DIRECTION('',(1.22460635382238E-016,0.0,-1.0));
#557=CARTESIAN_POINT('',(25.0,0.0,1.97215226305253E-031));
#558=DIRECTION('',(1.0,0.0,0.0));
#559=DIRECTION('',(0.0,1.0,0.0));
ENDSEC;
END-ISO-10303-21;
